ISO-10303-21;
HEADER;
FILE_DESCRIPTION( ( 'STEP AP214' ), '1' );
FILE_NAME( '//goodhand-server/Shared Folders/GoodHand Data/Kipp CAD/K0159/K0159.13510.stp', '2020-11-26T09:49:14', ( '' ), ( '' ), ' ', 'PARTsolutions', ' ' );
FILE_SCHEMA( ( 'AUTOMOTIVE_DESIGN { 1 0 10303 214 1 1 1 1 }' ) );
ENDSEC;
DATA;
#1 = MECHANICAL_DESIGN_GEOMETRIC_PRESENTATION_REPRESENTATION( ' ', ( #10, #11, #12, #13, #14, #15 ), #6 );
#2 = PRODUCT_DEFINITION_CONTEXT( '', #16, 'design' );
#3 = APPLICATION_PROTOCOL_DEFINITION( 'international standard', 'automotive_design', 2001, #16 );
#4 = PRODUCT_CATEGORY_RELATIONSHIP( 'NONE', 'NONE', #17, #18 );
#5 = SHAPE_DEFINITION_REPRESENTATION( #19, #20 );
#6 =  ( GEOMETRIC_REPRESENTATION_CONTEXT( 3 )GLOBAL_UNCERTAINTY_ASSIGNED_CONTEXT( ( #23 ) )GLOBAL_UNIT_ASSIGNED_CONTEXT( ( #25, #26, #27 ) )REPRESENTATION_CONTEXT( 'NONE', 'WORKSPACE' ) );
#10 = STYLED_ITEM( '', ( #29 ), #30 );
#11 = STYLED_ITEM( '', ( #31 ), #32 );
#12 = STYLED_ITEM( '', ( #33 ), #34 );
#13 = STYLED_ITEM( '', ( #35 ), #36 );
#14 = STYLED_ITEM( '', ( #37 ), #38 );
#15 = STYLED_ITEM( '', ( #39 ), #40 );
#16 = APPLICATION_CONTEXT( 'core data for automotive mechanical design processes' );
#17 = PRODUCT_CATEGORY( 'part', 'NONE' );
#18 = PRODUCT_RELATED_PRODUCT_CATEGORY( 'detail', ' ', ( #41 ) );
#19 = PRODUCT_DEFINITION_SHAPE( 'NONE', 'NONE', #42 );
#20 = ADVANCED_BREP_SHAPE_REPRESENTATION( '_K0159.13510', ( #43, #44 ), #6 );
#23 = UNCERTAINTY_MEASURE_WITH_UNIT( LENGTH_MEASURE( 0.00100000000000000 ), #25, '', '' );
#25 =  ( CONVERSION_BASED_UNIT( 'MILLIMETRE', #47 )LENGTH_UNIT(  )NAMED_UNIT( #50 ) );
#26 =  ( NAMED_UNIT( #52 )PLANE_ANGLE_UNIT(  )SI_UNIT( $, .RADIAN. ) );
#27 =  ( NAMED_UNIT( #52 )SI_UNIT( $, .STERADIAN. )SOLID_ANGLE_UNIT(  ) );
#29 = PRESENTATION_STYLE_ASSIGNMENT( ( #58 ) );
#30 = ADVANCED_FACE( '', ( #59, #60 ), #61, .F. );
#31 = PRESENTATION_STYLE_ASSIGNMENT( ( #62 ) );
#32 = ADVANCED_FACE( '', ( #63, #64 ), #65, .F. );
#33 = PRESENTATION_STYLE_ASSIGNMENT( ( #66 ) );
#34 = ADVANCED_FACE( '', ( #67, #68 ), #69, .T. );
#35 = PRESENTATION_STYLE_ASSIGNMENT( ( #70 ) );
#36 = ADVANCED_FACE( '', ( #71, #72 ), #73, .F. );
#37 = PRESENTATION_STYLE_ASSIGNMENT( ( #74 ) );
#38 = ADVANCED_FACE( '', ( #75, #76 ), #77, .F. );
#39 = PRESENTATION_STYLE_ASSIGNMENT( ( #78 ) );
#40 = ADVANCED_FACE( '', ( #79, #80 ), #81, .F. );
#41 = PRODUCT( '_K0159.13510', '_K0159.13510', 'PART-_K0159.13510-DESC', ( #82 ) );
#42 = PRODUCT_DEFINITION( 'NONE', 'NONE', #83, #2 );
#43 = MANIFOLD_SOLID_BREP( '_K0159.13510', #84 );
#44 = AXIS2_PLACEMENT_3D( '', #85, #86, #87 );
#47 = LENGTH_MEASURE_WITH_UNIT( LENGTH_MEASURE( 1.00000000000000 ), #88 );
#50 = DIMENSIONAL_EXPONENTS( 1.00000000000000, 0.000000000000000, 0.000000000000000, 0.000000000000000, 0.000000000000000, 0.000000000000000, 0.000000000000000 );
#52 = DIMENSIONAL_EXPONENTS( 0.000000000000000, 0.000000000000000, 0.000000000000000, 0.000000000000000, 0.000000000000000, 0.000000000000000, 0.000000000000000 );
#58 = SURFACE_STYLE_USAGE( .BOTH., #89 );
#59 = FACE_OUTER_BOUND( '', #90, .T. );
#60 = FACE_OUTER_BOUND( '', #91, .T. );
#61 = CYLINDRICAL_SURFACE( '', #92, 4.18800000000000 );
#62 = SURFACE_STYLE_USAGE( .BOTH., #93 );
#63 = FACE_OUTER_BOUND( '', #94, .T. );
#64 = FACE_BOUND( '', #95, .T. );
#65 = CONICAL_SURFACE( '', #96, 857.167300702100, 1.02974425870000 );
#66 = SURFACE_STYLE_USAGE( .BOTH., #97 );
#67 = FACE_BOUND( '', #98, .T. );
#68 = FACE_OUTER_BOUND( '', #99, .T. );
#69 = SPHERICAL_SURFACE( '', #100, 17.5946969697000 );
#70 = SURFACE_STYLE_USAGE( .BOTH., #101 );
#71 = FACE_OUTER_BOUND( '', #102, .T. );
#72 = FACE_BOUND( '', #103, .T. );
#73 = CONICAL_SURFACE( '', #104, 4.18800000000000, 0.785398163400000 );
#74 = SURFACE_STYLE_USAGE( .BOTH., #105 );
#75 = FACE_OUTER_BOUND( '', #106, .T. );
#76 = FACE_OUTER_BOUND( '', #107, .T. );
#77 = CYLINDRICAL_SURFACE( '', #108, 5.00000000000000 );
#78 = SURFACE_STYLE_USAGE( .BOTH., #109 );
#79 = FACE_BOUND( '', #110, .T. );
#80 = FACE_OUTER_BOUND( '', #111, .T. );
#81 = PLANE( '', #112 );
#82 = PRODUCT_CONTEXT( '', #16, 'mechanical' );
#83 = PRODUCT_DEFINITION_FORMATION_WITH_SPECIFIED_SOURCE( ' ', 'NONE', #41, .NOT_KNOWN. );
#84 = CLOSED_SHELL( '', ( #32, #30, #40, #34, #36, #38 ) );
#85 = CARTESIAN_POINT( '', ( 0.000000000000000, 0.000000000000000, 0.000000000000000 ) );
#86 = DIRECTION( '', ( 0.000000000000000, 0.000000000000000, 1.00000000000000 ) );
#87 = DIRECTION( '', ( 1.00000000000000, 0.000000000000000, 0.000000000000000 ) );
#88 =  ( LENGTH_UNIT(  )NAMED_UNIT( #50 )SI_UNIT( .MILLI., .METRE. ) );
#89 = SURFACE_SIDE_STYLE( '', ( #114 ) );
#90 = EDGE_LOOP( '', ( #115 ) );
#91 = EDGE_LOOP( '', ( #116 ) );
#92 = AXIS2_PLACEMENT_3D( '', #117, #118, #119 );
#93 = SURFACE_SIDE_STYLE( '', ( #120 ) );
#94 = EDGE_LOOP( '', ( #121 ) );
#95 = VERTEX_LOOP( '', #122 );
#96 = AXIS2_PLACEMENT_3D( '', #123, #124, #125 );
#97 = SURFACE_SIDE_STYLE( '', ( #126 ) );
#98 = VERTEX_LOOP( '', #127 );
#99 = EDGE_LOOP( '', ( #128 ) );
#100 = AXIS2_PLACEMENT_3D( '', #129, #130, #131 );
#101 = SURFACE_SIDE_STYLE( '', ( #132 ) );
#102 = EDGE_LOOP( '', ( #133 ) );
#103 = EDGE_LOOP( '', ( #134 ) );
#104 = AXIS2_PLACEMENT_3D( '', #135, #136, #137 );
#105 = SURFACE_SIDE_STYLE( '', ( #138 ) );
#106 = EDGE_LOOP( '', ( #139 ) );
#107 = EDGE_LOOP( '', ( #140 ) );
#108 = AXIS2_PLACEMENT_3D( '', #141, #142, #143 );
#109 = SURFACE_SIDE_STYLE( '', ( #144 ) );
#110 = EDGE_LOOP( '', ( #145 ) );
#111 = EDGE_LOOP( '', ( #146 ) );
#112 = AXIS2_PLACEMENT_3D( '', #147, #148, #149 );
#114 = SURFACE_STYLE_FILL_AREA( #150 );
#115 = ORIENTED_EDGE( '', *, *, #151, .T. );
#116 = ORIENTED_EDGE( '', *, *, #152, .F. );
#117 = CARTESIAN_POINT( '', ( 0.000000000000000, 0.000000000000000, 0.000000000000000 ) );
#118 = DIRECTION( '', ( -0.000000000000000, 1.00000000000000, 0.000000000000000 ) );
#119 = DIRECTION( '', ( 0.000000000000000, 0.000000000000000, -1.00000000000000 ) );
#120 = SURFACE_STYLE_FILL_AREA( #153 );
#121 = ORIENTED_EDGE( '', *, *, #152, .T. );
#122 = VERTEX_POINT( '', #154 );
#123 = CARTESIAN_POINT( '', ( 0.000000000000000, -497.521670637567, 0.000000000000000 ) );
#124 = DIRECTION( '', ( -0.000000000000000, -1.00000000000000, -0.000000000000000 ) );
#125 = DIRECTION( '', ( 0.000000000000000, 0.000000000000000, -1.00000000000000 ) );
#126 = SURFACE_STYLE_FILL_AREA( #155 );
#127 = VERTEX_POINT( '', #156 );
#128 = ORIENTED_EDGE( '', *, *, #157, .F. );
#129 = CARTESIAN_POINT( '', ( -1.04083408558608E-14, 15.4053030303030, 0.000000000000000 ) );
#130 = DIRECTION( '', ( 0.000000000000000, -1.00000000000000, 0.000000000000000 ) );
#131 = DIRECTION( '', ( 1.00000000000000, 0.000000000000000, 0.000000000000000 ) );
#132 = SURFACE_STYLE_FILL_AREA( #158 );
#133 = ORIENTED_EDGE( '', *, *, #159, .T. );
#134 = ORIENTED_EDGE( '', *, *, #151, .F. );
#135 = CARTESIAN_POINT( '', ( 0.000000000000000, 2.31200000000000, 0.000000000000000 ) );
#136 = DIRECTION( '', ( -0.000000000000000, -1.00000000000000, -0.000000000000000 ) );
#137 = DIRECTION( '', ( 0.000000000000000, 0.000000000000000, -1.00000000000000 ) );
#138 = SURFACE_STYLE_FILL_AREA( #160 );
#139 = ORIENTED_EDGE( '', *, *, #161, .T. );
#140 = ORIENTED_EDGE( '', *, *, #159, .F. );
#141 = CARTESIAN_POINT( '', ( 0.000000000000000, 0.000000000000000, 0.000000000000000 ) );
#142 = DIRECTION( '', ( -0.000000000000000, 1.00000000000000, 0.000000000000000 ) );
#143 = DIRECTION( '', ( 0.000000000000000, 0.000000000000000, -1.00000000000000 ) );
#144 = SURFACE_STYLE_FILL_AREA( #162 );
#145 = ORIENTED_EDGE( '', *, *, #161, .F. );
#146 = ORIENTED_EDGE( '', *, *, #157, .T. );
#147 = CARTESIAN_POINT( '', ( 8.50000000000001, 1.73472347597681E-15, 0.000000000000000 ) );
#148 = DIRECTION( '', ( 0.000000000000000, 1.00000000000000, 0.000000000000000 ) );
#149 = DIRECTION( '', ( 0.000000000000000, -0.000000000000000, 1.00000000000000 ) );
#150 = FILL_AREA_STYLE( '', ( #163 ) );
#151 = EDGE_CURVE( '', #164, #164, #165, .T. );
#152 = EDGE_CURVE( '', #166, #166, #167, .T. );
#153 = FILL_AREA_STYLE( '', ( #168 ) );
#154 = CARTESIAN_POINT( '', ( 0.000000000000000, 17.5164042724874, 0.000000000000000 ) );
#155 = FILL_AREA_STYLE( '', ( #169 ) );
#156 = CARTESIAN_POINT( '', ( -9.33097638956549E-15, 33.0000000000000, 0.000000000000000 ) );
#157 = EDGE_CURVE( '', #170, #170, #171, .T. );
#158 = FILL_AREA_STYLE( '', ( #172 ) );
#159 = EDGE_CURVE( '', #173, #173, #174, .T. );
#160 = FILL_AREA_STYLE( '', ( #175 ) );
#161 = EDGE_CURVE( '', #176, #176, #177, .T. );
#162 = FILL_AREA_STYLE( '', ( #178 ) );
#163 = FILL_AREA_STYLE_COLOUR( '', #179 );
#164 = VERTEX_POINT( '', #180 );
#165 = CIRCLE( '', #181, 4.18800000000000 );
#166 = VERTEX_POINT( '', #182 );
#167 = CIRCLE( '', #183, 4.18800000000000 );
#168 = FILL_AREA_STYLE_COLOUR( '', #184 );
#169 = FILL_AREA_STYLE_COLOUR( '', #185 );
#170 = VERTEX_POINT( '', #186 );
#171 = CIRCLE( '', #187, 8.50000000000000 );
#172 = FILL_AREA_STYLE_COLOUR( '', #188 );
#173 = VERTEX_POINT( '', #189 );
#174 = CIRCLE( '', #190, 5.00000000000000 );
#175 = FILL_AREA_STYLE_COLOUR( '', #191 );
#176 = VERTEX_POINT( '', #192 );
#177 = CIRCLE( '', #193, 5.00000000000000 );
#178 = FILL_AREA_STYLE_COLOUR( '', #194 );
#179 = COLOUR_RGB( '', 0.689999997600000, 0.689999997600000, 0.689999997600000 );
#180 = CARTESIAN_POINT( '', ( 0.000000000000000, 2.31200000000000, -4.18800000000000 ) );
#181 = AXIS2_PLACEMENT_3D( '', #195, #196, #197 );
#182 = CARTESIAN_POINT( '', ( 0.000000000000000, 15.0000000000000, -4.18800000000000 ) );
#183 = AXIS2_PLACEMENT_3D( '', #198, #199, #200 );
#184 = COLOUR_RGB( '', 0.689999997600000, 0.689999997600000, 0.689999997600000 );
#185 = COLOUR_RGB( '', 0.689999997600000, 0.689999997600000, 0.689999997600000 );
#186 = CARTESIAN_POINT( '', ( 0.000000000000000, 3.46944695195361E-15, -8.50000000000000 ) );
#187 = AXIS2_PLACEMENT_3D( '', #201, #202, #203 );
#188 = COLOUR_RGB( '', 0.689999997600000, 0.689999997600000, 0.689999997600000 );
#189 = CARTESIAN_POINT( '', ( 0.000000000000000, 1.50000000000000, -5.00000000000000 ) );
#190 = AXIS2_PLACEMENT_3D( '', #204, #205, #206 );
#191 = COLOUR_RGB( '', 0.689999997600000, 0.689999997600000, 0.689999997600000 );
#192 = CARTESIAN_POINT( '', ( 0.000000000000000, 0.000000000000000, -5.00000000000000 ) );
#193 = AXIS2_PLACEMENT_3D( '', #207, #208, #209 );
#194 = COLOUR_RGB( '', 0.689999997600000, 0.689999997600000, 0.689999997600000 );
#195 = CARTESIAN_POINT( '', ( 0.000000000000000, 2.31200000000000, 0.000000000000000 ) );
#196 = DIRECTION( '', ( 0.000000000000000, -1.00000000000000, -0.000000000000000 ) );
#197 = DIRECTION( '', ( 0.000000000000000, 0.000000000000000, -1.00000000000000 ) );
#198 = CARTESIAN_POINT( '', ( 0.000000000000000, 15.0000000000000, 0.000000000000000 ) );
#199 = DIRECTION( '', ( 0.000000000000000, -1.00000000000000, -0.000000000000000 ) );
#200 = DIRECTION( '', ( 0.000000000000000, 0.000000000000000, -1.00000000000000 ) );
#201 = CARTESIAN_POINT( '', ( 0.000000000000000, 3.46944695195361E-15, 0.000000000000000 ) );
#202 = DIRECTION( '', ( 0.000000000000000, -1.00000000000000, -0.000000000000000 ) );
#203 = DIRECTION( '', ( 0.000000000000000, 0.000000000000000, -1.00000000000000 ) );
#204 = CARTESIAN_POINT( '', ( 0.000000000000000, 1.50000000000000, 0.000000000000000 ) );
#205 = DIRECTION( '', ( 0.000000000000000, -1.00000000000000, -0.000000000000000 ) );
#206 = DIRECTION( '', ( 0.000000000000000, 0.000000000000000, -1.00000000000000 ) );
#207 = CARTESIAN_POINT( '', ( 0.000000000000000, 0.000000000000000, 0.000000000000000 ) );
#208 = DIRECTION( '', ( 0.000000000000000, -1.00000000000000, -0.000000000000000 ) );
#209 = DIRECTION( '', ( 0.000000000000000, 0.000000000000000, -1.00000000000000 ) );
ENDSEC;
END-ISO-10303-21;
