ISO-10303-21;
HEADER;
FILE_DESCRIPTION( ( 'STEP AP214' ), '1' );
FILE_NAME( '//goodhand-server/Shared Folders/GoodHand Data/Kipp CAD/K0170/K0170.1208009.stp', '2020-11-26T10:50:44', ( '' ), ( '' ), ' ', 'PARTsolutions', ' ' );
FILE_SCHEMA( ( 'AUTOMOTIVE_DESIGN { 1 0 10303 214 1 1 1 1 }' ) );
ENDSEC;
DATA;
#1 = MECHANICAL_DESIGN_GEOMETRIC_PRESENTATION_REPRESENTATION( ' ', ( #10, #11, #12, #13, #14, #15, #16, #17, #18, #19, #20, #21, #22 ), #6 );
#2 = PRODUCT_DEFINITION_CONTEXT( '', #23, 'design' );
#3 = APPLICATION_PROTOCOL_DEFINITION( 'international standard', 'automotive_design', 2001, #23 );
#4 = PRODUCT_CATEGORY_RELATIONSHIP( 'NONE', 'NONE', #24, #25 );
#5 = SHAPE_DEFINITION_REPRESENTATION( #26, #27 );
#6 =  ( GEOMETRIC_REPRESENTATION_CONTEXT( 3 )GLOBAL_UNCERTAINTY_ASSIGNED_CONTEXT( ( #30 ) )GLOBAL_UNIT_ASSIGNED_CONTEXT( ( #32, #33, #34 ) )REPRESENTATION_CONTEXT( 'NONE', 'WORKSPACE' ) );
#10 = STYLED_ITEM( '', ( #36 ), #37 );
#11 = STYLED_ITEM( '', ( #38 ), #39 );
#12 = STYLED_ITEM( '', ( #40 ), #41 );
#13 = STYLED_ITEM( '', ( #42 ), #43 );
#14 = STYLED_ITEM( '', ( #44 ), #45 );
#15 = STYLED_ITEM( '', ( #46 ), #47 );
#16 = STYLED_ITEM( '', ( #48 ), #49 );
#17 = STYLED_ITEM( '', ( #50 ), #51 );
#18 = STYLED_ITEM( '', ( #52 ), #53 );
#19 = STYLED_ITEM( '', ( #54 ), #55 );
#20 = STYLED_ITEM( '', ( #56 ), #57 );
#21 = STYLED_ITEM( '', ( #58 ), #59 );
#22 = STYLED_ITEM( '', ( #60 ), #61 );
#23 = APPLICATION_CONTEXT( 'core data for automotive mechanical design processes' );
#24 = PRODUCT_CATEGORY( 'part', 'NONE' );
#25 = PRODUCT_RELATED_PRODUCT_CATEGORY( 'detail', ' ', ( #62 ) );
#26 = PRODUCT_DEFINITION_SHAPE( 'NONE', 'NONE', #63 );
#27 = ADVANCED_BREP_SHAPE_REPRESENTATION( '_K0170.1208009', ( #64, #65 ), #6 );
#30 = UNCERTAINTY_MEASURE_WITH_UNIT( LENGTH_MEASURE( 0.00100000000000000 ), #32, '', '' );
#32 =  ( CONVERSION_BASED_UNIT( 'MILLIMETRE', #68 )LENGTH_UNIT(  )NAMED_UNIT( #71 ) );
#33 =  ( NAMED_UNIT( #73 )PLANE_ANGLE_UNIT(  )SI_UNIT( $, .RADIAN. ) );
#34 =  ( NAMED_UNIT( #73 )SI_UNIT( $, .STERADIAN. )SOLID_ANGLE_UNIT(  ) );
#36 = PRESENTATION_STYLE_ASSIGNMENT( ( #79 ) );
#37 = ADVANCED_FACE( '', ( #80, #81 ), #82, .F. );
#38 = PRESENTATION_STYLE_ASSIGNMENT( ( #83 ) );
#39 = ADVANCED_FACE( '', ( #84 ), #85, .T. );
#40 = PRESENTATION_STYLE_ASSIGNMENT( ( #86 ) );
#41 = ADVANCED_FACE( '', ( #87, #88 ), #89, .T. );
#42 = PRESENTATION_STYLE_ASSIGNMENT( ( #90 ) );
#43 = ADVANCED_FACE( '', ( #91, #92 ), #93, .T. );
#44 = PRESENTATION_STYLE_ASSIGNMENT( ( #94 ) );
#45 = ADVANCED_FACE( '', ( #95, #96 ), #97, .T. );
#46 = PRESENTATION_STYLE_ASSIGNMENT( ( #98 ) );
#47 = ADVANCED_FACE( '', ( #99 ), #100, .T. );
#48 = PRESENTATION_STYLE_ASSIGNMENT( ( #101 ) );
#49 = ADVANCED_FACE( '', ( #102, #103 ), #104, .T. );
#50 = PRESENTATION_STYLE_ASSIGNMENT( ( #105 ) );
#51 = ADVANCED_FACE( '', ( #106 ), #107, .F. );
#52 = PRESENTATION_STYLE_ASSIGNMENT( ( #108 ) );
#53 = ADVANCED_FACE( '', ( #109, #110 ), #111, .T. );
#54 = PRESENTATION_STYLE_ASSIGNMENT( ( #112 ) );
#55 = ADVANCED_FACE( '', ( #113, #114 ), #115, .T. );
#56 = PRESENTATION_STYLE_ASSIGNMENT( ( #116 ) );
#57 = ADVANCED_FACE( '', ( #117, #118 ), #119, .T. );
#58 = PRESENTATION_STYLE_ASSIGNMENT( ( #120 ) );
#59 = ADVANCED_FACE( '', ( #121 ), #122, .F. );
#60 = PRESENTATION_STYLE_ASSIGNMENT( ( #123 ) );
#61 = ADVANCED_FACE( '', ( #124 ), #125, .F. );
#62 = PRODUCT( '_K0170.1208009', '_K0170.1208009', 'PART-_K0170.1208009-DESC', ( #126 ) );
#63 = PRODUCT_DEFINITION( 'NONE', 'NONE', #127, #2 );
#64 = MANIFOLD_SOLID_BREP( '_K0170.1208009', #128 );
#65 = AXIS2_PLACEMENT_3D( '', #129, #130, #131 );
#68 = LENGTH_MEASURE_WITH_UNIT( LENGTH_MEASURE( 1.00000000000000 ), #132 );
#71 = DIMENSIONAL_EXPONENTS( 1.00000000000000, 0.000000000000000, 0.000000000000000, 0.000000000000000, 0.000000000000000, 0.000000000000000, 0.000000000000000 );
#73 = DIMENSIONAL_EXPONENTS( 0.000000000000000, 0.000000000000000, 0.000000000000000, 0.000000000000000, 0.000000000000000, 0.000000000000000, 0.000000000000000 );
#79 = SURFACE_STYLE_USAGE( .BOTH., #133 );
#80 = FACE_OUTER_BOUND( '', #134, .T. );
#81 = FACE_BOUND( '', #135, .T. );
#82 = PLANE( '', #136 );
#83 = SURFACE_STYLE_USAGE( .BOTH., #137 );
#84 = FACE_OUTER_BOUND( '', #138, .T. );
#85 = PLANE( '', #139 );
#86 = SURFACE_STYLE_USAGE( .BOTH., #140 );
#87 = FACE_OUTER_BOUND( '', #141, .T. );
#88 = FACE_BOUND( '', #142, .T. );
#89 = CONICAL_SURFACE( '', #143, 3.23300000000000, 0.785398163400000 );
#90 = SURFACE_STYLE_USAGE( .BOTH., #144 );
#91 = FACE_OUTER_BOUND( '', #145, .T. );
#92 = FACE_OUTER_BOUND( '', #146, .T. );
#93 = CYLINDRICAL_SURFACE( '', #147, 11.5000000000000 );
#94 = SURFACE_STYLE_USAGE( .BOTH., #148 );
#95 = FACE_OUTER_BOUND( '', #149, .T. );
#96 = FACE_OUTER_BOUND( '', #150, .T. );
#97 = CYLINDRICAL_SURFACE( '', #151, 9.00000000000000 );
#98 = SURFACE_STYLE_USAGE( .BOTH., #152 );
#99 = FACE_OUTER_BOUND( '', #153, .T. );
#100 = PLANE( '', #154 );
#101 = SURFACE_STYLE_USAGE( .BOTH., #155 );
#102 = FACE_OUTER_BOUND( '', #156, .T. );
#103 = FACE_OUTER_BOUND( '', #157, .T. );
#104 = TOROIDAL_SURFACE( '', #158, 8.50000000000000, 3.00000000000000 );
#105 = SURFACE_STYLE_USAGE( .BOTH., #159 );
#106 = FACE_OUTER_BOUND( '', #160, .T. );
#107 = PLANE( '', #161 );
#108 = SURFACE_STYLE_USAGE( .BOTH., #162 );
#109 = FACE_OUTER_BOUND( '', #163, .T. );
#110 = FACE_BOUND( '', #164, .T. );
#111 = CONICAL_SURFACE( '', #165, 9.00000000000000, 0.0794502389000000 );
#112 = SURFACE_STYLE_USAGE( .BOTH., #166 );
#113 = FACE_OUTER_BOUND( '', #167, .T. );
#114 = FACE_BOUND( '', #168, .T. );
#115 = ( BOUNDED_SURFACE(  )B_SPLINE_SURFACE( 3, 3, ( ( #171, #172, #173, #174, #175, #176, #177 ), ( #178, #179, #180, #181, #182, #183, #184 ), ( #185, #186, #187, #188, #189, #190, #191 ), ( #192, #193, #194, #195, #196, #197, #198 ) ), .UNSPECIFIED., .F., .T., .F. )B_SPLINE_SURFACE_WITH_KNOTS( ( 4, 4 ), ( 4, 3, 4 ), ( 0.000000000000000, 6.28318530717959 ), ( 1.25591055740434, 1.39716026198008, 1.53840996655582 ), .UNSPECIFIED. )GEOMETRIC_REPRESENTATION_ITEM(  )RATIONAL_B_SPLINE_SURFACE( ( ( 1.00000000000000, 0.333333333333333, 0.333333333333333, 1.00000000000000, 0.333333333333333, 0.333333333333333, 1.00000000000000 ), ( 0.993360556899082, 0.331120185633027, 0.331120185633027, 0.993360556899082, 0.331120185633027, 0.331120185633027, 0.993360556899082 ), ( 0.993360556899082, 0.331120185633027, 0.331120185633027, 0.993360556899082, 0.331120185633027, 0.331120185633027, 0.993360556899082 ), ( 1.00000000000000, 0.333333333333333, 0.333333333333333, 1.00000000000000, 0.333333333333333, 0.333333333333333, 1.00000000000000 ) ) )REPRESENTATION_ITEM( '' )SURFACE(  ) );
#116 = SURFACE_STYLE_USAGE( .BOTH., #204 );
#117 = FACE_OUTER_BOUND( '', #205, .T. );
#118 = FACE_OUTER_BOUND( '', #206, .T. );
#119 = CYLINDRICAL_SURFACE( '', #207, 4.00000000000000 );
#120 = SURFACE_STYLE_USAGE( .BOTH., #208 );
#121 = FACE_OUTER_BOUND( '', #209, .T. );
#122 = PLANE( '', #210 );
#123 = SURFACE_STYLE_USAGE( .BOTH., #211 );
#124 = FACE_OUTER_BOUND( '', #212, .T. );
#125 = PLANE( '', #213 );
#126 = PRODUCT_CONTEXT( '', #23, 'mechanical' );
#127 = PRODUCT_DEFINITION_FORMATION_WITH_SPECIFIED_SOURCE( ' ', 'NONE', #62, .NOT_KNOWN. );
#128 = CLOSED_SHELL( '', ( #59, #39, #47, #37, #45, #57, #41, #61, #53, #43, #49, #55, #51 ) );
#129 = CARTESIAN_POINT( '', ( 0.000000000000000, 0.000000000000000, 0.000000000000000 ) );
#130 = DIRECTION( '', ( 0.000000000000000, 0.000000000000000, 1.00000000000000 ) );
#131 = DIRECTION( '', ( 1.00000000000000, 0.000000000000000, 0.000000000000000 ) );
#132 =  ( LENGTH_UNIT(  )NAMED_UNIT( #71 )SI_UNIT( .MILLI., .METRE. ) );
#133 = SURFACE_SIDE_STYLE( '', ( #215 ) );
#134 = EDGE_LOOP( '', ( #216, #217, #218, #219 ) );
#135 = EDGE_LOOP( '', ( #220 ) );
#136 = AXIS2_PLACEMENT_3D( '', #221, #222, #223 );
#137 = SURFACE_SIDE_STYLE( '', ( #224 ) );
#138 = EDGE_LOOP( '', ( #225, #226, #227, #228 ) );
#139 = AXIS2_PLACEMENT_3D( '', #229, #230, #231 );
#140 = SURFACE_SIDE_STYLE( '', ( #232 ) );
#141 = EDGE_LOOP( '', ( #233 ) );
#142 = EDGE_LOOP( '', ( #234 ) );
#143 = AXIS2_PLACEMENT_3D( '', #235, #236, #237 );
#144 = SURFACE_SIDE_STYLE( '', ( #238 ) );
#145 = EDGE_LOOP( '', ( #239 ) );
#146 = EDGE_LOOP( '', ( #240 ) );
#147 = AXIS2_PLACEMENT_3D( '', #241, #242, #243 );
#148 = SURFACE_SIDE_STYLE( '', ( #244 ) );
#149 = EDGE_LOOP( '', ( #245 ) );
#150 = EDGE_LOOP( '', ( #246, #247, #248, #249, #250, #251, #252, #253 ) );
#151 = AXIS2_PLACEMENT_3D( '', #254, #255, #256 );
#152 = SURFACE_SIDE_STYLE( '', ( #257 ) );
#153 = EDGE_LOOP( '', ( #258, #259, #260, #261 ) );
#154 = AXIS2_PLACEMENT_3D( '', #262, #263, #264 );
#155 = SURFACE_SIDE_STYLE( '', ( #265 ) );
#156 = EDGE_LOOP( '', ( #266 ) );
#157 = EDGE_LOOP( '', ( #267 ) );
#158 = AXIS2_PLACEMENT_3D( '', #268, #269, #270 );
#159 = SURFACE_SIDE_STYLE( '', ( #271 ) );
#160 = EDGE_LOOP( '', ( #272, #273 ) );
#161 = AXIS2_PLACEMENT_3D( '', #274, #275, #276 );
#162 = SURFACE_SIDE_STYLE( '', ( #277 ) );
#163 = EDGE_LOOP( '', ( #278 ) );
#164 = EDGE_LOOP( '', ( #279 ) );
#165 = AXIS2_PLACEMENT_3D( '', #280, #281, #282 );
#166 = SURFACE_SIDE_STYLE( '', ( #283 ) );
#167 = EDGE_LOOP( '', ( #284 ) );
#168 = VERTEX_LOOP( '', #285 );
#171 = CARTESIAN_POINT( '', ( 68.0000000000000, 0.000000000000000, 2.16840434497101E-16 ) );
#172 = CARTESIAN_POINT( '', ( 68.0000000000000, -4.33680868994202E-16, 2.16840434497101E-16 ) );
#173 = CARTESIAN_POINT( '', ( 68.0000000000000, -4.33680868994202E-16, -2.16840434497101E-16 ) );
#174 = CARTESIAN_POINT( '', ( 68.0000000000000, 0.000000000000000, -2.16840434497101E-16 ) );
#175 = CARTESIAN_POINT( '', ( 68.0000000000000, 4.33680868994202E-16, -2.16840434497101E-16 ) );
#176 = CARTESIAN_POINT( '', ( 68.0000000000000, 4.33680868994202E-16, 2.16840434497101E-16 ) );
#177 = CARTESIAN_POINT( '', ( 68.0000000000000, 0.000000000000000, 2.16840434497101E-16 ) );
#178 = CARTESIAN_POINT( '', ( 67.8959817803656, 0.000000000000000, -3.21066797588164 ) );
#179 = CARTESIAN_POINT( '', ( 67.8959817803656, 6.42133595176329, -3.21066797588164 ) );
#180 = CARTESIAN_POINT( '', ( 67.8959817803656, 6.42133595176329, 3.21066797588164 ) );
#181 = CARTESIAN_POINT( '', ( 67.8959817803656, 0.000000000000000, 3.21066797588164 ) );
#182 = CARTESIAN_POINT( '', ( 67.8959817803656, -6.42133595176329, 3.21066797588164 ) );
#183 = CARTESIAN_POINT( '', ( 67.8959817803656, -6.42133595176329, -3.21066797588164 ) );
#184 = CARTESIAN_POINT( '', ( 67.8959817803656, 0.000000000000000, -3.21066797588164 ) );
#185 = CARTESIAN_POINT( '', ( 67.3410001074975, 0.000000000000000, -6.37471664556868 ) );
#186 = CARTESIAN_POINT( '', ( 67.3410001074975, 12.7494332911374, -6.37471664556868 ) );
#187 = CARTESIAN_POINT( '', ( 67.3410001074975, 12.7494332911374, 6.37471664556868 ) );
#188 = CARTESIAN_POINT( '', ( 67.3410001074975, 0.000000000000000, 6.37471664556868 ) );
#189 = CARTESIAN_POINT( '', ( 67.3410001074975, -12.7494332911374, 6.37471664556868 ) );
#190 = CARTESIAN_POINT( '', ( 67.3410001074975, -12.7494332911374, -6.37471664556868 ) );
#191 = CARTESIAN_POINT( '', ( 67.3410001074975, 0.000000000000000, -6.37471664556868 ) );
#192 = CARTESIAN_POINT( '', ( 66.3461092891128, 0.000000000000000, -9.42912344572836 ) );
#193 = CARTESIAN_POINT( '', ( 66.3461092891128, 18.8582468914567, -9.42912344572836 ) );
#194 = CARTESIAN_POINT( '', ( 66.3461092891128, 18.8582468914567, 9.42912344572836 ) );
#195 = CARTESIAN_POINT( '', ( 66.3461092891128, 0.000000000000000, 9.42912344572836 ) );
#196 = CARTESIAN_POINT( '', ( 66.3461092891128, -18.8582468914567, 9.42912344572836 ) );
#197 = CARTESIAN_POINT( '', ( 66.3461092891128, -18.8582468914567, -9.42912344572836 ) );
#198 = CARTESIAN_POINT( '', ( 66.3461092891128, 0.000000000000000, -9.42912344572836 ) );
#204 = SURFACE_SIDE_STYLE( '', ( #286 ) );
#205 = EDGE_LOOP( '', ( #287 ) );
#206 = EDGE_LOOP( '', ( #288 ) );
#207 = AXIS2_PLACEMENT_3D( '', #289, #290, #291 );
#208 = SURFACE_SIDE_STYLE( '', ( #292 ) );
#209 = EDGE_LOOP( '', ( #293, #294 ) );
#210 = AXIS2_PLACEMENT_3D( '', #295, #296, #297 );
#211 = SURFACE_SIDE_STYLE( '', ( #298 ) );
#212 = EDGE_LOOP( '', ( #299 ) );
#213 = AXIS2_PLACEMENT_3D( '', #300, #301, #302 );
#215 = SURFACE_STYLE_FILL_AREA( #303 );
#216 = ORIENTED_EDGE( '', *, *, #304, .F. );
#217 = ORIENTED_EDGE( '', *, *, #305, .F. );
#218 = ORIENTED_EDGE( '', *, *, #306, .F. );
#219 = ORIENTED_EDGE( '', *, *, #307, .F. );
#220 = ORIENTED_EDGE( '', *, *, #308, .T. );
#221 = CARTESIAN_POINT( '', ( 0.000000000000000, 4.00000000000000, 0.000000000000000 ) );
#222 = DIRECTION( '', ( 1.00000000000000, 0.000000000000000, -0.000000000000000 ) );
#223 = DIRECTION( '', ( -0.000000000000000, 0.000000000000000, -1.00000000000000 ) );
#224 = SURFACE_STYLE_FILL_AREA( #309 );
#225 = ORIENTED_EDGE( '', *, *, #310, .T. );
#226 = ORIENTED_EDGE( '', *, *, #311, .T. );
#227 = ORIENTED_EDGE( '', *, *, #312, .T. );
#228 = ORIENTED_EDGE( '', *, *, #306, .T. );
#229 = CARTESIAN_POINT( '', ( 5.99000000000000, -8.00000000000000, -23.0000000000000 ) );
#230 = DIRECTION( '', ( 0.000000000000000, -1.00000000000000, 0.000000000000000 ) );
#231 = DIRECTION( '', ( 0.000000000000000, 0.000000000000000, -1.00000000000000 ) );
#232 = SURFACE_STYLE_FILL_AREA( #313 );
#233 = ORIENTED_EDGE( '', *, *, #314, .F. );
#234 = ORIENTED_EDGE( '', *, *, #315, .T. );
#235 = CARTESIAN_POINT( '', ( -9.00000000000001, 0.000000000000000, 0.000000000000000 ) );
#236 = DIRECTION( '', ( 1.00000000000000, -0.000000000000000, -0.000000000000000 ) );
#237 = DIRECTION( '', ( -0.000000000000000, 0.000000000000000, -1.00000000000000 ) );
#238 = SURFACE_STYLE_FILL_AREA( #316 );
#239 = ORIENTED_EDGE( '', *, *, #317, .F. );
#240 = ORIENTED_EDGE( '', *, *, #318, .T. );
#241 = CARTESIAN_POINT( '', ( 68.0000000000000, 0.000000000000000, 0.000000000000000 ) );
#242 = DIRECTION( '', ( -1.00000000000000, -0.000000000000000, 0.000000000000000 ) );
#243 = DIRECTION( '', ( -0.000000000000000, 0.000000000000000, -1.00000000000000 ) );
#244 = SURFACE_STYLE_FILL_AREA( #319 );
#245 = ORIENTED_EDGE( '', *, *, #320, .F. );
#246 = ORIENTED_EDGE( '', *, *, #310, .F. );
#247 = ORIENTED_EDGE( '', *, *, #305, .T. );
#248 = ORIENTED_EDGE( '', *, *, #321, .F. );
#249 = ORIENTED_EDGE( '', *, *, #322, .T. );
#250 = ORIENTED_EDGE( '', *, *, #323, .F. );
#251 = ORIENTED_EDGE( '', *, *, #307, .T. );
#252 = ORIENTED_EDGE( '', *, *, #312, .F. );
#253 = ORIENTED_EDGE( '', *, *, #324, .T. );
#254 = CARTESIAN_POINT( '', ( 68.0000000000000, 0.000000000000000, 0.000000000000000 ) );
#255 = DIRECTION( '', ( -1.00000000000000, -0.000000000000000, 0.000000000000000 ) );
#256 = DIRECTION( '', ( -0.000000000000000, 0.000000000000000, -1.00000000000000 ) );
#257 = SURFACE_STYLE_FILL_AREA( #325 );
#258 = ORIENTED_EDGE( '', *, *, #323, .T. );
#259 = ORIENTED_EDGE( '', *, *, #326, .T. );
#260 = ORIENTED_EDGE( '', *, *, #321, .T. );
#261 = ORIENTED_EDGE( '', *, *, #304, .T. );
#262 = CARTESIAN_POINT( '', ( 5.99000000000000, 8.00000000000000, 23.0000000000000 ) );
#263 = DIRECTION( '', ( -0.000000000000000, 1.00000000000000, 0.000000000000000 ) );
#264 = DIRECTION( '', ( 0.000000000000000, -0.000000000000000, 1.00000000000000 ) );
#265 = SURFACE_STYLE_FILL_AREA( #327 );
#266 = ORIENTED_EDGE( '', *, *, #317, .T. );
#267 = ORIENTED_EDGE( '', *, *, #328, .F. );
#268 = CARTESIAN_POINT( '', ( 63.4936139564965, 0.000000000000000, 0.000000000000000 ) );
#269 = DIRECTION( '', ( 1.00000000000000, 0.000000000000000, -0.000000000000000 ) );
#270 = DIRECTION( '', ( -0.000000000000000, 0.000000000000000, -1.00000000000000 ) );
#271 = SURFACE_STYLE_FILL_AREA( #329 );
#272 = ORIENTED_EDGE( '', *, *, #311, .F. );
#273 = ORIENTED_EDGE( '', *, *, #324, .F. );
#274 = CARTESIAN_POINT( '', ( 5.99000000000000, 0.000000000000000, 0.000000000000000 ) );
#275 = DIRECTION( '', ( 1.00000000000000, 0.000000000000000, -0.000000000000000 ) );
#276 = DIRECTION( '', ( -0.000000000000000, 0.000000000000000, -1.00000000000000 ) );
#277 = SURFACE_STYLE_FILL_AREA( #330 );
#278 = ORIENTED_EDGE( '', *, *, #318, .F. );
#279 = ORIENTED_EDGE( '', *, *, #320, .T. );
#280 = CARTESIAN_POINT( '', ( 6.00000000000000, 0.000000000000000, 0.000000000000000 ) );
#281 = DIRECTION( '', ( 1.00000000000000, -0.000000000000000, -0.000000000000000 ) );
#282 = DIRECTION( '', ( -0.000000000000000, 0.000000000000000, -1.00000000000000 ) );
#283 = SURFACE_STYLE_FILL_AREA( #331 );
#284 = ORIENTED_EDGE( '', *, *, #328, .T. );
#285 = VERTEX_POINT( '', #332 );
#286 = SURFACE_STYLE_FILL_AREA( #333 );
#287 = ORIENTED_EDGE( '', *, *, #308, .F. );
#288 = ORIENTED_EDGE( '', *, *, #314, .T. );
#289 = CARTESIAN_POINT( '', ( 68.0000000000000, 0.000000000000000, 0.000000000000000 ) );
#290 = DIRECTION( '', ( -1.00000000000000, -0.000000000000000, 0.000000000000000 ) );
#291 = DIRECTION( '', ( -0.000000000000000, 0.000000000000000, -1.00000000000000 ) );
#292 = SURFACE_STYLE_FILL_AREA( #334 );
#293 = ORIENTED_EDGE( '', *, *, #326, .F. );
#294 = ORIENTED_EDGE( '', *, *, #322, .F. );
#295 = CARTESIAN_POINT( '', ( 5.99000000000000, 0.000000000000000, 0.000000000000000 ) );
#296 = DIRECTION( '', ( 1.00000000000000, 0.000000000000000, 0.000000000000000 ) );
#297 = DIRECTION( '', ( 0.000000000000000, 0.000000000000000, -1.00000000000000 ) );
#298 = SURFACE_STYLE_FILL_AREA( #335 );
#299 = ORIENTED_EDGE( '', *, *, #315, .F. );
#300 = CARTESIAN_POINT( '', ( -9.00000000000000, 0.000000000000000, 0.000000000000000 ) );
#301 = DIRECTION( '', ( 1.00000000000000, 0.000000000000000, -0.000000000000000 ) );
#302 = DIRECTION( '', ( -0.000000000000000, 0.000000000000000, -1.00000000000000 ) );
#303 = FILL_AREA_STYLE( '', ( #336 ) );
#304 = EDGE_CURVE( '', #337, #338, #339, .T. );
#305 = EDGE_CURVE( '', #340, #337, #341, .T. );
#306 = EDGE_CURVE( '', #342, #340, #343, .T. );
#307 = EDGE_CURVE( '', #338, #342, #344, .T. );
#308 = EDGE_CURVE( '', #345, #345, #346, .T. );
#309 = FILL_AREA_STYLE( '', ( #347 ) );
#310 = EDGE_CURVE( '', #340, #348, #349, .T. );
#311 = EDGE_CURVE( '', #348, #350, #351, .T. );
#312 = EDGE_CURVE( '', #350, #342, #352, .F. );
#313 = FILL_AREA_STYLE( '', ( #353 ) );
#314 = EDGE_CURVE( '', #354, #354, #355, .T. );
#315 = EDGE_CURVE( '', #356, #356, #357, .T. );
#316 = FILL_AREA_STYLE( '', ( #358 ) );
#317 = EDGE_CURVE( '', #359, #359, #360, .T. );
#318 = EDGE_CURVE( '', #361, #361, #362, .T. );
#319 = FILL_AREA_STYLE( '', ( #363 ) );
#320 = EDGE_CURVE( '', #364, #364, #365, .T. );
#321 = EDGE_CURVE( '', #366, #337, #367, .F. );
#322 = EDGE_CURVE( '', #366, #368, #369, .T. );
#323 = EDGE_CURVE( '', #338, #368, #370, .T. );
#324 = EDGE_CURVE( '', #350, #348, #371, .T. );
#325 = FILL_AREA_STYLE( '', ( #372 ) );
#326 = EDGE_CURVE( '', #368, #366, #373, .T. );
#327 = FILL_AREA_STYLE( '', ( #374 ) );
#328 = EDGE_CURVE( '', #375, #375, #376, .T. );
#329 = FILL_AREA_STYLE( '', ( #377 ) );
#330 = FILL_AREA_STYLE( '', ( #378 ) );
#331 = FILL_AREA_STYLE( '', ( #379 ) );
#332 = CARTESIAN_POINT( '', ( 68.0000000000000, 0.000000000000000, 0.000000000000000 ) );
#333 = FILL_AREA_STYLE( '', ( #380 ) );
#334 = FILL_AREA_STYLE( '', ( #381 ) );
#335 = FILL_AREA_STYLE( '', ( #382 ) );
#336 = FILL_AREA_STYLE_COLOUR( '', #383 );
#337 = VERTEX_POINT( '', #384 );
#338 = VERTEX_POINT( '', #385 );
#339 = LINE( '', #386, #387 );
#340 = VERTEX_POINT( '', #388 );
#341 = CIRCLE( '', #389, 9.00000000000000 );
#342 = VERTEX_POINT( '', #390 );
#343 = LINE( '', #391, #392 );
#344 = CIRCLE( '', #393, 9.00000000000000 );
#345 = VERTEX_POINT( '', #394 );
#346 = CIRCLE( '', #395, 4.00000000000000 );
#347 = FILL_AREA_STYLE_COLOUR( '', #396 );
#348 = VERTEX_POINT( '', #397 );
#349 = LINE( '', #398, #399 );
#350 = VERTEX_POINT( '', #400 );
#351 = LINE( '', #401, #402 );
#352 = LINE( '', #403, #404 );
#353 = FILL_AREA_STYLE_COLOUR( '', #405 );
#354 = VERTEX_POINT( '', #406 );
#355 = CIRCLE( '', #407, 4.00000000000000 );
#356 = VERTEX_POINT( '', #408 );
#357 = CIRCLE( '', #409, 3.23300000000000 );
#358 = FILL_AREA_STYLE_COLOUR( '', #410 );
#359 = VERTEX_POINT( '', #411 );
#360 = CIRCLE( '', #412, 11.5000000000000 );
#361 = VERTEX_POINT( '', #413 );
#362 = CIRCLE( '', #414, 11.5000000000000 );
#363 = FILL_AREA_STYLE_COLOUR( '', #415 );
#364 = VERTEX_POINT( '', #416 );
#365 = CIRCLE( '', #417, 9.00000000000000 );
#366 = VERTEX_POINT( '', #418 );
#367 = LINE( '', #419, #420 );
#368 = VERTEX_POINT( '', #421 );
#369 = CIRCLE( '', #422, 9.00000000000000 );
#370 = LINE( '', #423, #424 );
#371 = CIRCLE( '', #425, 9.00000000000000 );
#372 = FILL_AREA_STYLE_COLOUR( '', #426 );
#373 = LINE( '', #427, #428 );
#374 = FILL_AREA_STYLE_COLOUR( '', #429 );
#375 = VERTEX_POINT( '', #430 );
#376 = CIRCLE( '', #431, 9.42912344570000 );
#377 = FILL_AREA_STYLE_COLOUR( '', #432 );
#378 = FILL_AREA_STYLE_COLOUR( '', #433 );
#379 = FILL_AREA_STYLE_COLOUR( '', #434 );
#380 = FILL_AREA_STYLE_COLOUR( '', #435 );
#381 = FILL_AREA_STYLE_COLOUR( '', #436 );
#382 = FILL_AREA_STYLE_COLOUR( '', #437 );
#383 = COLOUR_RGB( '', 0.689999997600000, 0.689999997600000, 0.689999997600000 );
#384 = CARTESIAN_POINT( '', ( 0.000000000000000, 8.00000000000000, -4.12310562561766 ) );
#385 = CARTESIAN_POINT( '', ( 0.000000000000000, 8.00000000000000, 4.12310562561766 ) );
#386 = CARTESIAN_POINT( '', ( 0.000000000000000, 8.00000000000000, 0.000000000000000 ) );
#387 = VECTOR( '', #438, 1000.00000000000 );
#388 = CARTESIAN_POINT( '', ( 0.000000000000000, -8.00000000000000, -4.12310562561766 ) );
#389 = AXIS2_PLACEMENT_3D( '', #439, #440, #441 );
#390 = CARTESIAN_POINT( '', ( 0.000000000000000, -8.00000000000000, 4.12310562561766 ) );
#391 = CARTESIAN_POINT( '', ( 0.000000000000000, -8.00000000000000, 0.000000000000000 ) );
#392 = VECTOR( '', #442, 1000.00000000000 );
#393 = AXIS2_PLACEMENT_3D( '', #443, #444, #445 );
#394 = CARTESIAN_POINT( '', ( 0.000000000000000, 0.000000000000000, -4.00000000000000 ) );
#395 = AXIS2_PLACEMENT_3D( '', #446, #447, #448 );
#396 = COLOUR_RGB( '', 0.689999997600000, 0.689999997600000, 0.689999997600000 );
#397 = CARTESIAN_POINT( '', ( 5.99000000000000, -8.00000000000000, -4.12310562561766 ) );
#398 = CARTESIAN_POINT( '', ( 68.0000000000000, -8.00000000000000, -4.12310562561766 ) );
#399 = VECTOR( '', #449, 1000.00000000000 );
#400 = CARTESIAN_POINT( '', ( 5.99000000000000, -8.00000000000000, 4.12310562561766 ) );
#401 = CARTESIAN_POINT( '', ( 5.99000000000000, -8.00000000000000, -23.0000000000000 ) );
#402 = VECTOR( '', #450, 1000.00000000000 );
#403 = CARTESIAN_POINT( '', ( 68.0000000000000, -8.00000000000000, 4.12310562561766 ) );
#404 = VECTOR( '', #451, 1000.00000000000 );
#405 = COLOUR_RGB( '', 0.689999997600000, 0.689999997600000, 0.689999997600000 );
#406 = CARTESIAN_POINT( '', ( -8.23300000000000, 0.000000000000000, -4.00000000000000 ) );
#407 = AXIS2_PLACEMENT_3D( '', #452, #453, #454 );
#408 = CARTESIAN_POINT( '', ( -9.00000000000001, 0.000000000000000, -3.23300000000000 ) );
#409 = AXIS2_PLACEMENT_3D( '', #455, #456, #457 );
#410 = COLOUR_RGB( '', 0.689999997600000, 0.689999997600000, 0.689999997600000 );
#411 = CARTESIAN_POINT( '', ( 63.4936139564965, 0.000000000000000, -11.5000000000000 ) );
#412 = AXIS2_PLACEMENT_3D( '', #458, #459, #460 );
#413 = CARTESIAN_POINT( '', ( 37.4000000000000, 0.000000000000000, -11.5000000000000 ) );
#414 = AXIS2_PLACEMENT_3D( '', #461, #462, #463 );
#415 = COLOUR_RGB( '', 0.689999997600000, 0.689999997600000, 0.689999997600000 );
#416 = CARTESIAN_POINT( '', ( 6.00000000000000, 0.000000000000000, -9.00000000000000 ) );
#417 = AXIS2_PLACEMENT_3D( '', #464, #465, #466 );
#418 = CARTESIAN_POINT( '', ( 5.99000000000000, 8.00000000000000, -4.12310562561766 ) );
#419 = CARTESIAN_POINT( '', ( 68.0000000000000, 8.00000000000000, -4.12310562561766 ) );
#420 = VECTOR( '', #467, 1000.00000000000 );
#421 = CARTESIAN_POINT( '', ( 5.99000000000000, 8.00000000000000, 4.12310562561766 ) );
#422 = AXIS2_PLACEMENT_3D( '', #468, #469, #470 );
#423 = CARTESIAN_POINT( '', ( 68.0000000000000, 8.00000000000000, 4.12310562561766 ) );
#424 = VECTOR( '', #471, 1000.00000000000 );
#425 = AXIS2_PLACEMENT_3D( '', #472, #473, #474 );
#426 = COLOUR_RGB( '', 0.689999997600000, 0.689999997600000, 0.689999997600000 );
#427 = CARTESIAN_POINT( '', ( 5.99000000000000, 8.00000000000000, 23.0000000000000 ) );
#428 = VECTOR( '', #475, 1000.00000000000 );
#429 = COLOUR_RGB( '', 0.689999997600000, 0.689999997600000, 0.689999997600000 );
#430 = CARTESIAN_POINT( '', ( 66.3461092891128, 0.000000000000000, -9.42912344572835 ) );
#431 = AXIS2_PLACEMENT_3D( '', #476, #477, #478 );
#432 = COLOUR_RGB( '', 0.689999997600000, 0.689999997600000, 0.689999997600000 );
#433 = COLOUR_RGB( '', 0.689999997600000, 0.689999997600000, 0.689999997600000 );
#434 = COLOUR_RGB( '', 0.689999997600000, 0.689999997600000, 0.689999997600000 );
#435 = COLOUR_RGB( '', 0.689999997600000, 0.689999997600000, 0.689999997600000 );
#436 = COLOUR_RGB( '', 0.689999997600000, 0.689999997600000, 0.689999997600000 );
#437 = COLOUR_RGB( '', 0.689999997600000, 0.689999997600000, 0.689999997600000 );
#438 = DIRECTION( '', ( 0.000000000000000, 0.000000000000000, 1.00000000000000 ) );
#439 = CARTESIAN_POINT( '', ( 0.000000000000000, 0.000000000000000, 0.000000000000000 ) );
#440 = DIRECTION( '', ( 1.00000000000000, 0.000000000000000, -0.000000000000000 ) );
#441 = DIRECTION( '', ( -0.000000000000000, 0.000000000000000, -1.00000000000000 ) );
#442 = DIRECTION( '', ( 0.000000000000000, 0.000000000000000, -1.00000000000000 ) );
#443 = CARTESIAN_POINT( '', ( 0.000000000000000, 0.000000000000000, 0.000000000000000 ) );
#444 = DIRECTION( '', ( 1.00000000000000, 0.000000000000000, -0.000000000000000 ) );
#445 = DIRECTION( '', ( -0.000000000000000, 0.000000000000000, -1.00000000000000 ) );
#446 = CARTESIAN_POINT( '', ( 0.000000000000000, 0.000000000000000, 0.000000000000000 ) );
#447 = DIRECTION( '', ( 1.00000000000000, 0.000000000000000, -0.000000000000000 ) );
#448 = DIRECTION( '', ( -0.000000000000000, 0.000000000000000, -1.00000000000000 ) );
#449 = DIRECTION( '', ( 1.00000000000000, -0.000000000000000, -0.000000000000000 ) );
#450 = DIRECTION( '', ( 0.000000000000000, 0.000000000000000, 1.00000000000000 ) );
#451 = DIRECTION( '', ( 1.00000000000000, -0.000000000000000, -0.000000000000000 ) );
#452 = CARTESIAN_POINT( '', ( -8.23300000000000, 0.000000000000000, 0.000000000000000 ) );
#453 = DIRECTION( '', ( 1.00000000000000, 0.000000000000000, -0.000000000000000 ) );
#454 = DIRECTION( '', ( -0.000000000000000, 0.000000000000000, -1.00000000000000 ) );
#455 = CARTESIAN_POINT( '', ( -9.00000000000001, 0.000000000000000, 0.000000000000000 ) );
#456 = DIRECTION( '', ( 1.00000000000000, 0.000000000000000, -0.000000000000000 ) );
#457 = DIRECTION( '', ( -0.000000000000000, 0.000000000000000, -1.00000000000000 ) );
#458 = CARTESIAN_POINT( '', ( 63.4936139564965, 0.000000000000000, 0.000000000000000 ) );
#459 = DIRECTION( '', ( 1.00000000000000, 0.000000000000000, -0.000000000000000 ) );
#460 = DIRECTION( '', ( -0.000000000000000, 0.000000000000000, -1.00000000000000 ) );
#461 = CARTESIAN_POINT( '', ( 37.4000000000000, 0.000000000000000, 0.000000000000000 ) );
#462 = DIRECTION( '', ( 1.00000000000000, 0.000000000000000, -0.000000000000000 ) );
#463 = DIRECTION( '', ( -0.000000000000000, 0.000000000000000, -1.00000000000000 ) );
#464 = CARTESIAN_POINT( '', ( 6.00000000000000, 0.000000000000000, 0.000000000000000 ) );
#465 = DIRECTION( '', ( 1.00000000000000, 0.000000000000000, -0.000000000000000 ) );
#466 = DIRECTION( '', ( -0.000000000000000, 0.000000000000000, -1.00000000000000 ) );
#467 = DIRECTION( '', ( 1.00000000000000, -0.000000000000000, -0.000000000000000 ) );
#468 = CARTESIAN_POINT( '', ( 5.99000000000000, 0.000000000000000, 0.000000000000000 ) );
#469 = DIRECTION( '', ( 1.00000000000000, 0.000000000000000, 0.000000000000000 ) );
#470 = DIRECTION( '', ( 0.000000000000000, 0.000000000000000, -1.00000000000000 ) );
#471 = DIRECTION( '', ( 1.00000000000000, -0.000000000000000, -0.000000000000000 ) );
#472 = CARTESIAN_POINT( '', ( 5.99000000000000, 0.000000000000000, 0.000000000000000 ) );
#473 = DIRECTION( '', ( 1.00000000000000, 0.000000000000000, -0.000000000000000 ) );
#474 = DIRECTION( '', ( -0.000000000000000, 0.000000000000000, -1.00000000000000 ) );
#475 = DIRECTION( '', ( 0.000000000000000, 0.000000000000000, -1.00000000000000 ) );
#476 = CARTESIAN_POINT( '', ( 66.3461092891128, 0.000000000000000, 0.000000000000000 ) );
#477 = DIRECTION( '', ( 1.00000000000000, 0.000000000000000, -0.000000000000000 ) );
#478 = DIRECTION( '', ( -0.000000000000000, 0.000000000000000, -1.00000000000000 ) );
ENDSEC;
END-ISO-10303-21;
