ISO-10303-21;
HEADER;
FILE_DESCRIPTION( ( 'STEP AP214' ), '1' );
FILE_NAME( '//goodhand-server/Shared Folders/GoodHand Data/Kipp CAD/K0714/K0714.16.stp', '2020-12-09T12:40:45', ( '' ), ( '' ), ' ', 'PARTsolutions', ' ' );
FILE_SCHEMA( ( 'AUTOMOTIVE_DESIGN { 1 0 10303 214 1 1 1 1 }' ) );
ENDSEC;
DATA;
#1 = MECHANICAL_DESIGN_GEOMETRIC_PRESENTATION_REPRESENTATION( ' ', ( #10, #11, #12, #13, #14, #15, #16, #17, #18, #19, #20, #21 ), #6 );
#2 = PRODUCT_DEFINITION_CONTEXT( '', #22, 'design' );
#3 = APPLICATION_PROTOCOL_DEFINITION( 'international standard', 'automotive_design', 2001, #22 );
#4 = PRODUCT_CATEGORY_RELATIONSHIP( 'NONE', 'NONE', #23, #24 );
#5 = SHAPE_DEFINITION_REPRESENTATION( #25, #26 );
#6 =  ( GEOMETRIC_REPRESENTATION_CONTEXT( 3 )GLOBAL_UNCERTAINTY_ASSIGNED_CONTEXT( ( #29 ) )GLOBAL_UNIT_ASSIGNED_CONTEXT( ( #31, #32, #33 ) )REPRESENTATION_CONTEXT( 'NONE', 'WORKSPACE' ) );
#10 = STYLED_ITEM( '', ( #35 ), #36 );
#11 = STYLED_ITEM( '', ( #37 ), #38 );
#12 = STYLED_ITEM( '', ( #39 ), #40 );
#13 = STYLED_ITEM( '', ( #41 ), #42 );
#14 = STYLED_ITEM( '', ( #43 ), #44 );
#15 = STYLED_ITEM( '', ( #45 ), #46 );
#16 = STYLED_ITEM( '', ( #47 ), #48 );
#17 = STYLED_ITEM( '', ( #49 ), #50 );
#18 = STYLED_ITEM( '', ( #51 ), #52 );
#19 = STYLED_ITEM( '', ( #53 ), #54 );
#20 = STYLED_ITEM( '', ( #55 ), #56 );
#21 = STYLED_ITEM( '', ( #57 ), #58 );
#22 = APPLICATION_CONTEXT( 'core data for automotive mechanical design processes' );
#23 = PRODUCT_CATEGORY( 'part', 'NONE' );
#24 = PRODUCT_RELATED_PRODUCT_CATEGORY( 'detail', ' ', ( #59 ) );
#25 = PRODUCT_DEFINITION_SHAPE( 'NONE', 'NONE', #60 );
#26 = ADVANCED_BREP_SHAPE_REPRESENTATION( '_K0714.16', ( #61, #62 ), #6 );
#29 = UNCERTAINTY_MEASURE_WITH_UNIT( LENGTH_MEASURE( 0.00100000000000000 ), #31, '', '' );
#31 =  ( CONVERSION_BASED_UNIT( 'MILLIMETRE', #65 )LENGTH_UNIT(  )NAMED_UNIT( #68 ) );
#32 =  ( NAMED_UNIT( #70 )PLANE_ANGLE_UNIT(  )SI_UNIT( $, .RADIAN. ) );
#33 =  ( NAMED_UNIT( #70 )SI_UNIT( $, .STERADIAN. )SOLID_ANGLE_UNIT(  ) );
#35 = PRESENTATION_STYLE_ASSIGNMENT( ( #76 ) );
#36 = ADVANCED_FACE( '', ( #77 ), #78, .F. );
#37 = PRESENTATION_STYLE_ASSIGNMENT( ( #79 ) );
#38 = ADVANCED_FACE( '', ( #80 ), #81, .T. );
#39 = PRESENTATION_STYLE_ASSIGNMENT( ( #82 ) );
#40 = ADVANCED_FACE( '', ( #83 ), #84, .T. );
#41 = PRESENTATION_STYLE_ASSIGNMENT( ( #85 ) );
#42 = ADVANCED_FACE( '', ( #86 ), #87, .F. );
#43 = PRESENTATION_STYLE_ASSIGNMENT( ( #88 ) );
#44 = ADVANCED_FACE( '', ( #89 ), #90, .F. );
#45 = PRESENTATION_STYLE_ASSIGNMENT( ( #91 ) );
#46 = ADVANCED_FACE( '', ( #92 ), #93, .F. );
#47 = PRESENTATION_STYLE_ASSIGNMENT( ( #94 ) );
#48 = ADVANCED_FACE( '', ( #95 ), #96, .F. );
#49 = PRESENTATION_STYLE_ASSIGNMENT( ( #97 ) );
#50 = ADVANCED_FACE( '', ( #98 ), #99, .F. );
#51 = PRESENTATION_STYLE_ASSIGNMENT( ( #100 ) );
#52 = ADVANCED_FACE( '', ( #101 ), #102, .T. );
#53 = PRESENTATION_STYLE_ASSIGNMENT( ( #103 ) );
#54 = ADVANCED_FACE( '', ( #104 ), #105, .F. );
#55 = PRESENTATION_STYLE_ASSIGNMENT( ( #106 ) );
#56 = ADVANCED_FACE( '', ( #107 ), #108, .T. );
#57 = PRESENTATION_STYLE_ASSIGNMENT( ( #109 ) );
#58 = ADVANCED_FACE( '', ( #110 ), #111, .F. );
#59 = PRODUCT( '_K0714.16', '_K0714.16', 'PART-_K0714.16-DESC', ( #112 ) );
#60 = PRODUCT_DEFINITION( 'NONE', 'NONE', #113, #2 );
#61 = MANIFOLD_SOLID_BREP( '_K0714.16', #114 );
#62 = AXIS2_PLACEMENT_3D( '', #115, #116, #117 );
#65 = LENGTH_MEASURE_WITH_UNIT( LENGTH_MEASURE( 1.00000000000000 ), #118 );
#68 = DIMENSIONAL_EXPONENTS( 1.00000000000000, 0.000000000000000, 0.000000000000000, 0.000000000000000, 0.000000000000000, 0.000000000000000, 0.000000000000000 );
#70 = DIMENSIONAL_EXPONENTS( 0.000000000000000, 0.000000000000000, 0.000000000000000, 0.000000000000000, 0.000000000000000, 0.000000000000000, 0.000000000000000 );
#76 = SURFACE_STYLE_USAGE( .BOTH., #119 );
#77 = FACE_OUTER_BOUND( '', #120, .T. );
#78 = PLANE( '', #121 );
#79 = SURFACE_STYLE_USAGE( .BOTH., #122 );
#80 = FACE_OUTER_BOUND( '', #123, .T. );
#81 = CYLINDRICAL_SURFACE( '', #124, 7.15000000000000 );
#82 = SURFACE_STYLE_USAGE( .BOTH., #125 );
#83 = FACE_OUTER_BOUND( '', #126, .T. );
#84 = CYLINDRICAL_SURFACE( '', #127, 1.30000000000000 );
#85 = SURFACE_STYLE_USAGE( .BOTH., #128 );
#86 = FACE_OUTER_BOUND( '', #129, .T. );
#87 = PLANE( '', #130 );
#88 = SURFACE_STYLE_USAGE( .BOTH., #131 );
#89 = FACE_OUTER_BOUND( '', #132, .T. );
#90 = CYLINDRICAL_SURFACE( '', #133, 0.650000000000000 );
#91 = SURFACE_STYLE_USAGE( .BOTH., #134 );
#92 = FACE_OUTER_BOUND( '', #135, .T. );
#93 = CYLINDRICAL_SURFACE( '', #136, 6.50000000000000 );
#94 = SURFACE_STYLE_USAGE( .BOTH., #137 );
#95 = FACE_OUTER_BOUND( '', #138, .T. );
#96 = PLANE( '', #139 );
#97 = SURFACE_STYLE_USAGE( .BOTH., #140 );
#98 = FACE_OUTER_BOUND( '', #141, .T. );
#99 = PLANE( '', #142 );
#100 = SURFACE_STYLE_USAGE( .BOTH., #143 );
#101 = FACE_OUTER_BOUND( '', #144, .T. );
#102 = PLANE( '', #145 );
#103 = SURFACE_STYLE_USAGE( .BOTH., #146 );
#104 = FACE_OUTER_BOUND( '', #147, .T. );
#105 = PLANE( '', #148 );
#106 = SURFACE_STYLE_USAGE( .BOTH., #149 );
#107 = FACE_OUTER_BOUND( '', #150, .T. );
#108 = PLANE( '', #151 );
#109 = SURFACE_STYLE_USAGE( .BOTH., #152 );
#110 = FACE_OUTER_BOUND( '', #153, .T. );
#111 = PLANE( '', #154 );
#112 = PRODUCT_CONTEXT( '', #22, 'mechanical' );
#113 = PRODUCT_DEFINITION_FORMATION_WITH_SPECIFIED_SOURCE( ' ', 'NONE', #59, .NOT_KNOWN. );
#114 = CLOSED_SHELL( '', ( #58, #56, #54, #42, #48, #36, #52, #44, #38, #50, #46, #40 ) );
#115 = CARTESIAN_POINT( '', ( 0.000000000000000, 0.000000000000000, 0.000000000000000 ) );
#116 = DIRECTION( '', ( 0.000000000000000, 0.000000000000000, 1.00000000000000 ) );
#117 = DIRECTION( '', ( 1.00000000000000, 0.000000000000000, 0.000000000000000 ) );
#118 =  ( LENGTH_UNIT(  )NAMED_UNIT( #68 )SI_UNIT( .MILLI., .METRE. ) );
#119 = SURFACE_SIDE_STYLE( '', ( #156 ) );
#120 = EDGE_LOOP( '', ( #157, #158, #159, #160 ) );
#121 = AXIS2_PLACEMENT_3D( '', #161, #162, #163 );
#122 = SURFACE_SIDE_STYLE( '', ( #164 ) );
#123 = EDGE_LOOP( '', ( #165, #166, #167, #168, #169, #170 ) );
#124 = AXIS2_PLACEMENT_3D( '', #171, #172, #173 );
#125 = SURFACE_SIDE_STYLE( '', ( #174 ) );
#126 = EDGE_LOOP( '', ( #175, #176, #177, #178 ) );
#127 = AXIS2_PLACEMENT_3D( '', #179, #180, #181 );
#128 = SURFACE_SIDE_STYLE( '', ( #182 ) );
#129 = EDGE_LOOP( '', ( #183, #184, #185, #186 ) );
#130 = AXIS2_PLACEMENT_3D( '', #187, #188, #189 );
#131 = SURFACE_SIDE_STYLE( '', ( #190 ) );
#132 = EDGE_LOOP( '', ( #191, #192, #193, #194 ) );
#133 = AXIS2_PLACEMENT_3D( '', #195, #196, #197 );
#134 = SURFACE_SIDE_STYLE( '', ( #198 ) );
#135 = EDGE_LOOP( '', ( #199, #200, #201, #202, #203, #204 ) );
#136 = AXIS2_PLACEMENT_3D( '', #205, #206, #207 );
#137 = SURFACE_SIDE_STYLE( '', ( #208 ) );
#138 = EDGE_LOOP( '', ( #209, #210, #211, #212 ) );
#139 = AXIS2_PLACEMENT_3D( '', #213, #214, #215 );
#140 = SURFACE_SIDE_STYLE( '', ( #216 ) );
#141 = EDGE_LOOP( '', ( #217, #218, #219, #220 ) );
#142 = AXIS2_PLACEMENT_3D( '', #221, #222, #223 );
#143 = SURFACE_SIDE_STYLE( '', ( #224 ) );
#144 = EDGE_LOOP( '', ( #225, #226, #227, #228, #229, #230, #231, #232 ) );
#145 = AXIS2_PLACEMENT_3D( '', #233, #234, #235 );
#146 = SURFACE_SIDE_STYLE( '', ( #236 ) );
#147 = EDGE_LOOP( '', ( #237, #238, #239, #240, #241, #242, #243, #244 ) );
#148 = AXIS2_PLACEMENT_3D( '', #245, #246, #247 );
#149 = SURFACE_SIDE_STYLE( '', ( #248 ) );
#150 = EDGE_LOOP( '', ( #249, #250, #251, #252 ) );
#151 = AXIS2_PLACEMENT_3D( '', #253, #254, #255 );
#152 = SURFACE_SIDE_STYLE( '', ( #256 ) );
#153 = EDGE_LOOP( '', ( #257, #258, #259, #260 ) );
#154 = AXIS2_PLACEMENT_3D( '', #261, #262, #263 );
#156 = SURFACE_STYLE_FILL_AREA( #264 );
#157 = ORIENTED_EDGE( '', *, *, #265, .T. );
#158 = ORIENTED_EDGE( '', *, *, #266, .F. );
#159 = ORIENTED_EDGE( '', *, *, #267, .F. );
#160 = ORIENTED_EDGE( '', *, *, #268, .T. );
#161 = CARTESIAN_POINT( '', ( 0.650000000000000, -3.11729049015328, 7.80000000000000 ) );
#162 = DIRECTION( '', ( 0.000000000000000, 0.000000000000000, 1.00000000000000 ) );
#163 = DIRECTION( '', ( 1.00000000000000, 0.000000000000000, -0.000000000000000 ) );
#164 = SURFACE_STYLE_FILL_AREA( #269 );
#165 = ORIENTED_EDGE( '', *, *, #270, .T. );
#166 = ORIENTED_EDGE( '', *, *, #271, .F. );
#167 = ORIENTED_EDGE( '', *, *, #272, .F. );
#168 = ORIENTED_EDGE( '', *, *, #273, .F. );
#169 = ORIENTED_EDGE( '', *, *, #274, .F. );
#170 = ORIENTED_EDGE( '', *, *, #275, .T. );
#171 = CARTESIAN_POINT( '', ( 0.650000000000000, -1.95156391047391E-15, 0.000000000000000 ) );
#172 = DIRECTION( '', ( 1.00000000000000, -0.000000000000000, -0.000000000000000 ) );
#173 = DIRECTION( '', ( 0.000000000000000, 0.000000000000000, 1.00000000000000 ) );
#174 = SURFACE_STYLE_FILL_AREA( #276 );
#175 = ORIENTED_EDGE( '', *, *, #277, .T. );
#176 = ORIENTED_EDGE( '', *, *, #278, .F. );
#177 = ORIENTED_EDGE( '', *, *, #279, .F. );
#178 = ORIENTED_EDGE( '', *, *, #280, .T. );
#179 = CARTESIAN_POINT( '', ( 0.650000000000000, -3.11729049015326, 7.15000000000000 ) );
#180 = DIRECTION( '', ( 1.00000000000000, -0.000000000000000, -0.000000000000000 ) );
#181 = DIRECTION( '', ( 0.000000000000000, 0.000000000000000, 1.00000000000000 ) );
#182 = SURFACE_STYLE_FILL_AREA( #281 );
#183 = ORIENTED_EDGE( '', *, *, #282, .T. );
#184 = ORIENTED_EDGE( '', *, *, #283, .F. );
#185 = ORIENTED_EDGE( '', *, *, #284, .F. );
#186 = ORIENTED_EDGE( '', *, *, #266, .T. );
#187 = CARTESIAN_POINT( '', ( 0.650000000000000, -1.29999999999999, 7.80000000000000 ) );
#188 = DIRECTION( '', ( 0.000000000000000, -1.00000000000000, -3.33600668457079E-16 ) );
#189 = DIRECTION( '', ( 0.000000000000000, 3.33600668457079E-16, -1.00000000000000 ) );
#190 = SURFACE_STYLE_FILL_AREA( #285 );
#191 = ORIENTED_EDGE( '', *, *, #286, .F. );
#192 = ORIENTED_EDGE( '', *, *, #268, .F. );
#193 = ORIENTED_EDGE( '', *, *, #287, .T. );
#194 = ORIENTED_EDGE( '', *, *, #271, .T. );
#195 = CARTESIAN_POINT( '', ( 0.650000000000000, -3.11729049015327, 7.15000000000000 ) );
#196 = DIRECTION( '', ( 1.00000000000000, -0.000000000000000, -0.000000000000000 ) );
#197 = DIRECTION( '', ( 0.000000000000000, 0.000000000000000, 1.00000000000000 ) );
#198 = SURFACE_STYLE_FILL_AREA( #288 );
#199 = ORIENTED_EDGE( '', *, *, #289, .F. );
#200 = ORIENTED_EDGE( '', *, *, #290, .F. );
#201 = ORIENTED_EDGE( '', *, *, #291, .T. );
#202 = ORIENTED_EDGE( '', *, *, #292, .T. );
#203 = ORIENTED_EDGE( '', *, *, #293, .T. );
#204 = ORIENTED_EDGE( '', *, *, #278, .T. );
#205 = CARTESIAN_POINT( '', ( 0.650000000000000, -1.08420217248550E-15, 4.33680868994202E-16 ) );
#206 = DIRECTION( '', ( 1.00000000000000, -0.000000000000000, -0.000000000000000 ) );
#207 = DIRECTION( '', ( 0.000000000000000, 0.000000000000000, 1.00000000000000 ) );
#208 = SURFACE_STYLE_FILL_AREA( #294 );
#209 = ORIENTED_EDGE( '', *, *, #295, .T. );
#210 = ORIENTED_EDGE( '', *, *, #280, .F. );
#211 = ORIENTED_EDGE( '', *, *, #296, .F. );
#212 = ORIENTED_EDGE( '', *, *, #283, .T. );
#213 = CARTESIAN_POINT( '', ( 0.650000000000000, -1.29999999999999, 8.45000000000000 ) );
#214 = DIRECTION( '', ( 0.000000000000000, 0.000000000000000, -1.00000000000000 ) );
#215 = DIRECTION( '', ( -1.00000000000000, 0.000000000000000, 0.000000000000000 ) );
#216 = SURFACE_STYLE_FILL_AREA( #297 );
#217 = ORIENTED_EDGE( '', *, *, #298, .T. );
#218 = ORIENTED_EDGE( '', *, *, #275, .F. );
#219 = ORIENTED_EDGE( '', *, *, #299, .F. );
#220 = ORIENTED_EDGE( '', *, *, #290, .T. );
#221 = CARTESIAN_POINT( '', ( 0.650000000000000, -3.25000000000000, -5.62916512459885 ) );
#222 = DIRECTION( '', ( 0.000000000000000, 0.866025403784435, -0.500000000000006 ) );
#223 = DIRECTION( '', ( 0.000000000000000, 0.500000000000006, 0.866025403784435 ) );
#224 = SURFACE_STYLE_FILL_AREA( #300 );
#225 = ORIENTED_EDGE( '', *, *, #301, .F. );
#226 = ORIENTED_EDGE( '', *, *, #272, .T. );
#227 = ORIENTED_EDGE( '', *, *, #287, .F. );
#228 = ORIENTED_EDGE( '', *, *, #267, .T. );
#229 = ORIENTED_EDGE( '', *, *, #284, .T. );
#230 = ORIENTED_EDGE( '', *, *, #296, .T. );
#231 = ORIENTED_EDGE( '', *, *, #279, .T. );
#232 = ORIENTED_EDGE( '', *, *, #293, .F. );
#233 = CARTESIAN_POINT( '', ( 0.650000000000000, -3.11729049015326, 7.15000000000000 ) );
#234 = DIRECTION( '', ( 1.00000000000000, 0.000000000000000, 0.000000000000000 ) );
#235 = DIRECTION( '', ( 0.000000000000000, 0.000000000000000, -1.00000000000000 ) );
#236 = SURFACE_STYLE_FILL_AREA( #302 );
#237 = ORIENTED_EDGE( '', *, *, #282, .F. );
#238 = ORIENTED_EDGE( '', *, *, #265, .F. );
#239 = ORIENTED_EDGE( '', *, *, #286, .T. );
#240 = ORIENTED_EDGE( '', *, *, #270, .F. );
#241 = ORIENTED_EDGE( '', *, *, #298, .F. );
#242 = ORIENTED_EDGE( '', *, *, #289, .T. );
#243 = ORIENTED_EDGE( '', *, *, #277, .F. );
#244 = ORIENTED_EDGE( '', *, *, #295, .F. );
#245 = CARTESIAN_POINT( '', ( 0.000000000000000, -3.11729049015326, 7.15000000000000 ) );
#246 = DIRECTION( '', ( 1.00000000000000, 0.000000000000000, 0.000000000000000 ) );
#247 = DIRECTION( '', ( 0.000000000000000, 0.000000000000000, -1.00000000000000 ) );
#248 = SURFACE_STYLE_FILL_AREA( #303 );
#249 = ORIENTED_EDGE( '', *, *, #291, .F. );
#250 = ORIENTED_EDGE( '', *, *, #299, .T. );
#251 = ORIENTED_EDGE( '', *, *, #274, .T. );
#252 = ORIENTED_EDGE( '', *, *, #304, .T. );
#253 = CARTESIAN_POINT( '', ( 20.3000000000000, -1.01047642475649E-13, -2.09901540593194E-13 ) );
#254 = DIRECTION( '', ( 1.00000000000000, 0.000000000000000, 0.000000000000000 ) );
#255 = DIRECTION( '', ( 0.000000000000000, 0.000000000000000, -1.00000000000000 ) );
#256 = SURFACE_STYLE_FILL_AREA( #305 );
#257 = ORIENTED_EDGE( '', *, *, #301, .T. );
#258 = ORIENTED_EDGE( '', *, *, #292, .F. );
#259 = ORIENTED_EDGE( '', *, *, #304, .F. );
#260 = ORIENTED_EDGE( '', *, *, #273, .T. );
#261 = CARTESIAN_POINT( '', ( 20.3000000000000, -2.99728011132369, -6.49144143732834 ) );
#262 = DIRECTION( '', ( 0.000000000000000, -0.866025403784439, 0.499999999999999 ) );
#263 = DIRECTION( '', ( 0.000000000000000, -0.499999999999999, -0.866025403784439 ) );
#264 = FILL_AREA_STYLE( '', ( #306 ) );
#265 = EDGE_CURVE( '', #307, #308, #309, .T. );
#266 = EDGE_CURVE( '', #310, #308, #311, .T. );
#267 = EDGE_CURVE( '', #312, #310, #313, .T. );
#268 = EDGE_CURVE( '', #312, #307, #314, .T. );
#269 = FILL_AREA_STYLE( '', ( #315 ) );
#270 = EDGE_CURVE( '', #316, #317, #318, .T. );
#271 = EDGE_CURVE( '', #319, #317, #320, .T. );
#272 = EDGE_CURVE( '', #321, #319, #322, .T. );
#273 = EDGE_CURVE( '', #323, #321, #324, .T. );
#274 = EDGE_CURVE( '', #325, #323, #326, .T. );
#275 = EDGE_CURVE( '', #325, #316, #327, .T. );
#276 = FILL_AREA_STYLE( '', ( #328 ) );
#277 = EDGE_CURVE( '', #329, #330, #331, .T. );
#278 = EDGE_CURVE( '', #332, #330, #333, .T. );
#279 = EDGE_CURVE( '', #334, #332, #335, .T. );
#280 = EDGE_CURVE( '', #334, #329, #336, .T. );
#281 = FILL_AREA_STYLE( '', ( #337 ) );
#282 = EDGE_CURVE( '', #308, #338, #339, .T. );
#283 = EDGE_CURVE( '', #340, #338, #341, .T. );
#284 = EDGE_CURVE( '', #310, #340, #342, .T. );
#285 = FILL_AREA_STYLE( '', ( #343 ) );
#286 = EDGE_CURVE( '', #307, #317, #344, .T. );
#287 = EDGE_CURVE( '', #312, #319, #345, .T. );
#288 = FILL_AREA_STYLE( '', ( #346 ) );
#289 = EDGE_CURVE( '', #347, #330, #348, .T. );
#290 = EDGE_CURVE( '', #349, #347, #350, .T. );
#291 = EDGE_CURVE( '', #349, #351, #352, .T. );
#292 = EDGE_CURVE( '', #351, #353, #354, .T. );
#293 = EDGE_CURVE( '', #353, #332, #355, .T. );
#294 = FILL_AREA_STYLE( '', ( #356 ) );
#295 = EDGE_CURVE( '', #338, #329, #357, .T. );
#296 = EDGE_CURVE( '', #340, #334, #358, .T. );
#297 = FILL_AREA_STYLE( '', ( #359 ) );
#298 = EDGE_CURVE( '', #347, #316, #360, .T. );
#299 = EDGE_CURVE( '', #349, #325, #361, .T. );
#300 = FILL_AREA_STYLE( '', ( #362 ) );
#301 = EDGE_CURVE( '', #321, #353, #363, .T. );
#302 = FILL_AREA_STYLE( '', ( #364 ) );
#303 = FILL_AREA_STYLE( '', ( #365 ) );
#304 = EDGE_CURVE( '', #323, #351, #366, .T. );
#305 = FILL_AREA_STYLE( '', ( #367 ) );
#306 = FILL_AREA_STYLE_COLOUR( '', #368 );
#307 = VERTEX_POINT( '', #369 );
#308 = VERTEX_POINT( '', #370 );
#309 = LINE( '', #371, #372 );
#310 = VERTEX_POINT( '', #373 );
#311 = LINE( '', #374, #375 );
#312 = VERTEX_POINT( '', #376 );
#313 = LINE( '', #377, #378 );
#314 = LINE( '', #379, #380 );
#315 = FILL_AREA_STYLE_COLOUR( '', #381 );
#316 = VERTEX_POINT( '', #382 );
#317 = VERTEX_POINT( '', #383 );
#318 = CIRCLE( '', #384, 7.15000000000000 );
#319 = VERTEX_POINT( '', #385 );
#320 = LINE( '', #386, #387 );
#321 = VERTEX_POINT( '', #388 );
#322 = CIRCLE( '', #389, 7.15000000000000 );
#323 = VERTEX_POINT( '', #390 );
#324 = LINE( '', #391, #392 );
#325 = VERTEX_POINT( '', #393 );
#326 = CIRCLE( '', #394, 7.15000000000000 );
#327 = LINE( '', #395, #396 );
#328 = FILL_AREA_STYLE_COLOUR( '', #397 );
#329 = VERTEX_POINT( '', #398 );
#330 = VERTEX_POINT( '', #399 );
#331 = CIRCLE( '', #400, 1.30000000000000 );
#332 = VERTEX_POINT( '', #401 );
#333 = LINE( '', #402, #403 );
#334 = VERTEX_POINT( '', #404 );
#335 = CIRCLE( '', #405, 1.30000000000000 );
#336 = LINE( '', #406, #407 );
#337 = FILL_AREA_STYLE_COLOUR( '', #408 );
#338 = VERTEX_POINT( '', #409 );
#339 = LINE( '', #410, #411 );
#340 = VERTEX_POINT( '', #412 );
#341 = LINE( '', #413, #414 );
#342 = LINE( '', #415, #416 );
#343 = FILL_AREA_STYLE_COLOUR( '', #417 );
#344 = CIRCLE( '', #418, 0.650000000000000 );
#345 = CIRCLE( '', #419, 0.650000000000000 );
#346 = FILL_AREA_STYLE_COLOUR( '', #420 );
#347 = VERTEX_POINT( '', #421 );
#348 = CIRCLE( '', #422, 6.50000000000000 );
#349 = VERTEX_POINT( '', #423 );
#350 = LINE( '', #424, #425 );
#351 = VERTEX_POINT( '', #426 );
#352 = CIRCLE( '', #427, 6.50000000000000 );
#353 = VERTEX_POINT( '', #428 );
#354 = LINE( '', #429, #430 );
#355 = CIRCLE( '', #431, 6.50000000000000 );
#356 = FILL_AREA_STYLE_COLOUR( '', #432 );
#357 = LINE( '', #433, #434 );
#358 = LINE( '', #435, #436 );
#359 = FILL_AREA_STYLE_COLOUR( '', #437 );
#360 = LINE( '', #438, #439 );
#361 = LINE( '', #440, #441 );
#362 = FILL_AREA_STYLE_COLOUR( '', #442 );
#363 = LINE( '', #443, #444 );
#364 = FILL_AREA_STYLE_COLOUR( '', #445 );
#365 = FILL_AREA_STYLE_COLOUR( '', #446 );
#366 = LINE( '', #447, #448 );
#367 = FILL_AREA_STYLE_COLOUR( '', #449 );
#368 = COLOUR_RGB( '', 0.689999997600000, 0.689999997600000, 0.689999997600000 );
#369 = CARTESIAN_POINT( '', ( 0.000000000000000, -3.11729049015328, 7.80000000000000 ) );
#370 = CARTESIAN_POINT( '', ( 0.000000000000000, -1.29999999999999, 7.80000000000000 ) );
#371 = CARTESIAN_POINT( '', ( 0.000000000000000, -3.11729049015328, 7.80000000000000 ) );
#372 = VECTOR( '', #450, 1000.00000000000 );
#373 = CARTESIAN_POINT( '', ( 0.650000000000000, -1.29999999999999, 7.80000000000000 ) );
#374 = CARTESIAN_POINT( '', ( 0.650000000000000, -1.29999999999999, 7.80000000000000 ) );
#375 = VECTOR( '', #451, 1000.00000000000 );
#376 = CARTESIAN_POINT( '', ( 0.650000000000000, -3.11729049015328, 7.80000000000000 ) );
#377 = CARTESIAN_POINT( '', ( 0.650000000000000, -3.11729049015328, 7.80000000000000 ) );
#378 = VECTOR( '', #452, 1000.00000000000 );
#379 = CARTESIAN_POINT( '', ( 0.650000000000000, -3.11729049015328, 7.80000000000000 ) );
#380 = VECTOR( '', #453, 1000.00000000000 );
#381 = COLOUR_RGB( '', 0.689999997600000, 0.689999997600000, 0.689999997600000 );
#382 = CARTESIAN_POINT( '', ( 0.000000000000000, -3.57500000000000, -6.19208163705874 ) );
#383 = CARTESIAN_POINT( '', ( 0.000000000000000, -2.85751628264050, 6.55416666666666 ) );
#384 = AXIS2_PLACEMENT_3D( '', #454, #455, #456 );
#385 = CARTESIAN_POINT( '', ( 0.650000000000000, -2.85751628264050, 6.55416666666666 ) );
#386 = CARTESIAN_POINT( '', ( 0.650000000000000, -2.85751628264050, 6.55416666666666 ) );
#387 = VECTOR( '', #457, 1000.00000000000 );
#388 = CARTESIAN_POINT( '', ( 0.650000000000000, -2.99728011132369, -6.49144143732834 ) );
#389 = AXIS2_PLACEMENT_3D( '', #458, #459, #460 );
#390 = CARTESIAN_POINT( '', ( 20.3000000000000, -2.99728011132370, -6.49144143732834 ) );
#391 = CARTESIAN_POINT( '', ( 20.3000000000000, -2.99728011132370, -6.49144143732834 ) );
#392 = VECTOR( '', #461, 1000.00000000000 );
#393 = CARTESIAN_POINT( '', ( 20.3000000000000, -3.57500000000000, -6.19208163705874 ) );
#394 = AXIS2_PLACEMENT_3D( '', #462, #463, #464 );
#395 = CARTESIAN_POINT( '', ( 0.650000000000000, -3.57500000000000, -6.19208163705874 ) );
#396 = VECTOR( '', #465, 1000.00000000000 );
#397 = COLOUR_RGB( '', 0.689999997600000, 0.689999997600000, 0.689999997600000 );
#398 = CARTESIAN_POINT( '', ( 0.000000000000000, -3.11729049015326, 8.45000000000000 ) );
#399 = CARTESIAN_POINT( '', ( 0.000000000000000, -2.59774214204483, 5.95833330415850 ) );
#400 = AXIS2_PLACEMENT_3D( '', #466, #467, #468 );
#401 = CARTESIAN_POINT( '', ( 0.650000000000000, -2.59774214204483, 5.95833330415850 ) );
#402 = CARTESIAN_POINT( '', ( 0.650000000000000, -2.59774214204483, 5.95833330415850 ) );
#403 = VECTOR( '', #469, 1000.00000000000 );
#404 = CARTESIAN_POINT( '', ( 0.650000000000000, -3.11729049015326, 8.45000000000000 ) );
#405 = AXIS2_PLACEMENT_3D( '', #470, #471, #472 );
#406 = CARTESIAN_POINT( '', ( 0.650000000000000, -3.11729049015326, 8.45000000000000 ) );
#407 = VECTOR( '', #473, 1000.00000000000 );
#408 = COLOUR_RGB( '', 0.689999997600000, 0.689999997600000, 0.689999997600000 );
#409 = CARTESIAN_POINT( '', ( 0.000000000000000, -1.29999999999999, 8.45000000000000 ) );
#410 = CARTESIAN_POINT( '', ( 0.000000000000000, -1.29999999999999, 7.80000000000000 ) );
#411 = VECTOR( '', #474, 1000.00000000000 );
#412 = CARTESIAN_POINT( '', ( 0.650000000000000, -1.29999999999999, 8.45000000000000 ) );
#413 = CARTESIAN_POINT( '', ( 0.650000000000000, -1.29999999999999, 8.45000000000000 ) );
#414 = VECTOR( '', #475, 1000.00000000000 );
#415 = CARTESIAN_POINT( '', ( 0.650000000000000, -1.29999999999999, 7.80000000000000 ) );
#416 = VECTOR( '', #476, 1000.00000000000 );
#417 = COLOUR_RGB( '', 0.689999997600000, 0.689999997600000, 0.689999997600000 );
#418 = AXIS2_PLACEMENT_3D( '', #477, #478, #479 );
#419 = AXIS2_PLACEMENT_3D( '', #480, #481, #482 );
#420 = COLOUR_RGB( '', 0.689999997600000, 0.689999997600000, 0.689999997600000 );
#421 = CARTESIAN_POINT( '', ( 0.000000000000000, -3.25000000000000, -5.62916512459885 ) );
#422 = AXIS2_PLACEMENT_3D( '', #483, #484, #485 );
#423 = CARTESIAN_POINT( '', ( 20.3000000000000, -3.25000000000000, -5.62916512459885 ) );
#424 = CARTESIAN_POINT( '', ( 0.650000000000000, -3.25000000000000, -5.62916512459885 ) );
#425 = VECTOR( '', #486, 1000.00000000000 );
#426 = CARTESIAN_POINT( '', ( 20.3000000000000, -2.67079265813663, -5.92594858037458 ) );
#427 = AXIS2_PLACEMENT_3D( '', #487, #488, #489 );
#428 = CARTESIAN_POINT( '', ( 0.650000000000000, -2.67079265813663, -5.92594858037458 ) );
#429 = CARTESIAN_POINT( '', ( 20.3000000000000, -2.67079265813663, -5.92594858037458 ) );
#430 = VECTOR( '', #490, 1000.00000000000 );
#431 = AXIS2_PLACEMENT_3D( '', #491, #492, #493 );
#432 = COLOUR_RGB( '', 0.689999997600000, 0.689999997600000, 0.689999997600000 );
#433 = CARTESIAN_POINT( '', ( 0.000000000000000, -1.29999999999999, 8.45000000000000 ) );
#434 = VECTOR( '', #494, 1000.00000000000 );
#435 = CARTESIAN_POINT( '', ( 0.650000000000000, -1.29999999999999, 8.45000000000000 ) );
#436 = VECTOR( '', #495, 1000.00000000000 );
#437 = COLOUR_RGB( '', 0.689999997600000, 0.689999997600000, 0.689999997600000 );
#438 = CARTESIAN_POINT( '', ( 0.000000000000000, -3.25000000000000, -5.62916512459885 ) );
#439 = VECTOR( '', #496, 1000.00000000000 );
#440 = CARTESIAN_POINT( '', ( 20.3000000000000, -3.25000000000000, -5.62916512459885 ) );
#441 = VECTOR( '', #497, 1000.00000000000 );
#442 = COLOUR_RGB( '', 0.689999997600000, 0.689999997600000, 0.689999997600000 );
#443 = CARTESIAN_POINT( '', ( 0.650000000000000, -2.99728011132369, -6.49144143732834 ) );
#444 = VECTOR( '', #498, 1000.00000000000 );
#445 = COLOUR_RGB( '', 0.689999997600000, 0.689999997600000, 0.689999997600000 );
#446 = COLOUR_RGB( '', 0.689999997600000, 0.689999997600000, 0.689999997600000 );
#447 = CARTESIAN_POINT( '', ( 20.3000000000000, -2.99728011132369, -6.49144143732834 ) );
#448 = VECTOR( '', #499, 1000.00000000000 );
#449 = COLOUR_RGB( '', 0.689999997600000, 0.689999997600000, 0.689999997600000 );
#450 = DIRECTION( '', ( 0.000000000000000, 1.00000000000000, 0.000000000000000 ) );
#451 = DIRECTION( '', ( -1.00000000000000, -0.000000000000000, -0.000000000000000 ) );
#452 = DIRECTION( '', ( 0.000000000000000, 1.00000000000000, 0.000000000000000 ) );
#453 = DIRECTION( '', ( -1.00000000000000, -0.000000000000000, -0.000000000000000 ) );
#454 = CARTESIAN_POINT( '', ( 0.000000000000000, -1.95156391047391E-15, 0.000000000000000 ) );
#455 = DIRECTION( '', ( 1.00000000000000, 0.000000000000000, 0.000000000000000 ) );
#456 = DIRECTION( '', ( 0.000000000000000, 0.000000000000000, -1.00000000000000 ) );
#457 = DIRECTION( '', ( -1.00000000000000, -0.000000000000000, -0.000000000000000 ) );
#458 = CARTESIAN_POINT( '', ( 0.650000000000000, -1.95156391047391E-15, 0.000000000000000 ) );
#459 = DIRECTION( '', ( 1.00000000000000, 0.000000000000000, 0.000000000000000 ) );
#460 = DIRECTION( '', ( 0.000000000000000, 0.000000000000000, -1.00000000000000 ) );
#461 = DIRECTION( '', ( -1.00000000000000, -0.000000000000000, -0.000000000000000 ) );
#462 = CARTESIAN_POINT( '', ( 20.3000000000000, -8.55218673656566E-13, 0.000000000000000 ) );
#463 = DIRECTION( '', ( 1.00000000000000, 0.000000000000000, 0.000000000000000 ) );
#464 = DIRECTION( '', ( 0.000000000000000, 0.000000000000000, -1.00000000000000 ) );
#465 = DIRECTION( '', ( -1.00000000000000, -0.000000000000000, -0.000000000000000 ) );
#466 = CARTESIAN_POINT( '', ( 0.000000000000000, -3.11729049015326, 7.15000000000000 ) );
#467 = DIRECTION( '', ( 1.00000000000000, 0.000000000000000, 0.000000000000000 ) );
#468 = DIRECTION( '', ( 0.000000000000000, 0.000000000000000, -1.00000000000000 ) );
#469 = DIRECTION( '', ( -1.00000000000000, -0.000000000000000, -0.000000000000000 ) );
#470 = CARTESIAN_POINT( '', ( 0.650000000000000, -3.11729049015326, 7.15000000000000 ) );
#471 = DIRECTION( '', ( 1.00000000000000, 0.000000000000000, 0.000000000000000 ) );
#472 = DIRECTION( '', ( 0.000000000000000, 0.000000000000000, -1.00000000000000 ) );
#473 = DIRECTION( '', ( -1.00000000000000, -0.000000000000000, -0.000000000000000 ) );
#474 = DIRECTION( '', ( 0.000000000000000, -3.33600668457079E-16, 1.00000000000000 ) );
#475 = DIRECTION( '', ( -1.00000000000000, -0.000000000000000, -0.000000000000000 ) );
#476 = DIRECTION( '', ( 0.000000000000000, -3.33600668457079E-16, 1.00000000000000 ) );
#477 = CARTESIAN_POINT( '', ( 0.000000000000000, -3.11729049015327, 7.15000000000000 ) );
#478 = DIRECTION( '', ( 1.00000000000000, 0.000000000000000, 0.000000000000000 ) );
#479 = DIRECTION( '', ( 0.000000000000000, 0.000000000000000, -1.00000000000000 ) );
#480 = CARTESIAN_POINT( '', ( 0.650000000000000, -3.11729049015327, 7.15000000000000 ) );
#481 = DIRECTION( '', ( 1.00000000000000, 0.000000000000000, 0.000000000000000 ) );
#482 = DIRECTION( '', ( 0.000000000000000, 0.000000000000000, -1.00000000000000 ) );
#483 = CARTESIAN_POINT( '', ( 0.000000000000000, -1.08420217248550E-15, 4.33680868994202E-16 ) );
#484 = DIRECTION( '', ( 1.00000000000000, 0.000000000000000, 0.000000000000000 ) );
#485 = DIRECTION( '', ( 0.000000000000000, 0.000000000000000, -1.00000000000000 ) );
#486 = DIRECTION( '', ( -1.00000000000000, -0.000000000000000, -0.000000000000000 ) );
#487 = CARTESIAN_POINT( '', ( 20.3000000000000, -1.01047642475649E-13, -2.09901540593194E-13 ) );
#488 = DIRECTION( '', ( 1.00000000000000, 0.000000000000000, 0.000000000000000 ) );
#489 = DIRECTION( '', ( 0.000000000000000, 0.000000000000000, -1.00000000000000 ) );
#490 = DIRECTION( '', ( -1.00000000000000, -0.000000000000000, -0.000000000000000 ) );
#491 = CARTESIAN_POINT( '', ( 0.650000000000000, -1.08420217248550E-15, 4.33680868994202E-16 ) );
#492 = DIRECTION( '', ( 1.00000000000000, 0.000000000000000, 0.000000000000000 ) );
#493 = DIRECTION( '', ( 0.000000000000000, 0.000000000000000, -1.00000000000000 ) );
#494 = DIRECTION( '', ( 0.000000000000000, -1.00000000000000, 0.000000000000000 ) );
#495 = DIRECTION( '', ( 0.000000000000000, -1.00000000000000, 0.000000000000000 ) );
#496 = DIRECTION( '', ( 0.000000000000000, -0.500000000000006, -0.866025403784435 ) );
#497 = DIRECTION( '', ( 0.000000000000000, -0.500000000000000, -0.866025403784439 ) );
#498 = DIRECTION( '', ( 0.000000000000000, 0.499999999999999, 0.866025403784439 ) );
#499 = DIRECTION( '', ( 0.000000000000000, 0.499999999999999, 0.866025403784439 ) );
ENDSEC;
END-ISO-10303-21;
