ISO-10303-21;
HEADER;
FILE_DESCRIPTION( ( 'STEP AP214' ), '1' );
FILE_NAME( '//goodhand-server/Shared Folders/GoodHand Data/Kipp CAD/K0712/K0712.1610.stp', '2020-12-09T12:34:38', ( '' ), ( '' ), ' ', 'PARTsolutions', ' ' );
FILE_SCHEMA( ( 'AUTOMOTIVE_DESIGN { 1 0 10303 214 1 1 1 1 }' ) );
ENDSEC;
DATA;
#1 = MECHANICAL_DESIGN_GEOMETRIC_PRESENTATION_REPRESENTATION( ' ', ( #10, #11, #12, #13, #14, #15, #16, #17, #18, #19, #20, #21, #22 ), #6 );
#2 = PRODUCT_DEFINITION_CONTEXT( '', #23, 'design' );
#3 = APPLICATION_PROTOCOL_DEFINITION( 'international standard', 'automotive_design', 2001, #23 );
#4 = PRODUCT_CATEGORY_RELATIONSHIP( 'NONE', 'NONE', #24, #25 );
#5 = SHAPE_DEFINITION_REPRESENTATION( #26, #27 );
#6 =  ( GEOMETRIC_REPRESENTATION_CONTEXT( 3 )GLOBAL_UNCERTAINTY_ASSIGNED_CONTEXT( ( #30 ) )GLOBAL_UNIT_ASSIGNED_CONTEXT( ( #32, #33, #34 ) )REPRESENTATION_CONTEXT( 'NONE', 'WORKSPACE' ) );
#10 = STYLED_ITEM( '', ( #36 ), #37 );
#11 = STYLED_ITEM( '', ( #38 ), #39 );
#12 = STYLED_ITEM( '', ( #40 ), #41 );
#13 = STYLED_ITEM( '', ( #42 ), #43 );
#14 = STYLED_ITEM( '', ( #44 ), #45 );
#15 = STYLED_ITEM( '', ( #46 ), #47 );
#16 = STYLED_ITEM( '', ( #48 ), #49 );
#17 = STYLED_ITEM( '', ( #50 ), #51 );
#18 = STYLED_ITEM( '', ( #52 ), #53 );
#19 = STYLED_ITEM( '', ( #54 ), #55 );
#20 = STYLED_ITEM( '', ( #56 ), #57 );
#21 = STYLED_ITEM( '', ( #58 ), #59 );
#22 = STYLED_ITEM( '', ( #60 ), #61 );
#23 = APPLICATION_CONTEXT( 'core data for automotive mechanical design processes' );
#24 = PRODUCT_CATEGORY( 'part', 'NONE' );
#25 = PRODUCT_RELATED_PRODUCT_CATEGORY( 'detail', ' ', ( #62 ) );
#26 = PRODUCT_DEFINITION_SHAPE( 'NONE', 'NONE', #63 );
#27 = ADVANCED_BREP_SHAPE_REPRESENTATION( '_K0712.1610', ( #64, #65 ), #6 );
#30 = UNCERTAINTY_MEASURE_WITH_UNIT( LENGTH_MEASURE( 0.00100000000000000 ), #32, '', '' );
#32 =  ( CONVERSION_BASED_UNIT( 'MILLIMETRE', #68 )LENGTH_UNIT(  )NAMED_UNIT( #71 ) );
#33 =  ( NAMED_UNIT( #73 )PLANE_ANGLE_UNIT(  )SI_UNIT( $, .RADIAN. ) );
#34 =  ( NAMED_UNIT( #73 )SI_UNIT( $, .STERADIAN. )SOLID_ANGLE_UNIT(  ) );
#36 = PRESENTATION_STYLE_ASSIGNMENT( ( #79 ) );
#37 = ADVANCED_FACE( '', ( #80, #81 ), #82, .F. );
#38 = PRESENTATION_STYLE_ASSIGNMENT( ( #83 ) );
#39 = ADVANCED_FACE( '', ( #84, #85 ), #86, .F. );
#40 = PRESENTATION_STYLE_ASSIGNMENT( ( #87 ) );
#41 = ADVANCED_FACE( '', ( #88, #89 ), #90, .T. );
#42 = PRESENTATION_STYLE_ASSIGNMENT( ( #91 ) );
#43 = ADVANCED_FACE( '', ( #92, #93 ), #94, .T. );
#44 = PRESENTATION_STYLE_ASSIGNMENT( ( #95 ) );
#45 = ADVANCED_FACE( '', ( #96, #97 ), #98, .T. );
#46 = PRESENTATION_STYLE_ASSIGNMENT( ( #99 ) );
#47 = ADVANCED_FACE( '', ( #100, #101 ), #102, .F. );
#48 = PRESENTATION_STYLE_ASSIGNMENT( ( #103 ) );
#49 = ADVANCED_FACE( '', ( #104, #105 ), #106, .F. );
#50 = PRESENTATION_STYLE_ASSIGNMENT( ( #107 ) );
#51 = ADVANCED_FACE( '', ( #108, #109 ), #110, .F. );
#52 = PRESENTATION_STYLE_ASSIGNMENT( ( #111 ) );
#53 = ADVANCED_FACE( '', ( #112, #113 ), #114, .F. );
#54 = PRESENTATION_STYLE_ASSIGNMENT( ( #115 ) );
#55 = ADVANCED_FACE( '', ( #116, #117, #118 ), #119, .F. );
#56 = PRESENTATION_STYLE_ASSIGNMENT( ( #120 ) );
#57 = ADVANCED_FACE( '', ( #121, #122 ), #123, .F. );
#58 = PRESENTATION_STYLE_ASSIGNMENT( ( #124 ) );
#59 = ADVANCED_FACE( '', ( #125, #126 ), #127, .F. );
#60 = PRESENTATION_STYLE_ASSIGNMENT( ( #128 ) );
#61 = ADVANCED_FACE( '', ( #129, #130 ), #131, .T. );
#62 = PRODUCT( '_K0712.1610', '_K0712.1610', 'PART-_K0712.1610-DESC', ( #132 ) );
#63 = PRODUCT_DEFINITION( 'NONE', 'NONE', #133, #2 );
#64 = MANIFOLD_SOLID_BREP( '_K0712.1610', #134 );
#65 = AXIS2_PLACEMENT_3D( '', #135, #136, #137 );
#68 = LENGTH_MEASURE_WITH_UNIT( LENGTH_MEASURE( 1.00000000000000 ), #138 );
#71 = DIMENSIONAL_EXPONENTS( 1.00000000000000, 0.000000000000000, 0.000000000000000, 0.000000000000000, 0.000000000000000, 0.000000000000000, 0.000000000000000 );
#73 = DIMENSIONAL_EXPONENTS( 0.000000000000000, 0.000000000000000, 0.000000000000000, 0.000000000000000, 0.000000000000000, 0.000000000000000, 0.000000000000000 );
#79 = SURFACE_STYLE_USAGE( .BOTH., #139 );
#80 = FACE_OUTER_BOUND( '', #140, .T. );
#81 = FACE_BOUND( '', #141, .T. );
#82 = CONICAL_SURFACE( '', #142, 857.167300702100, 1.02974425870000 );
#83 = SURFACE_STYLE_USAGE( .BOTH., #143 );
#84 = FACE_OUTER_BOUND( '', #144, .T. );
#85 = FACE_BOUND( '', #145, .T. );
#86 = CONICAL_SURFACE( '', #146, 4.18800000000000, 0.785398163400000 );
#87 = SURFACE_STYLE_USAGE( .BOTH., #147 );
#88 = FACE_BOUND( '', #148, .T. );
#89 = FACE_OUTER_BOUND( '', #149, .T. );
#90 = SPHERICAL_SURFACE( '', #150, 13.6000000000000 );
#91 = SURFACE_STYLE_USAGE( .BOTH., #151 );
#92 = FACE_OUTER_BOUND( '', #152, .T. );
#93 = FACE_OUTER_BOUND( '', #153, .T. );
#94 = TOROIDAL_SURFACE( '', #154, 7.20000000000000, 0.800000000000000 );
#95 = SURFACE_STYLE_USAGE( .BOTH., #155 );
#96 = FACE_OUTER_BOUND( '', #156, .T. );
#97 = FACE_OUTER_BOUND( '', #157, .T. );
#98 = CYLINDRICAL_SURFACE( '', #158, 8.00000000000000 );
#99 = SURFACE_STYLE_USAGE( .BOTH., #159 );
#100 = FACE_OUTER_BOUND( '', #160, .T. );
#101 = FACE_OUTER_BOUND( '', #161, .T. );
#102 = CYLINDRICAL_SURFACE( '', #162, 8.00000000000000 );
#103 = SURFACE_STYLE_USAGE( .BOTH., #163 );
#104 = FACE_OUTER_BOUND( '', #164, .T. );
#105 = FACE_OUTER_BOUND( '', #165, .T. );
#106 = CYLINDRICAL_SURFACE( '', #166, 4.18800000000000 );
#107 = SURFACE_STYLE_USAGE( .BOTH., #167 );
#108 = FACE_BOUND( '', #168, .T. );
#109 = FACE_OUTER_BOUND( '', #169, .T. );
#110 = PLANE( '', #170 );
#111 = SURFACE_STYLE_USAGE( .BOTH., #171 );
#112 = FACE_OUTER_BOUND( '', #172, .T. );
#113 = FACE_OUTER_BOUND( '', #173, .T. );
#114 = CYLINDRICAL_SURFACE( '', #174, 8.00000000000000 );
#115 = SURFACE_STYLE_USAGE( .BOTH., #175 );
#116 = FACE_BOUND( '', #176, .T. );
#117 = FACE_OUTER_BOUND( '', #177, .T. );
#118 = FACE_OUTER_BOUND( '', #178, .T. );
#119 = TOROIDAL_SURFACE( '', #179, 8.00000000000000, 1.06666666670000 );
#120 = SURFACE_STYLE_USAGE( .BOTH., #180 );
#121 = FACE_BOUND( '', #181, .T. );
#122 = FACE_OUTER_BOUND( '', #182, .T. );
#123 = SPHERICAL_SURFACE( '', #183, 8.00000000000000 );
#124 = SURFACE_STYLE_USAGE( .BOTH., #184 );
#125 = FACE_OUTER_BOUND( '', #185, .T. );
#126 = FACE_OUTER_BOUND( '', #186, .T. );
#127 = TOROIDAL_SURFACE( '', #187, 9.60000000000000, 1.60000000000000 );
#128 = SURFACE_STYLE_USAGE( .BOTH., #188 );
#129 = FACE_BOUND( '', #189, .T. );
#130 = FACE_OUTER_BOUND( '', #190, .T. );
#131 = PLANE( '', #191 );
#132 = PRODUCT_CONTEXT( '', #23, 'mechanical' );
#133 = PRODUCT_DEFINITION_FORMATION_WITH_SPECIFIED_SOURCE( ' ', 'NONE', #62, .NOT_KNOWN. );
#134 = CLOSED_SHELL( '', ( #37, #49, #53, #41, #59, #45, #61, #51, #43, #39, #55, #47, #57 ) );
#135 = CARTESIAN_POINT( '', ( 0.000000000000000, 0.000000000000000, 0.000000000000000 ) );
#136 = DIRECTION( '', ( 0.000000000000000, 0.000000000000000, 1.00000000000000 ) );
#137 = DIRECTION( '', ( 1.00000000000000, 0.000000000000000, 0.000000000000000 ) );
#138 =  ( LENGTH_UNIT(  )NAMED_UNIT( #71 )SI_UNIT( .MILLI., .METRE. ) );
#139 = SURFACE_SIDE_STYLE( '', ( #193 ) );
#140 = EDGE_LOOP( '', ( #194 ) );
#141 = VERTEX_LOOP( '', #195 );
#142 = AXIS2_PLACEMENT_3D( '', #196, #197, #198 );
#143 = SURFACE_SIDE_STYLE( '', ( #199 ) );
#144 = EDGE_LOOP( '', ( #200 ) );
#145 = EDGE_LOOP( '', ( #201 ) );
#146 = AXIS2_PLACEMENT_3D( '', #202, #203, #204 );
#147 = SURFACE_SIDE_STYLE( '', ( #205 ) );
#148 = VERTEX_LOOP( '', #206 );
#149 = EDGE_LOOP( '', ( #207, #208 ) );
#150 = AXIS2_PLACEMENT_3D( '', #209, #210, #211 );
#151 = SURFACE_SIDE_STYLE( '', ( #212 ) );
#152 = EDGE_LOOP( '', ( #213 ) );
#153 = EDGE_LOOP( '', ( #214 ) );
#154 = AXIS2_PLACEMENT_3D( '', #215, #216, #217 );
#155 = SURFACE_SIDE_STYLE( '', ( #218 ) );
#156 = EDGE_LOOP( '', ( #219 ) );
#157 = EDGE_LOOP( '', ( #220 ) );
#158 = AXIS2_PLACEMENT_3D( '', #221, #222, #223 );
#159 = SURFACE_SIDE_STYLE( '', ( #224 ) );
#160 = EDGE_LOOP( '', ( #225 ) );
#161 = EDGE_LOOP( '', ( #226 ) );
#162 = AXIS2_PLACEMENT_3D( '', #227, #228, #229 );
#163 = SURFACE_SIDE_STYLE( '', ( #230 ) );
#164 = EDGE_LOOP( '', ( #231 ) );
#165 = EDGE_LOOP( '', ( #232 ) );
#166 = AXIS2_PLACEMENT_3D( '', #233, #234, #235 );
#167 = SURFACE_SIDE_STYLE( '', ( #236 ) );
#168 = EDGE_LOOP( '', ( #237 ) );
#169 = EDGE_LOOP( '', ( #238 ) );
#170 = AXIS2_PLACEMENT_3D( '', #239, #240, #241 );
#171 = SURFACE_SIDE_STYLE( '', ( #242 ) );
#172 = EDGE_LOOP( '', ( #243 ) );
#173 = EDGE_LOOP( '', ( #244 ) );
#174 = AXIS2_PLACEMENT_3D( '', #245, #246, #247 );
#175 = SURFACE_SIDE_STYLE( '', ( #248 ) );
#176 = VERTEX_LOOP( '', #249 );
#177 = EDGE_LOOP( '', ( #250 ) );
#178 = EDGE_LOOP( '', ( #251 ) );
#179 = AXIS2_PLACEMENT_3D( '', #252, #253, #254 );
#180 = SURFACE_SIDE_STYLE( '', ( #255 ) );
#181 = VERTEX_LOOP( '', #256 );
#182 = EDGE_LOOP( '', ( #257 ) );
#183 = AXIS2_PLACEMENT_3D( '', #258, #259, #260 );
#184 = SURFACE_SIDE_STYLE( '', ( #261 ) );
#185 = EDGE_LOOP( '', ( #262 ) );
#186 = EDGE_LOOP( '', ( #263, #264 ) );
#187 = AXIS2_PLACEMENT_3D( '', #265, #266, #267 );
#188 = SURFACE_SIDE_STYLE( '', ( #268 ) );
#189 = EDGE_LOOP( '', ( #269 ) );
#190 = EDGE_LOOP( '', ( #270, #271 ) );
#191 = AXIS2_PLACEMENT_3D( '', #272, #273, #274 );
#193 = SURFACE_STYLE_FILL_AREA( #275 );
#194 = ORIENTED_EDGE( '', *, *, #276, .T. );
#195 = VERTEX_POINT( '', #277 );
#196 = CARTESIAN_POINT( '', ( 530.021670637567, 0.000000000000000, 0.000000000000000 ) );
#197 = DIRECTION( '', ( 1.00000000000000, -0.000000000000000, -0.000000000000000 ) );
#198 = DIRECTION( '', ( -0.000000000000000, 0.000000000000000, -1.00000000000000 ) );
#199 = SURFACE_STYLE_FILL_AREA( #278 );
#200 = ORIENTED_EDGE( '', *, *, #279, .T. );
#201 = ORIENTED_EDGE( '', *, *, #280, .F. );
#202 = CARTESIAN_POINT( '', ( 34.1880000000000, 0.000000000000000, 0.000000000000000 ) );
#203 = DIRECTION( '', ( 1.00000000000000, -0.000000000000000, -0.000000000000000 ) );
#204 = DIRECTION( '', ( -0.000000000000000, 0.000000000000000, -1.00000000000000 ) );
#205 = SURFACE_STYLE_FILL_AREA( #281 );
#206 = VERTEX_POINT( '', #282 );
#207 = ORIENTED_EDGE( '', *, *, #283, .F. );
#208 = ORIENTED_EDGE( '', *, *, #284, .T. );
#209 = CARTESIAN_POINT( '', ( 1.73472347597681E-15, 0.000000000000000, 0.000000000000000 ) );
#210 = DIRECTION( '', ( 1.00000000000000, 0.000000000000000, 0.000000000000000 ) );
#211 = DIRECTION( '', ( 0.000000000000000, 1.00000000000000, 0.000000000000000 ) );
#212 = SURFACE_STYLE_FILL_AREA( #285 );
#213 = ORIENTED_EDGE( '', *, *, #286, .T. );
#214 = ORIENTED_EDGE( '', *, *, #287, .F. );
#215 = CARTESIAN_POINT( '', ( 34.2000000000000, 0.000000000000000, 0.000000000000000 ) );
#216 = DIRECTION( '', ( 1.00000000000000, 0.000000000000000, -0.000000000000000 ) );
#217 = DIRECTION( '', ( -0.000000000000000, 0.000000000000000, -1.00000000000000 ) );
#218 = SURFACE_STYLE_FILL_AREA( #288 );
#219 = ORIENTED_EDGE( '', *, *, #286, .F. );
#220 = ORIENTED_EDGE( '', *, *, #289, .T. );
#221 = CARTESIAN_POINT( '', ( 35.0000000000000, 0.000000000000000, 0.000000000000000 ) );
#222 = DIRECTION( '', ( -1.00000000000000, -0.000000000000000, 0.000000000000000 ) );
#223 = DIRECTION( '', ( -0.000000000000000, 0.000000000000000, -1.00000000000000 ) );
#224 = SURFACE_STYLE_FILL_AREA( #290 );
#225 = ORIENTED_EDGE( '', *, *, #291, .T. );
#226 = ORIENTED_EDGE( '', *, *, #292, .F. );
#227 = CARTESIAN_POINT( '', ( 7.10542735760100E-15, -16.0000000000000, 0.000000000000000 ) );
#228 = DIRECTION( '', ( -1.07657990266682E-16, 1.00000000000000, 0.000000000000000 ) );
#229 = DIRECTION( '', ( 1.00000000000000, 1.07657990266682E-16, 0.000000000000000 ) );
#230 = SURFACE_STYLE_FILL_AREA( #293 );
#231 = ORIENTED_EDGE( '', *, *, #280, .T. );
#232 = ORIENTED_EDGE( '', *, *, #276, .F. );
#233 = CARTESIAN_POINT( '', ( 35.0000000000000, 0.000000000000000, 0.000000000000000 ) );
#234 = DIRECTION( '', ( -1.00000000000000, -0.000000000000000, 0.000000000000000 ) );
#235 = DIRECTION( '', ( -0.000000000000000, 0.000000000000000, -1.00000000000000 ) );
#236 = SURFACE_STYLE_FILL_AREA( #294 );
#237 = ORIENTED_EDGE( '', *, *, #279, .F. );
#238 = ORIENTED_EDGE( '', *, *, #287, .T. );
#239 = CARTESIAN_POINT( '', ( 35.0000000000000, 7.20000000000000, 0.000000000000000 ) );
#240 = DIRECTION( '', ( -1.00000000000000, 0.000000000000000, 0.000000000000000 ) );
#241 = DIRECTION( '', ( 0.000000000000000, 0.000000000000000, 1.00000000000000 ) );
#242 = SURFACE_STYLE_FILL_AREA( #295 );
#243 = ORIENTED_EDGE( '', *, *, #296, .F. );
#244 = ORIENTED_EDGE( '', *, *, #297, .F. );
#245 = CARTESIAN_POINT( '', ( 7.10542735760100E-15, -16.0000000000000, 0.000000000000000 ) );
#246 = DIRECTION( '', ( -1.07657990266682E-16, 1.00000000000000, 0.000000000000000 ) );
#247 = DIRECTION( '', ( 1.00000000000000, 1.07657990266682E-16, 0.000000000000000 ) );
#248 = SURFACE_STYLE_FILL_AREA( #298 );
#249 = VERTEX_POINT( '', #299 );
#250 = ORIENTED_EDGE( '', *, *, #291, .F. );
#251 = ORIENTED_EDGE( '', *, *, #297, .T. );
#252 = CARTESIAN_POINT( '', ( 5.20417042793042E-15, -3.20000000000000, 0.000000000000000 ) );
#253 = DIRECTION( '', ( 1.07657990266682E-16, -1.00000000000000, -0.000000000000000 ) );
#254 = DIRECTION( '', ( 1.00000000000000, 1.07657990266682E-16, 0.000000000000000 ) );
#255 = SURFACE_STYLE_FILL_AREA( #300 );
#256 = VERTEX_POINT( '', #301 );
#257 = ORIENTED_EDGE( '', *, *, #292, .T. );
#258 = CARTESIAN_POINT( '', ( -3.90312782094782E-15, 2.60208521396521E-15, 0.000000000000000 ) );
#259 = DIRECTION( '', ( 0.000000000000000, -1.00000000000000, 0.000000000000000 ) );
#260 = DIRECTION( '', ( 1.00000000000000, 0.000000000000000, 0.000000000000000 ) );
#261 = SURFACE_STYLE_FILL_AREA( #302 );
#262 = ORIENTED_EDGE( '', *, *, #289, .F. );
#263 = ORIENTED_EDGE( '', *, *, #303, .F. );
#264 = ORIENTED_EDGE( '', *, *, #283, .T. );
#265 = CARTESIAN_POINT( '', ( 11.7847358901250, 0.000000000000000, 0.000000000000000 ) );
#266 = DIRECTION( '', ( 1.00000000000000, 0.000000000000000, -0.000000000000000 ) );
#267 = DIRECTION( '', ( -0.000000000000000, 0.000000000000000, -1.00000000000000 ) );
#268 = SURFACE_STYLE_FILL_AREA( #304 );
#269 = ORIENTED_EDGE( '', *, *, #296, .T. );
#270 = ORIENTED_EDGE( '', *, *, #303, .T. );
#271 = ORIENTED_EDGE( '', *, *, #284, .F. );
#272 = CARTESIAN_POINT( '', ( 16.3686221541247, -8.09371415207498, 16.0000000000000 ) );
#273 = DIRECTION( '', ( 0.0436193873653360, -0.999048221581858, 0.000000000000000 ) );
#274 = DIRECTION( '', ( 0.999048221581858, 0.0436193873653360, 0.000000000000000 ) );
#275 = FILL_AREA_STYLE( '', ( #305 ) );
#276 = EDGE_CURVE( '', #306, #306, #307, .T. );
#277 = CARTESIAN_POINT( '', ( 14.9835957275126, 0.000000000000000, 0.000000000000000 ) );
#278 = FILL_AREA_STYLE( '', ( #308 ) );
#279 = EDGE_CURVE( '', #309, #309, #310, .T. );
#280 = EDGE_CURVE( '', #311, #311, #312, .T. );
#281 = FILL_AREA_STYLE( '', ( #313 ) );
#282 = CARTESIAN_POINT( '', ( -13.6000000000000, 8.32759823420200E-16, 0.000000000000000 ) );
#283 = EDGE_CURVE( '', #314, #315, #316, .T. );
#284 = EDGE_CURVE( '', #314, #315, #317, .F. );
#285 = FILL_AREA_STYLE( '', ( #318 ) );
#286 = EDGE_CURVE( '', #319, #319, #320, .T. );
#287 = EDGE_CURVE( '', #321, #321, #322, .T. );
#288 = FILL_AREA_STYLE( '', ( #323 ) );
#289 = EDGE_CURVE( '', #324, #324, #325, .T. );
#290 = FILL_AREA_STYLE( '', ( #326 ) );
#291 = EDGE_CURVE( '', #327, #327, #328, .T. );
#292 = EDGE_CURVE( '', #329, #329, #330, .T. );
#293 = FILL_AREA_STYLE( '', ( #331 ) );
#294 = FILL_AREA_STYLE( '', ( #332 ) );
#295 = FILL_AREA_STYLE( '', ( #333 ) );
#296 = EDGE_CURVE( '', #334, #334, #335, .F. );
#297 = EDGE_CURVE( '', #336, #336, #337, .T. );
#298 = FILL_AREA_STYLE( '', ( #338 ) );
#299 = CARTESIAN_POINT( '', ( 9.06666666666666, -3.20000000000000, 0.000000000000000 ) );
#300 = FILL_AREA_STYLE( '', ( #339 ) );
#301 = CARTESIAN_POINT( '', ( -4.27453302342233E-15, 8.00000000000000, 0.000000000000000 ) );
#302 = FILL_AREA_STYLE( '', ( #340 ) );
#303 = EDGE_CURVE( '', #314, #315, #341, .T. );
#304 = FILL_AREA_STYLE( '', ( #342 ) );
#305 = FILL_AREA_STYLE_COLOUR( '', #343 );
#306 = VERTEX_POINT( '', #344 );
#307 = CIRCLE( '', #345, 4.18800000000000 );
#308 = FILL_AREA_STYLE_COLOUR( '', #346 );
#309 = VERTEX_POINT( '', #347 );
#310 = CIRCLE( '', #348, 5.00000000000000 );
#311 = VERTEX_POINT( '', #349 );
#312 = CIRCLE( '', #350, 4.18800000000000 );
#313 = FILL_AREA_STYLE_COLOUR( '', #351 );
#314 = VERTEX_POINT( '', #352 );
#315 = VERTEX_POINT( '', #353 );
#316 = CIRCLE( '', #354, 8.58947368420000 );
#317 = CIRCLE( '', #355, 10.3691851175000 );
#318 = FILL_AREA_STYLE_COLOUR( '', #356 );
#319 = VERTEX_POINT( '', #357 );
#320 = CIRCLE( '', #358, 8.00000000000000 );
#321 = VERTEX_POINT( '', #359 );
#322 = CIRCLE( '', #360, 7.20000000000000 );
#323 = FILL_AREA_STYLE_COLOUR( '', #361 );
#324 = VERTEX_POINT( '', #362 );
#325 = CIRCLE( '', #363, 8.00000000000000 );
#326 = FILL_AREA_STYLE_COLOUR( '', #364 );
#327 = VERTEX_POINT( '', #365 );
#328 = CIRCLE( '', #366, 8.00000000000000 );
#329 = VERTEX_POINT( '', #367 );
#330 = CIRCLE( '', #368, 8.00000000000000 );
#331 = FILL_AREA_STYLE_COLOUR( '', #369 );
#332 = FILL_AREA_STYLE_COLOUR( '', #370 );
#333 = FILL_AREA_STYLE_COLOUR( '', #371 );
#334 = VERTEX_POINT( '', #372 );
#335 = ELLIPSE( '', #373, 8.00762148130000, 8.00000000000000 );
#336 = VERTEX_POINT( '', #374 );
#337 = CIRCLE( '', #375, 8.00000000000000 );
#338 = FILL_AREA_STYLE_COLOUR( '', #376 );
#339 = FILL_AREA_STYLE_COLOUR( '', #377 );
#340 = FILL_AREA_STYLE_COLOUR( '', #378 );
#341 = B_SPLINE_CURVE_WITH_KNOTS( '', 3, ( #379, #380, #381, #382, #383, #384, #385, #386, #387, #388 ), .UNSPECIFIED., .F., .F., ( 4, 2, 2, 2, 4 ), ( 1.01495968400682E-06, 0.00101214765443064, 0.00202328034917727, 0.00303441304392390, 0.00404554573867052 ), .UNSPECIFIED. );
#342 = FILL_AREA_STYLE_COLOUR( '', #389 );
#343 = COLOUR_RGB( '', 0.689999997600000, 0.689999997600000, 0.689999997600000 );
#344 = CARTESIAN_POINT( '', ( 17.5000000000000, 0.000000000000000, -4.18800000000000 ) );
#345 = AXIS2_PLACEMENT_3D( '', #390, #391, #392 );
#346 = COLOUR_RGB( '', 0.689999997600000, 0.689999997600000, 0.689999997600000 );
#347 = CARTESIAN_POINT( '', ( 35.0000000000000, 0.000000000000000, -5.00000000000000 ) );
#348 = AXIS2_PLACEMENT_3D( '', #393, #394, #395 );
#349 = CARTESIAN_POINT( '', ( 34.1880000000000, 0.000000000000000, -4.18800000000000 ) );
#350 = AXIS2_PLACEMENT_3D( '', #396, #397, #398 );
#351 = COLOUR_RGB( '', 0.689999997600000, 0.689999997600000, 0.689999997600000 );
#352 = CARTESIAN_POINT( '', ( 10.5442373753750, -8.34801228337717, -2.02231280674604 ) );
#353 = CARTESIAN_POINT( '', ( 10.5442373753750, -8.34801228337717, 2.02231280674604 ) );
#354 = AXIS2_PLACEMENT_3D( '', #399, #400, #401 );
#355 = AXIS2_PLACEMENT_3D( '', #402, #403, #404 );
#356 = COLOUR_RGB( '', 0.689999997600000, 0.689999997600000, 0.689999997600000 );
#357 = CARTESIAN_POINT( '', ( 34.2000000000000, 0.000000000000000, -8.00000000000000 ) );
#358 = AXIS2_PLACEMENT_3D( '', #405, #406, #407 );
#359 = CARTESIAN_POINT( '', ( 35.0000000000000, 0.000000000000000, -7.20000000000000 ) );
#360 = AXIS2_PLACEMENT_3D( '', #408, #409, #410 );
#361 = COLOUR_RGB( '', 0.689999997600000, 0.689999997600000, 0.689999997600000 );
#362 = CARTESIAN_POINT( '', ( 11.7847358901250, 0.000000000000000, -8.00000000000000 ) );
#363 = AXIS2_PLACEMENT_3D( '', #411, #412, #413 );
#364 = COLOUR_RGB( '', 0.689999997600000, 0.689999997600000, 0.689999997600000 );
#365 = CARTESIAN_POINT( '', ( 7.99999999999999, -2.13333333333333, 0.000000000000000 ) );
#366 = AXIS2_PLACEMENT_3D( '', #414, #415, #416 );
#367 = CARTESIAN_POINT( '', ( 7.99999999999999, 4.33071087408707E-15, 0.000000000000000 ) );
#368 = AXIS2_PLACEMENT_3D( '', #417, #418, #419 );
#369 = COLOUR_RGB( '', 0.689999997600000, 0.689999997600000, 0.689999997600000 );
#370 = COLOUR_RGB( '', 0.689999997600000, 0.689999997600000, 0.689999997600000 );
#371 = COLOUR_RGB( '', 0.689999997600000, 0.689999997600000, 0.689999997600000 );
#372 = CARTESIAN_POINT( '', ( -7.99999999999998, -9.15767117270531, 0.000000000000000 ) );
#373 = AXIS2_PLACEMENT_3D( '', #420, #421, #422 );
#374 = CARTESIAN_POINT( '', ( 7.99999999999999, -4.26666666666667, 0.000000000000000 ) );
#375 = AXIS2_PLACEMENT_3D( '', #423, #424, #425 );
#376 = COLOUR_RGB( '', 0.689999997600000, 0.689999997600000, 0.689999997600000 );
#377 = COLOUR_RGB( '', 0.689999997600000, 0.689999997600000, 0.689999997600000 );
#378 = COLOUR_RGB( '', 0.689999997600000, 0.689999997600000, 0.689999997600000 );
#379 = CARTESIAN_POINT( '', ( 10.5442373753750, -8.34801228337717, -2.02231280674604 ) );
#380 = CARTESIAN_POINT( '', ( 10.6106510426782, -8.34511260004070, -1.68800503860622 ) );
#381 = CARTESIAN_POINT( '', ( 10.6757950042376, -8.34226835325422, -1.35363793578440 ) );
#382 = CARTESIAN_POINT( '', ( 10.7722795770227, -8.33805574583030, -0.683324064102160 ) );
#383 = CARTESIAN_POINT( '', ( 10.8022800224424, -8.33674589809560, -0.347314667887096 ) );
#384 = CARTESIAN_POINT( '', ( 10.8033754812282, -8.33669806933209, 0.327456837205694 ) );
#385 = CARTESIAN_POINT( '', ( 10.7742922733090, -8.33796786961265, 0.666227274551124 ) );
#386 = CARTESIAN_POINT( '', ( 10.6773870222720, -8.34219884424571, 1.34557845566823 ) );
#387 = CARTESIAN_POINT( '', ( 10.6113312740256, -8.34508290049868, 1.68458094484985 ) );
#388 = CARTESIAN_POINT( '', ( 10.5442373753750, -8.34801228337717, 2.02231280674605 ) );
#389 = COLOUR_RGB( '', 0.689999997600000, 0.689999997600000, 0.689999997600000 );
#390 = CARTESIAN_POINT( '', ( 17.5000000000000, 0.000000000000000, 0.000000000000000 ) );
#391 = DIRECTION( '', ( 1.00000000000000, 0.000000000000000, -0.000000000000000 ) );
#392 = DIRECTION( '', ( -0.000000000000000, 0.000000000000000, -1.00000000000000 ) );
#393 = CARTESIAN_POINT( '', ( 35.0000000000000, 0.000000000000000, 0.000000000000000 ) );
#394 = DIRECTION( '', ( 1.00000000000000, 0.000000000000000, -0.000000000000000 ) );
#395 = DIRECTION( '', ( -0.000000000000000, 0.000000000000000, -1.00000000000000 ) );
#396 = CARTESIAN_POINT( '', ( 34.1880000000000, 0.000000000000000, 0.000000000000000 ) );
#397 = DIRECTION( '', ( 1.00000000000000, 0.000000000000000, -0.000000000000000 ) );
#398 = DIRECTION( '', ( -0.000000000000000, 0.000000000000000, -1.00000000000000 ) );
#399 = CARTESIAN_POINT( '', ( 10.5442373753750, 0.000000000000000, 0.000000000000000 ) );
#400 = DIRECTION( '', ( 1.00000000000000, 0.000000000000000, -0.000000000000000 ) );
#401 = DIRECTION( '', ( -0.000000000000000, 0.000000000000000, -1.00000000000000 ) );
#402 = CARTESIAN_POINT( '', ( 0.383850608814959, -8.79162434992035, 0.000000000000000 ) );
#403 = DIRECTION( '', ( 0.0436193873653360, -0.999048221581858, 0.000000000000000 ) );
#404 = DIRECTION( '', ( 0.999048221581858, 0.0436193873653360, 0.000000000000000 ) );
#405 = CARTESIAN_POINT( '', ( 34.2000000000000, 0.000000000000000, 0.000000000000000 ) );
#406 = DIRECTION( '', ( 1.00000000000000, 0.000000000000000, -0.000000000000000 ) );
#407 = DIRECTION( '', ( -0.000000000000000, 0.000000000000000, -1.00000000000000 ) );
#408 = CARTESIAN_POINT( '', ( 35.0000000000000, 0.000000000000000, 0.000000000000000 ) );
#409 = DIRECTION( '', ( 1.00000000000000, 0.000000000000000, -0.000000000000000 ) );
#410 = DIRECTION( '', ( -0.000000000000000, 0.000000000000000, -1.00000000000000 ) );
#411 = CARTESIAN_POINT( '', ( 11.7847358901250, 0.000000000000000, 0.000000000000000 ) );
#412 = DIRECTION( '', ( 1.00000000000000, 0.000000000000000, -0.000000000000000 ) );
#413 = DIRECTION( '', ( -0.000000000000000, 0.000000000000000, -1.00000000000000 ) );
#414 = CARTESIAN_POINT( '', ( 5.61256989256968E-15, -2.13333333333333, 0.000000000000000 ) );
#415 = DIRECTION( '', ( 1.07657990266682E-16, -1.00000000000000, -0.000000000000000 ) );
#416 = DIRECTION( '', ( 1.00000000000000, 1.07657990266682E-16, 0.000000000000000 ) );
#417 = CARTESIAN_POINT( '', ( 5.38289951333409E-15, 3.46944695195361E-15, 0.000000000000000 ) );
#418 = DIRECTION( '', ( 1.07657990266682E-16, -1.00000000000000, -0.000000000000000 ) );
#419 = DIRECTION( '', ( 1.00000000000000, 1.07657990266682E-16, 0.000000000000000 ) );
#420 = CARTESIAN_POINT( '', ( 6.33119239237724E-15, -8.80838362943722, 0.000000000000000 ) );
#421 = DIRECTION( '', ( 0.0436193873653360, -0.999048221581858, 0.000000000000000 ) );
#422 = DIRECTION( '', ( -0.999048221581858, -0.0436193873653360, -0.000000000000000 ) );
#423 = CARTESIAN_POINT( '', ( 5.84224027180527E-15, -4.26666666666667, 0.000000000000000 ) );
#424 = DIRECTION( '', ( 1.07657990266682E-16, -1.00000000000000, -0.000000000000000 ) );
#425 = DIRECTION( '', ( 1.00000000000000, 1.07657990266682E-16, 0.000000000000000 ) );
ENDSEC;
END-ISO-10303-21;
