ISO-10303-21;
HEADER;
FILE_DESCRIPTION( ( 'STEP AP214' ), '1' );
FILE_NAME( '//goodhand-server/Shared Folders/GoodHand Data/Kipp CAD/K1129/K1129.10114.stp', '2020-12-10T10:17:07', ( '' ), ( '' ), ' ', 'PARTsolutions', ' ' );
FILE_SCHEMA( ( 'AUTOMOTIVE_DESIGN { 1 0 10303 214 1 1 1 1 }' ) );
ENDSEC;
DATA;
#1 = MECHANICAL_DESIGN_GEOMETRIC_PRESENTATION_REPRESENTATION( ' ', ( #10, #11, #12, #13, #14, #15, #16, #17, #18, #19, #20, #21 ), #6 );
#2 = PRODUCT_DEFINITION_CONTEXT( '', #22, 'design' );
#3 = APPLICATION_PROTOCOL_DEFINITION( 'international standard', 'automotive_design', 2001, #22 );
#4 = PRODUCT_CATEGORY_RELATIONSHIP( 'NONE', 'NONE', #23, #24 );
#5 = SHAPE_DEFINITION_REPRESENTATION( #25, #26 );
#6 =  ( GEOMETRIC_REPRESENTATION_CONTEXT( 3 )GLOBAL_UNCERTAINTY_ASSIGNED_CONTEXT( ( #29 ) )GLOBAL_UNIT_ASSIGNED_CONTEXT( ( #31, #32, #33 ) )REPRESENTATION_CONTEXT( 'NONE', 'WORKSPACE' ) );
#10 = STYLED_ITEM( '', ( #35 ), #36 );
#11 = STYLED_ITEM( '', ( #37 ), #38 );
#12 = STYLED_ITEM( '', ( #39 ), #40 );
#13 = STYLED_ITEM( '', ( #41 ), #42 );
#14 = STYLED_ITEM( '', ( #43 ), #44 );
#15 = STYLED_ITEM( '', ( #45 ), #46 );
#16 = STYLED_ITEM( '', ( #47 ), #48 );
#17 = STYLED_ITEM( '', ( #49 ), #50 );
#18 = STYLED_ITEM( '', ( #51 ), #52 );
#19 = STYLED_ITEM( '', ( #53 ), #54 );
#20 = STYLED_ITEM( '', ( #55 ), #56 );
#21 = STYLED_ITEM( '', ( #57 ), #58 );
#22 = APPLICATION_CONTEXT( 'core data for automotive mechanical design processes' );
#23 = PRODUCT_CATEGORY( 'part', 'NONE' );
#24 = PRODUCT_RELATED_PRODUCT_CATEGORY( 'detail', ' ', ( #59 ) );
#25 = PRODUCT_DEFINITION_SHAPE( 'NONE', 'NONE', #60 );
#26 = ADVANCED_BREP_SHAPE_REPRESENTATION( '_K1129.10114', ( #61, #62 ), #6 );
#29 = UNCERTAINTY_MEASURE_WITH_UNIT( LENGTH_MEASURE( 0.00100000000000000 ), #31, '', '' );
#31 =  ( CONVERSION_BASED_UNIT( 'MILLIMETRE', #65 )LENGTH_UNIT(  )NAMED_UNIT( #68 ) );
#32 =  ( NAMED_UNIT( #70 )PLANE_ANGLE_UNIT(  )SI_UNIT( $, .RADIAN. ) );
#33 =  ( NAMED_UNIT( #70 )SI_UNIT( $, .STERADIAN. )SOLID_ANGLE_UNIT(  ) );
#35 = PRESENTATION_STYLE_ASSIGNMENT( ( #76 ) );
#36 = ADVANCED_FACE( '', ( #77 ), #78, .T. );
#37 = PRESENTATION_STYLE_ASSIGNMENT( ( #79 ) );
#38 = ADVANCED_FACE( '', ( #80 ), #81, .T. );
#39 = PRESENTATION_STYLE_ASSIGNMENT( ( #82 ) );
#40 = ADVANCED_FACE( '', ( #83, #84 ), #85, .T. );
#41 = PRESENTATION_STYLE_ASSIGNMENT( ( #86 ) );
#42 = ADVANCED_FACE( '', ( #87 ), #88, .F. );
#43 = PRESENTATION_STYLE_ASSIGNMENT( ( #89 ) );
#44 = ADVANCED_FACE( '', ( #90 ), #91, .T. );
#45 = PRESENTATION_STYLE_ASSIGNMENT( ( #92 ) );
#46 = ADVANCED_FACE( '', ( #93 ), #94, .T. );
#47 = PRESENTATION_STYLE_ASSIGNMENT( ( #95 ) );
#48 = ADVANCED_FACE( '', ( #96, #97 ), #98, .F. );
#49 = PRESENTATION_STYLE_ASSIGNMENT( ( #99 ) );
#50 = ADVANCED_FACE( '', ( #100 ), #101, .F. );
#51 = PRESENTATION_STYLE_ASSIGNMENT( ( #102 ) );
#52 = ADVANCED_FACE( '', ( #103 ), #104, .T. );
#53 = PRESENTATION_STYLE_ASSIGNMENT( ( #105 ) );
#54 = ADVANCED_FACE( '', ( #106, #107 ), #108, .T. );
#55 = PRESENTATION_STYLE_ASSIGNMENT( ( #109 ) );
#56 = ADVANCED_FACE( '', ( #110, #111 ), #112, .T. );
#57 = PRESENTATION_STYLE_ASSIGNMENT( ( #113 ) );
#58 = ADVANCED_FACE( '', ( #114 ), #115, .T. );
#59 = PRODUCT( '_K1129.10114', '_K1129.10114', 'PART-_K1129.10114-DESC', ( #116 ) );
#60 = PRODUCT_DEFINITION( 'NONE', 'NONE', #117, #2 );
#61 = MANIFOLD_SOLID_BREP( '_K1129.10114', #118 );
#62 = AXIS2_PLACEMENT_3D( '', #119, #120, #121 );
#65 = LENGTH_MEASURE_WITH_UNIT( LENGTH_MEASURE( 1.00000000000000 ), #122 );
#68 = DIMENSIONAL_EXPONENTS( 1.00000000000000, 0.000000000000000, 0.000000000000000, 0.000000000000000, 0.000000000000000, 0.000000000000000, 0.000000000000000 );
#70 = DIMENSIONAL_EXPONENTS( 0.000000000000000, 0.000000000000000, 0.000000000000000, 0.000000000000000, 0.000000000000000, 0.000000000000000, 0.000000000000000 );
#76 = SURFACE_STYLE_USAGE( .BOTH., #123 );
#77 = FACE_OUTER_BOUND( '', #124, .T. );
#78 = PLANE( '', #125 );
#79 = SURFACE_STYLE_USAGE( .BOTH., #126 );
#80 = FACE_OUTER_BOUND( '', #127, .T. );
#81 = PLANE( '', #128 );
#82 = SURFACE_STYLE_USAGE( .BOTH., #129 );
#83 = FACE_BOUND( '', #130, .T. );
#84 = FACE_OUTER_BOUND( '', #131, .T. );
#85 = CONICAL_SURFACE( '', #132, 21.2221310149000, 0.0314159265000000 );
#86 = SURFACE_STYLE_USAGE( .BOTH., #133 );
#87 = FACE_OUTER_BOUND( '', #134, .T. );
#88 = PLANE( '', #135 );
#89 = SURFACE_STYLE_USAGE( .BOTH., #136 );
#90 = FACE_OUTER_BOUND( '', #137, .T. );
#91 = PLANE( '', #138 );
#92 = SURFACE_STYLE_USAGE( .BOTH., #139 );
#93 = FACE_OUTER_BOUND( '', #140, .T. );
#94 = PLANE( '', #141 );
#95 = SURFACE_STYLE_USAGE( .BOTH., #142 );
#96 = FACE_OUTER_BOUND( '', #143, .T. );
#97 = FACE_BOUND( '', #144, .T. );
#98 = PLANE( '', #145 );
#99 = SURFACE_STYLE_USAGE( .BOTH., #146 );
#100 = FACE_OUTER_BOUND( '', #147, .T. );
#101 = PLANE( '', #148 );
#102 = SURFACE_STYLE_USAGE( .BOTH., #149 );
#103 = FACE_OUTER_BOUND( '', #150, .T. );
#104 = PLANE( '', #151 );
#105 = SURFACE_STYLE_USAGE( .BOTH., #152 );
#106 = FACE_OUTER_BOUND( '', #153, .T. );
#107 = FACE_BOUND( '', #154, .T. );
#108 = CONICAL_SURFACE( '', #155, 20.7378363944000, 0.769690200100000 );
#109 = SURFACE_STYLE_USAGE( .BOTH., #156 );
#110 = FACE_BOUND( '', #157, .T. );
#111 = FACE_OUTER_BOUND( '', #158, .T. );
#112 = CONICAL_SURFACE( '', #159, 20.6878689851000, 0.801106126700000 );
#113 = SURFACE_STYLE_USAGE( .BOTH., #160 );
#114 = FACE_OUTER_BOUND( '', #161, .T. );
#115 = PLANE( '', #162 );
#116 = PRODUCT_CONTEXT( '', #22, 'mechanical' );
#117 = PRODUCT_DEFINITION_FORMATION_WITH_SPECIFIED_SOURCE( ' ', 'NONE', #59, .NOT_KNOWN. );
#118 = CLOSED_SHELL( '', ( #54, #48, #36, #44, #38, #50, #56, #40, #52, #46, #58, #42 ) );
#119 = CARTESIAN_POINT( '', ( 0.000000000000000, 0.000000000000000, 0.000000000000000 ) );
#120 = DIRECTION( '', ( 0.000000000000000, 0.000000000000000, 1.00000000000000 ) );
#121 = DIRECTION( '', ( 1.00000000000000, 0.000000000000000, 0.000000000000000 ) );
#122 =  ( LENGTH_UNIT(  )NAMED_UNIT( #68 )SI_UNIT( .MILLI., .METRE. ) );
#123 = SURFACE_SIDE_STYLE( '', ( #164 ) );
#124 = EDGE_LOOP( '', ( #165, #166, #167, #168 ) );
#125 = AXIS2_PLACEMENT_3D( '', #169, #170, #171 );
#126 = SURFACE_SIDE_STYLE( '', ( #172 ) );
#127 = EDGE_LOOP( '', ( #173, #174, #175, #176 ) );
#128 = AXIS2_PLACEMENT_3D( '', #177, #178, #179 );
#129 = SURFACE_SIDE_STYLE( '', ( #180 ) );
#130 = EDGE_LOOP( '', ( #181 ) );
#131 = EDGE_LOOP( '', ( #182 ) );
#132 = AXIS2_PLACEMENT_3D( '', #183, #184, #185 );
#133 = SURFACE_SIDE_STYLE( '', ( #186 ) );
#134 = EDGE_LOOP( '', ( #187, #188, #189, #190, #191, #192 ) );
#135 = AXIS2_PLACEMENT_3D( '', #193, #194, #195 );
#136 = SURFACE_SIDE_STYLE( '', ( #196 ) );
#137 = EDGE_LOOP( '', ( #197, #198, #199, #200 ) );
#138 = AXIS2_PLACEMENT_3D( '', #201, #202, #203 );
#139 = SURFACE_SIDE_STYLE( '', ( #204 ) );
#140 = EDGE_LOOP( '', ( #205, #206, #207, #208 ) );
#141 = AXIS2_PLACEMENT_3D( '', #209, #210, #211 );
#142 = SURFACE_SIDE_STYLE( '', ( #212 ) );
#143 = EDGE_LOOP( '', ( #213 ) );
#144 = EDGE_LOOP( '', ( #214, #215, #216, #217, #218, #219 ) );
#145 = AXIS2_PLACEMENT_3D( '', #220, #221, #222 );
#146 = SURFACE_SIDE_STYLE( '', ( #223 ) );
#147 = EDGE_LOOP( '', ( #224 ) );
#148 = AXIS2_PLACEMENT_3D( '', #225, #226, #227 );
#149 = SURFACE_SIDE_STYLE( '', ( #228 ) );
#150 = EDGE_LOOP( '', ( #229, #230, #231, #232 ) );
#151 = AXIS2_PLACEMENT_3D( '', #233, #234, #235 );
#152 = SURFACE_SIDE_STYLE( '', ( #236 ) );
#153 = EDGE_LOOP( '', ( #237 ) );
#154 = EDGE_LOOP( '', ( #238 ) );
#155 = AXIS2_PLACEMENT_3D( '', #239, #240, #241 );
#156 = SURFACE_SIDE_STYLE( '', ( #242 ) );
#157 = EDGE_LOOP( '', ( #243 ) );
#158 = EDGE_LOOP( '', ( #244 ) );
#159 = AXIS2_PLACEMENT_3D( '', #245, #246, #247 );
#160 = SURFACE_SIDE_STYLE( '', ( #248 ) );
#161 = EDGE_LOOP( '', ( #249, #250, #251, #252 ) );
#162 = AXIS2_PLACEMENT_3D( '', #253, #254, #255 );
#164 = SURFACE_STYLE_FILL_AREA( #256 );
#165 = ORIENTED_EDGE( '', *, *, #257, .F. );
#166 = ORIENTED_EDGE( '', *, *, #258, .F. );
#167 = ORIENTED_EDGE( '', *, *, #259, .T. );
#168 = ORIENTED_EDGE( '', *, *, #260, .T. );
#169 = CARTESIAN_POINT( '', ( 11.5000000000000, -6.35085296108588, 11.0000000000000 ) );
#170 = DIRECTION( '', ( 0.000000000000000, 0.866025403784439, -0.500000000000000 ) );
#171 = DIRECTION( '', ( 0.000000000000000, 0.500000000000000, 0.866025403784439 ) );
#172 = SURFACE_STYLE_FILL_AREA( #261 );
#173 = ORIENTED_EDGE( '', *, *, #262, .F. );
#174 = ORIENTED_EDGE( '', *, *, #263, .F. );
#175 = ORIENTED_EDGE( '', *, *, #264, .T. );
#176 = ORIENTED_EDGE( '', *, *, #258, .T. );
#177 = CARTESIAN_POINT( '', ( 11.5000000000000, 6.35085296108588, 11.0000000000000 ) );
#178 = DIRECTION( '', ( 0.000000000000000, 0.000000000000000, -1.00000000000000 ) );
#179 = DIRECTION( '', ( -1.00000000000000, 0.000000000000000, 0.000000000000000 ) );
#180 = SURFACE_STYLE_FILL_AREA( #265 );
#181 = ORIENTED_EDGE( '', *, *, #266, .F. );
#182 = ORIENTED_EDGE( '', *, *, #267, .T. );
#183 = CARTESIAN_POINT( '', ( 0.499753280182865, 0.000000000000000, 0.000000000000000 ) );
#184 = DIRECTION( '', ( -1.00000000000000, 0.000000000000000, -0.000000000000000 ) );
#185 = DIRECTION( '', ( 0.000000000000000, 0.000000000000000, 1.00000000000000 ) );
#186 = SURFACE_STYLE_FILL_AREA( #268 );
#187 = ORIENTED_EDGE( '', *, *, #264, .F. );
#188 = ORIENTED_EDGE( '', *, *, #269, .F. );
#189 = ORIENTED_EDGE( '', *, *, #270, .F. );
#190 = ORIENTED_EDGE( '', *, *, #271, .F. );
#191 = ORIENTED_EDGE( '', *, *, #272, .F. );
#192 = ORIENTED_EDGE( '', *, *, #259, .F. );
#193 = CARTESIAN_POINT( '', ( 11.5000000000000, 0.000000000000000, 0.000000000000000 ) );
#194 = DIRECTION( '', ( 1.00000000000000, 0.000000000000000, 0.000000000000000 ) );
#195 = DIRECTION( '', ( 0.000000000000000, 0.000000000000000, -1.00000000000000 ) );
#196 = SURFACE_STYLE_FILL_AREA( #273 );
#197 = ORIENTED_EDGE( '', *, *, #274, .F. );
#198 = ORIENTED_EDGE( '', *, *, #260, .F. );
#199 = ORIENTED_EDGE( '', *, *, #272, .T. );
#200 = ORIENTED_EDGE( '', *, *, #275, .T. );
#201 = CARTESIAN_POINT( '', ( 11.5000000000000, -12.7017059221718, 0.000000000000000 ) );
#202 = DIRECTION( '', ( -0.000000000000000, 0.866025403784439, 0.500000000000000 ) );
#203 = DIRECTION( '', ( 0.000000000000000, -0.500000000000000, 0.866025403784439 ) );
#204 = SURFACE_STYLE_FILL_AREA( #276 );
#205 = ORIENTED_EDGE( '', *, *, #277, .F. );
#206 = ORIENTED_EDGE( '', *, *, #278, .F. );
#207 = ORIENTED_EDGE( '', *, *, #270, .T. );
#208 = ORIENTED_EDGE( '', *, *, #279, .T. );
#209 = CARTESIAN_POINT( '', ( 11.5000000000000, 6.35085296108588, -11.0000000000000 ) );
#210 = DIRECTION( '', ( 0.000000000000000, -0.866025403784439, 0.500000000000000 ) );
#211 = DIRECTION( '', ( 0.000000000000000, -0.500000000000000, -0.866025403784439 ) );
#212 = SURFACE_STYLE_FILL_AREA( #280 );
#213 = ORIENTED_EDGE( '', *, *, #281, .F. );
#214 = ORIENTED_EDGE( '', *, *, #262, .T. );
#215 = ORIENTED_EDGE( '', *, *, #257, .T. );
#216 = ORIENTED_EDGE( '', *, *, #274, .T. );
#217 = ORIENTED_EDGE( '', *, *, #282, .T. );
#218 = ORIENTED_EDGE( '', *, *, #277, .T. );
#219 = ORIENTED_EDGE( '', *, *, #283, .T. );
#220 = CARTESIAN_POINT( '', ( 0.000000000000000, 0.000000000000000, 0.000000000000000 ) );
#221 = DIRECTION( '', ( 1.00000000000000, 0.000000000000000, -0.000000000000000 ) );
#222 = DIRECTION( '', ( -0.000000000000000, 0.000000000000000, -1.00000000000000 ) );
#223 = SURFACE_STYLE_FILL_AREA( #284 );
#224 = ORIENTED_EDGE( '', *, *, #285, .T. );
#225 = CARTESIAN_POINT( '', ( 18.0000000000000, 20.1721636056098, 0.000000000000000 ) );
#226 = DIRECTION( '', ( -1.00000000000000, 0.000000000000000, 0.000000000000000 ) );
#227 = DIRECTION( '', ( 0.000000000000000, 0.000000000000000, 1.00000000000000 ) );
#228 = SURFACE_STYLE_FILL_AREA( #286 );
#229 = ORIENTED_EDGE( '', *, *, #282, .F. );
#230 = ORIENTED_EDGE( '', *, *, #275, .F. );
#231 = ORIENTED_EDGE( '', *, *, #271, .T. );
#232 = ORIENTED_EDGE( '', *, *, #278, .T. );
#233 = CARTESIAN_POINT( '', ( 11.5000000000000, -6.35085296108588, -11.0000000000000 ) );
#234 = DIRECTION( '', ( 0.000000000000000, 0.000000000000000, 1.00000000000000 ) );
#235 = DIRECTION( '', ( 1.00000000000000, 0.000000000000000, -0.000000000000000 ) );
#236 = SURFACE_STYLE_FILL_AREA( #287 );
#237 = ORIENTED_EDGE( '', *, *, #267, .F. );
#238 = ORIENTED_EDGE( '', *, *, #281, .T. );
#239 = CARTESIAN_POINT( '', ( 0.000000000000000, 0.000000000000000, 0.000000000000000 ) );
#240 = DIRECTION( '', ( 1.00000000000000, -0.000000000000000, -0.000000000000000 ) );
#241 = DIRECTION( '', ( -0.000000000000000, 0.000000000000000, -1.00000000000000 ) );
#242 = SURFACE_STYLE_FILL_AREA( #288 );
#243 = ORIENTED_EDGE( '', *, *, #285, .F. );
#244 = ORIENTED_EDGE( '', *, *, #266, .T. );
#245 = CARTESIAN_POINT( '', ( 17.5002467198171, 0.000000000000000, 0.000000000000000 ) );
#246 = DIRECTION( '', ( -1.00000000000000, 0.000000000000000, -0.000000000000000 ) );
#247 = DIRECTION( '', ( 0.000000000000000, 0.000000000000000, 1.00000000000000 ) );
#248 = SURFACE_STYLE_FILL_AREA( #289 );
#249 = ORIENTED_EDGE( '', *, *, #283, .F. );
#250 = ORIENTED_EDGE( '', *, *, #279, .F. );
#251 = ORIENTED_EDGE( '', *, *, #269, .T. );
#252 = ORIENTED_EDGE( '', *, *, #263, .T. );
#253 = CARTESIAN_POINT( '', ( 11.5000000000000, 12.7017059221718, 0.000000000000000 ) );
#254 = DIRECTION( '', ( 0.000000000000000, -0.866025403784439, -0.500000000000000 ) );
#255 = DIRECTION( '', ( 0.000000000000000, 0.500000000000000, -0.866025403784439 ) );
#256 = FILL_AREA_STYLE( '', ( #290 ) );
#257 = EDGE_CURVE( '', #291, #292, #293, .T. );
#258 = EDGE_CURVE( '', #294, #291, #295, .T. );
#259 = EDGE_CURVE( '', #294, #296, #297, .T. );
#260 = EDGE_CURVE( '', #296, #292, #298, .T. );
#261 = FILL_AREA_STYLE( '', ( #299 ) );
#262 = EDGE_CURVE( '', #300, #291, #301, .T. );
#263 = EDGE_CURVE( '', #302, #300, #303, .T. );
#264 = EDGE_CURVE( '', #302, #294, #304, .T. );
#265 = FILL_AREA_STYLE( '', ( #305 ) );
#266 = EDGE_CURVE( '', #306, #306, #307, .T. );
#267 = EDGE_CURVE( '', #308, #308, #309, .T. );
#268 = FILL_AREA_STYLE( '', ( #310 ) );
#269 = EDGE_CURVE( '', #311, #302, #312, .T. );
#270 = EDGE_CURVE( '', #313, #311, #314, .T. );
#271 = EDGE_CURVE( '', #315, #313, #316, .T. );
#272 = EDGE_CURVE( '', #296, #315, #317, .T. );
#273 = FILL_AREA_STYLE( '', ( #318 ) );
#274 = EDGE_CURVE( '', #292, #319, #320, .T. );
#275 = EDGE_CURVE( '', #315, #319, #321, .T. );
#276 = FILL_AREA_STYLE( '', ( #322 ) );
#277 = EDGE_CURVE( '', #323, #324, #325, .T. );
#278 = EDGE_CURVE( '', #313, #323, #326, .T. );
#279 = EDGE_CURVE( '', #311, #324, #327, .T. );
#280 = FILL_AREA_STYLE( '', ( #328 ) );
#281 = EDGE_CURVE( '', #329, #329, #330, .T. );
#282 = EDGE_CURVE( '', #319, #323, #331, .T. );
#283 = EDGE_CURVE( '', #324, #300, #332, .T. );
#284 = FILL_AREA_STYLE( '', ( #333 ) );
#285 = EDGE_CURVE( '', #334, #334, #335, .T. );
#286 = FILL_AREA_STYLE( '', ( #336 ) );
#287 = FILL_AREA_STYLE( '', ( #337 ) );
#288 = FILL_AREA_STYLE( '', ( #338 ) );
#289 = FILL_AREA_STYLE( '', ( #339 ) );
#290 = FILL_AREA_STYLE_COLOUR( '', #340 );
#291 = VERTEX_POINT( '', #341 );
#292 = VERTEX_POINT( '', #342 );
#293 = LINE( '', #343, #344 );
#294 = VERTEX_POINT( '', #345 );
#295 = LINE( '', #346, #347 );
#296 = VERTEX_POINT( '', #348 );
#297 = LINE( '', #349, #350 );
#298 = LINE( '', #351, #352 );
#299 = FILL_AREA_STYLE_COLOUR( '', #353 );
#300 = VERTEX_POINT( '', #354 );
#301 = LINE( '', #355, #356 );
#302 = VERTEX_POINT( '', #357 );
#303 = LINE( '', #358, #359 );
#304 = LINE( '', #360, #361 );
#305 = FILL_AREA_STYLE_COLOUR( '', #362 );
#306 = VERTEX_POINT( '', #363 );
#307 = CIRCLE( '', #364, 20.6878689851000 );
#308 = VERTEX_POINT( '', #365 );
#309 = CIRCLE( '', #366, 21.2221310149000 );
#310 = FILL_AREA_STYLE_COLOUR( '', #367 );
#311 = VERTEX_POINT( '', #368 );
#312 = LINE( '', #369, #370 );
#313 = VERTEX_POINT( '', #371 );
#314 = LINE( '', #372, #373 );
#315 = VERTEX_POINT( '', #374 );
#316 = LINE( '', #375, #376 );
#317 = LINE( '', #377, #378 );
#318 = FILL_AREA_STYLE_COLOUR( '', #379 );
#319 = VERTEX_POINT( '', #380 );
#320 = LINE( '', #381, #382 );
#321 = LINE( '', #383, #384 );
#322 = FILL_AREA_STYLE_COLOUR( '', #385 );
#323 = VERTEX_POINT( '', #386 );
#324 = VERTEX_POINT( '', #387 );
#325 = LINE( '', #388, #389 );
#326 = LINE( '', #390, #391 );
#327 = LINE( '', #392, #393 );
#328 = FILL_AREA_STYLE_COLOUR( '', #394 );
#329 = VERTEX_POINT( '', #395 );
#330 = CIRCLE( '', #396, 20.7378363944000 );
#331 = LINE( '', #397, #398 );
#332 = LINE( '', #399, #400 );
#333 = FILL_AREA_STYLE_COLOUR( '', #401 );
#334 = VERTEX_POINT( '', #402 );
#335 = CIRCLE( '', #403, 20.1721636056000 );
#336 = FILL_AREA_STYLE_COLOUR( '', #404 );
#337 = FILL_AREA_STYLE_COLOUR( '', #405 );
#338 = FILL_AREA_STYLE_COLOUR( '', #406 );
#339 = FILL_AREA_STYLE_COLOUR( '', #407 );
#340 = COLOUR_RGB( '', 0.689999997600000, 0.689999997600000, 0.689999997600000 );
#341 = CARTESIAN_POINT( '', ( 0.000000000000000, -6.35085296108588, 11.0000000000000 ) );
#342 = CARTESIAN_POINT( '', ( 0.000000000000000, -12.7017059221718, 0.000000000000000 ) );
#343 = CARTESIAN_POINT( '', ( 0.000000000000000, -6.35085296108588, 11.0000000000000 ) );
#344 = VECTOR( '', #408, 1000.00000000000 );
#345 = CARTESIAN_POINT( '', ( 11.5000000000000, -6.35085296108588, 11.0000000000000 ) );
#346 = CARTESIAN_POINT( '', ( 11.5000000000000, -6.35085296108588, 11.0000000000000 ) );
#347 = VECTOR( '', #409, 1000.00000000000 );
#348 = CARTESIAN_POINT( '', ( 11.5000000000000, -12.7017059221718, 0.000000000000000 ) );
#349 = CARTESIAN_POINT( '', ( 11.5000000000000, -6.35085296108588, 11.0000000000000 ) );
#350 = VECTOR( '', #410, 1000.00000000000 );
#351 = CARTESIAN_POINT( '', ( 11.5000000000000, -12.7017059221718, 0.000000000000000 ) );
#352 = VECTOR( '', #411, 1000.00000000000 );
#353 = COLOUR_RGB( '', 0.689999997600000, 0.689999997600000, 0.689999997600000 );
#354 = CARTESIAN_POINT( '', ( 0.000000000000000, 6.35085296108588, 11.0000000000000 ) );
#355 = CARTESIAN_POINT( '', ( 0.000000000000000, 6.35085296108588, 11.0000000000000 ) );
#356 = VECTOR( '', #412, 1000.00000000000 );
#357 = CARTESIAN_POINT( '', ( 11.5000000000000, 6.35085296108588, 11.0000000000000 ) );
#358 = CARTESIAN_POINT( '', ( 11.5000000000000, 6.35085296108588, 11.0000000000000 ) );
#359 = VECTOR( '', #413, 1000.00000000000 );
#360 = CARTESIAN_POINT( '', ( 11.5000000000000, 6.35085296108588, 11.0000000000000 ) );
#361 = VECTOR( '', #414, 1000.00000000000 );
#362 = COLOUR_RGB( '', 0.689999997600000, 0.689999997600000, 0.689999997600000 );
#363 = CARTESIAN_POINT( '', ( 17.5002467198171, 0.000000000000000, -20.6878689851489 ) );
#364 = AXIS2_PLACEMENT_3D( '', #415, #416, #417 );
#365 = CARTESIAN_POINT( '', ( 0.499753280182865, 0.000000000000000, -21.2221310148511 ) );
#366 = AXIS2_PLACEMENT_3D( '', #418, #419, #420 );
#367 = COLOUR_RGB( '', 0.689999997600000, 0.689999997600000, 0.689999997600000 );
#368 = CARTESIAN_POINT( '', ( 11.5000000000000, 12.7017059221718, 0.000000000000000 ) );
#369 = CARTESIAN_POINT( '', ( 11.5000000000000, 12.7017059221718, 0.000000000000000 ) );
#370 = VECTOR( '', #421, 1000.00000000000 );
#371 = CARTESIAN_POINT( '', ( 11.5000000000000, 6.35085296108588, -11.0000000000000 ) );
#372 = CARTESIAN_POINT( '', ( 11.5000000000000, 6.35085296108588, -11.0000000000000 ) );
#373 = VECTOR( '', #422, 1000.00000000000 );
#374 = CARTESIAN_POINT( '', ( 11.5000000000000, -6.35085296108588, -11.0000000000000 ) );
#375 = CARTESIAN_POINT( '', ( 11.5000000000000, -6.35085296108588, -11.0000000000000 ) );
#376 = VECTOR( '', #423, 1000.00000000000 );
#377 = CARTESIAN_POINT( '', ( 11.5000000000000, -12.7017059221718, 0.000000000000000 ) );
#378 = VECTOR( '', #424, 1000.00000000000 );
#379 = COLOUR_RGB( '', 0.689999997600000, 0.689999997600000, 0.689999997600000 );
#380 = CARTESIAN_POINT( '', ( 0.000000000000000, -6.35085296108588, -11.0000000000000 ) );
#381 = CARTESIAN_POINT( '', ( 0.000000000000000, -12.7017059221718, 0.000000000000000 ) );
#382 = VECTOR( '', #425, 1000.00000000000 );
#383 = CARTESIAN_POINT( '', ( 11.5000000000000, -6.35085296108588, -11.0000000000000 ) );
#384 = VECTOR( '', #426, 1000.00000000000 );
#385 = COLOUR_RGB( '', 0.689999997600000, 0.689999997600000, 0.689999997600000 );
#386 = CARTESIAN_POINT( '', ( 0.000000000000000, 6.35085296108588, -11.0000000000000 ) );
#387 = CARTESIAN_POINT( '', ( 0.000000000000000, 12.7017059221718, 0.000000000000000 ) );
#388 = CARTESIAN_POINT( '', ( 0.000000000000000, 6.35085296108588, -11.0000000000000 ) );
#389 = VECTOR( '', #427, 1000.00000000000 );
#390 = CARTESIAN_POINT( '', ( 11.5000000000000, 6.35085296108588, -11.0000000000000 ) );
#391 = VECTOR( '', #428, 1000.00000000000 );
#392 = CARTESIAN_POINT( '', ( 11.5000000000000, 12.7017059221718, 0.000000000000000 ) );
#393 = VECTOR( '', #429, 1000.00000000000 );
#394 = COLOUR_RGB( '', 0.689999997600000, 0.689999997600000, 0.689999997600000 );
#395 = CARTESIAN_POINT( '', ( 0.000000000000000, 0.000000000000000, -20.7378363943902 ) );
#396 = AXIS2_PLACEMENT_3D( '', #430, #431, #432 );
#397 = CARTESIAN_POINT( '', ( 0.000000000000000, -6.35085296108588, -11.0000000000000 ) );
#398 = VECTOR( '', #433, 1000.00000000000 );
#399 = CARTESIAN_POINT( '', ( 0.000000000000000, 12.7017059221718, 0.000000000000000 ) );
#400 = VECTOR( '', #434, 1000.00000000000 );
#401 = COLOUR_RGB( '', 0.689999997600000, 0.689999997600000, 0.689999997600000 );
#402 = CARTESIAN_POINT( '', ( 18.0000000000000, 0.000000000000000, -20.1721636056098 ) );
#403 = AXIS2_PLACEMENT_3D( '', #435, #436, #437 );
#404 = COLOUR_RGB( '', 0.689999997600000, 0.689999997600000, 0.689999997600000 );
#405 = COLOUR_RGB( '', 0.689999997600000, 0.689999997600000, 0.689999997600000 );
#406 = COLOUR_RGB( '', 0.689999997600000, 0.689999997600000, 0.689999997600000 );
#407 = COLOUR_RGB( '', 0.689999997600000, 0.689999997600000, 0.689999997600000 );
#408 = DIRECTION( '', ( 0.000000000000000, -0.500000000000000, -0.866025403784439 ) );
#409 = DIRECTION( '', ( -1.00000000000000, -0.000000000000000, -0.000000000000000 ) );
#410 = DIRECTION( '', ( 0.000000000000000, -0.500000000000000, -0.866025403784439 ) );
#411 = DIRECTION( '', ( -1.00000000000000, -0.000000000000000, -0.000000000000000 ) );
#412 = DIRECTION( '', ( 0.000000000000000, -1.00000000000000, 0.000000000000000 ) );
#413 = DIRECTION( '', ( -1.00000000000000, -0.000000000000000, -0.000000000000000 ) );
#414 = DIRECTION( '', ( 0.000000000000000, -1.00000000000000, 0.000000000000000 ) );
#415 = CARTESIAN_POINT( '', ( 17.5002467198171, 0.000000000000000, 0.000000000000000 ) );
#416 = DIRECTION( '', ( 1.00000000000000, 0.000000000000000, -0.000000000000000 ) );
#417 = DIRECTION( '', ( -0.000000000000000, 0.000000000000000, -1.00000000000000 ) );
#418 = CARTESIAN_POINT( '', ( 0.499753280182865, 0.000000000000000, 0.000000000000000 ) );
#419 = DIRECTION( '', ( 1.00000000000000, 0.000000000000000, -0.000000000000000 ) );
#420 = DIRECTION( '', ( -0.000000000000000, 0.000000000000000, -1.00000000000000 ) );
#421 = DIRECTION( '', ( 0.000000000000000, -0.500000000000000, 0.866025403784439 ) );
#422 = DIRECTION( '', ( 0.000000000000000, 0.500000000000000, 0.866025403784439 ) );
#423 = DIRECTION( '', ( 0.000000000000000, 1.00000000000000, 0.000000000000000 ) );
#424 = DIRECTION( '', ( 0.000000000000000, 0.500000000000000, -0.866025403784439 ) );
#425 = DIRECTION( '', ( 0.000000000000000, 0.500000000000000, -0.866025403784439 ) );
#426 = DIRECTION( '', ( -1.00000000000000, -0.000000000000000, -0.000000000000000 ) );
#427 = DIRECTION( '', ( 0.000000000000000, 0.500000000000000, 0.866025403784439 ) );
#428 = DIRECTION( '', ( -1.00000000000000, -0.000000000000000, -0.000000000000000 ) );
#429 = DIRECTION( '', ( -1.00000000000000, -0.000000000000000, -0.000000000000000 ) );
#430 = CARTESIAN_POINT( '', ( 0.000000000000000, 0.000000000000000, 0.000000000000000 ) );
#431 = DIRECTION( '', ( 1.00000000000000, 0.000000000000000, -0.000000000000000 ) );
#432 = DIRECTION( '', ( -0.000000000000000, 0.000000000000000, -1.00000000000000 ) );
#433 = DIRECTION( '', ( 0.000000000000000, 1.00000000000000, 0.000000000000000 ) );
#434 = DIRECTION( '', ( 0.000000000000000, -0.500000000000000, 0.866025403784439 ) );
#435 = CARTESIAN_POINT( '', ( 18.0000000000000, 0.000000000000000, 0.000000000000000 ) );
#436 = DIRECTION( '', ( 1.00000000000000, 0.000000000000000, -0.000000000000000 ) );
#437 = DIRECTION( '', ( -0.000000000000000, 0.000000000000000, -1.00000000000000 ) );
ENDSEC;
END-ISO-10303-21;
