ISO-10303-21;
HEADER;
FILE_DESCRIPTION( ( 'STEP AP214' ), '1' );
FILE_NAME( '//goodhand-server/Shared Folders/GoodHand Data/Kipp CAD/K0390/K0390.20X80.stp', '2020-12-07T10:15:05', ( '' ), ( '' ), ' ', 'PARTsolutions', ' ' );
FILE_SCHEMA( ( 'AUTOMOTIVE_DESIGN { 1 0 10303 214 1 1 1 1 }' ) );
ENDSEC;
DATA;
#1 = MECHANICAL_DESIGN_GEOMETRIC_PRESENTATION_REPRESENTATION( ' ', ( #10, #11, #12, #13, #14, #15, #16, #17, #18, #19, #20, #21, #22 ), #6 );
#2 = PRODUCT_DEFINITION_CONTEXT( '', #23, 'design' );
#3 = APPLICATION_PROTOCOL_DEFINITION( 'international standard', 'automotive_design', 2001, #23 );
#4 = PRODUCT_CATEGORY_RELATIONSHIP( 'NONE', 'NONE', #24, #25 );
#5 = SHAPE_DEFINITION_REPRESENTATION( #26, #27 );
#6 =  ( GEOMETRIC_REPRESENTATION_CONTEXT( 3 )GLOBAL_UNCERTAINTY_ASSIGNED_CONTEXT( ( #30 ) )GLOBAL_UNIT_ASSIGNED_CONTEXT( ( #32, #33, #34 ) )REPRESENTATION_CONTEXT( 'NONE', 'WORKSPACE' ) );
#10 = STYLED_ITEM( '', ( #36 ), #37 );
#11 = STYLED_ITEM( '', ( #38 ), #39 );
#12 = STYLED_ITEM( '', ( #40 ), #41 );
#13 = STYLED_ITEM( '', ( #42 ), #43 );
#14 = STYLED_ITEM( '', ( #44 ), #45 );
#15 = STYLED_ITEM( '', ( #46 ), #47 );
#16 = STYLED_ITEM( '', ( #48 ), #49 );
#17 = STYLED_ITEM( '', ( #50 ), #51 );
#18 = STYLED_ITEM( '', ( #52 ), #53 );
#19 = STYLED_ITEM( '', ( #54 ), #55 );
#20 = STYLED_ITEM( '', ( #56 ), #57 );
#21 = STYLED_ITEM( '', ( #58 ), #59 );
#22 = STYLED_ITEM( '', ( #60 ), #61 );
#23 = APPLICATION_CONTEXT( 'core data for automotive mechanical design processes' );
#24 = PRODUCT_CATEGORY( 'part', 'NONE' );
#25 = PRODUCT_RELATED_PRODUCT_CATEGORY( 'detail', ' ', ( #62 ) );
#26 = PRODUCT_DEFINITION_SHAPE( 'NONE', 'NONE', #63 );
#27 = ADVANCED_BREP_SHAPE_REPRESENTATION( '_K0390.20X80', ( #64, #65 ), #6 );
#30 = UNCERTAINTY_MEASURE_WITH_UNIT( LENGTH_MEASURE( 0.00100000000000000 ), #32, '', '' );
#32 =  ( CONVERSION_BASED_UNIT( 'MILLIMETRE', #68 )LENGTH_UNIT(  )NAMED_UNIT( #71 ) );
#33 =  ( NAMED_UNIT( #73 )PLANE_ANGLE_UNIT(  )SI_UNIT( $, .RADIAN. ) );
#34 =  ( NAMED_UNIT( #73 )SI_UNIT( $, .STERADIAN. )SOLID_ANGLE_UNIT(  ) );
#36 = PRESENTATION_STYLE_ASSIGNMENT( ( #79 ) );
#37 = ADVANCED_FACE( '', ( #80 ), #81, .T. );
#38 = PRESENTATION_STYLE_ASSIGNMENT( ( #82 ) );
#39 = ADVANCED_FACE( '', ( #83, #84 ), #85, .T. );
#40 = PRESENTATION_STYLE_ASSIGNMENT( ( #86 ) );
#41 = ADVANCED_FACE( '', ( #87, #88 ), #89, .T. );
#42 = PRESENTATION_STYLE_ASSIGNMENT( ( #90 ) );
#43 = ADVANCED_FACE( '', ( #91 ), #92, .F. );
#44 = PRESENTATION_STYLE_ASSIGNMENT( ( #93 ) );
#45 = ADVANCED_FACE( '', ( #94, #95 ), #96, .F. );
#46 = PRESENTATION_STYLE_ASSIGNMENT( ( #97 ) );
#47 = ADVANCED_FACE( '', ( #98 ), #99, .T. );
#48 = PRESENTATION_STYLE_ASSIGNMENT( ( #100 ) );
#49 = ADVANCED_FACE( '', ( #101, #102 ), #103, .T. );
#50 = PRESENTATION_STYLE_ASSIGNMENT( ( #104 ) );
#51 = ADVANCED_FACE( '', ( #105 ), #106, .F. );
#52 = PRESENTATION_STYLE_ASSIGNMENT( ( #107 ) );
#53 = ADVANCED_FACE( '', ( #108 ), #109, .T. );
#54 = PRESENTATION_STYLE_ASSIGNMENT( ( #110 ) );
#55 = ADVANCED_FACE( '', ( #111, #112 ), #113, .T. );
#56 = PRESENTATION_STYLE_ASSIGNMENT( ( #114 ) );
#57 = ADVANCED_FACE( '', ( #115 ), #116, .F. );
#58 = PRESENTATION_STYLE_ASSIGNMENT( ( #117 ) );
#59 = ADVANCED_FACE( '', ( #118, #119 ), #120, .T. );
#60 = PRESENTATION_STYLE_ASSIGNMENT( ( #121 ) );
#61 = ADVANCED_FACE( '', ( #122 ), #123, .F. );
#62 = PRODUCT( '_K0390.20X80', '_K0390.20X80', 'PART-_K0390.20X80-DESC', ( #124 ) );
#63 = PRODUCT_DEFINITION( 'NONE', 'NONE', #125, #2 );
#64 = MANIFOLD_SOLID_BREP( '_K0390.20X80', #126 );
#65 = AXIS2_PLACEMENT_3D( '', #127, #128, #129 );
#68 = LENGTH_MEASURE_WITH_UNIT( LENGTH_MEASURE( 1.00000000000000 ), #130 );
#71 = DIMENSIONAL_EXPONENTS( 1.00000000000000, 0.000000000000000, 0.000000000000000, 0.000000000000000, 0.000000000000000, 0.000000000000000, 0.000000000000000 );
#73 = DIMENSIONAL_EXPONENTS( 0.000000000000000, 0.000000000000000, 0.000000000000000, 0.000000000000000, 0.000000000000000, 0.000000000000000, 0.000000000000000 );
#79 = SURFACE_STYLE_USAGE( .BOTH., #131 );
#80 = FACE_OUTER_BOUND( '', #132, .T. );
#81 = CONICAL_SURFACE( '', #133, 8.46650000000000, 0.785398163400000 );
#82 = SURFACE_STYLE_USAGE( .BOTH., #134 );
#83 = FACE_OUTER_BOUND( '', #135, .T. );
#84 = FACE_OUTER_BOUND( '', #136, .T. );
#85 = CYLINDRICAL_SURFACE( '', #137, 7.20000000000000 );
#86 = SURFACE_STYLE_USAGE( .BOTH., #138 );
#87 = FACE_BOUND( '', #139, .T. );
#88 = FACE_OUTER_BOUND( '', #140, .T. );
#89 = CONICAL_SURFACE( '', #141, 10.0000000000000, 1.12234211560000 );
#90 = SURFACE_STYLE_USAGE( .BOTH., #142 );
#91 = FACE_OUTER_BOUND( '', #143, .T. );
#92 = PLANE( '', #144 );
#93 = SURFACE_STYLE_USAGE( .BOTH., #145 );
#94 = FACE_OUTER_BOUND( '', #146, .T. );
#95 = FACE_BOUND( '', #147, .T. );
#96 = PLANE( '', #148 );
#97 = SURFACE_STYLE_USAGE( .BOTH., #149 );
#98 = FACE_OUTER_BOUND( '', #150, .T. );
#99 = CONICAL_SURFACE( '', #151, 8.46650000000000, 0.785398163400000 );
#100 = SURFACE_STYLE_USAGE( .BOTH., #152 );
#101 = FACE_BOUND( '', #153, .T. );
#102 = FACE_OUTER_BOUND( '', #154, .T. );
#103 = SPHERICAL_SURFACE( '', #155, 12.9998500000000 );
#104 = SURFACE_STYLE_USAGE( .BOTH., #156 );
#105 = FACE_OUTER_BOUND( '', #157, .T. );
#106 = PLANE( '', #158 );
#107 = SURFACE_STYLE_USAGE( .BOTH., #159 );
#108 = FACE_OUTER_BOUND( '', #160, .T. );
#109 = PLANE( '', #161 );
#110 = SURFACE_STYLE_USAGE( .BOTH., #162 );
#111 = FACE_OUTER_BOUND( '', #163, .T. );
#112 = FACE_OUTER_BOUND( '', #164, .T. );
#113 = CYLINDRICAL_SURFACE( '', #165, 7.75000000000000 );
#114 = SURFACE_STYLE_USAGE( .BOTH., #166 );
#115 = FACE_OUTER_BOUND( '', #167, .T. );
#116 = PLANE( '', #168 );
#117 = SURFACE_STYLE_USAGE( .BOTH., #169 );
#118 = FACE_OUTER_BOUND( '', #170, .T. );
#119 = FACE_OUTER_BOUND( '', #171, .T. );
#120 = CYLINDRICAL_SURFACE( '', #172, 10.0000000000000 );
#121 = SURFACE_STYLE_USAGE( .BOTH., #173 );
#122 = FACE_OUTER_BOUND( '', #174, .T. );
#123 = PLANE( '', #175 );
#124 = PRODUCT_CONTEXT( '', #23, 'mechanical' );
#125 = PRODUCT_DEFINITION_FORMATION_WITH_SPECIFIED_SOURCE( ' ', 'NONE', #62, .NOT_KNOWN. );
#126 = CLOSED_SHELL( '', ( #57, #61, #49, #55, #45, #39, #41, #59, #37, #51, #47, #43, #53 ) );
#127 = CARTESIAN_POINT( '', ( 0.000000000000000, 0.000000000000000, 0.000000000000000 ) );
#128 = DIRECTION( '', ( 0.000000000000000, 0.000000000000000, 1.00000000000000 ) );
#129 = DIRECTION( '', ( 1.00000000000000, 0.000000000000000, 0.000000000000000 ) );
#130 =  ( LENGTH_UNIT(  )NAMED_UNIT( #71 )SI_UNIT( .MILLI., .METRE. ) );
#131 = SURFACE_SIDE_STYLE( '', ( #177 ) );
#132 = EDGE_LOOP( '', ( #178, #179, #180, #181 ) );
#133 = AXIS2_PLACEMENT_3D( '', #182, #183, #184 );
#134 = SURFACE_SIDE_STYLE( '', ( #185 ) );
#135 = EDGE_LOOP( '', ( #186 ) );
#136 = EDGE_LOOP( '', ( #187 ) );
#137 = AXIS2_PLACEMENT_3D( '', #188, #189, #190 );
#138 = SURFACE_SIDE_STYLE( '', ( #191 ) );
#139 = EDGE_LOOP( '', ( #192 ) );
#140 = EDGE_LOOP( '', ( #193 ) );
#141 = AXIS2_PLACEMENT_3D( '', #194, #195, #196 );
#142 = SURFACE_SIDE_STYLE( '', ( #197 ) );
#143 = EDGE_LOOP( '', ( #198, #199 ) );
#144 = AXIS2_PLACEMENT_3D( '', #200, #201, #202 );
#145 = SURFACE_SIDE_STYLE( '', ( #203 ) );
#146 = EDGE_LOOP( '', ( #204 ) );
#147 = EDGE_LOOP( '', ( #205 ) );
#148 = AXIS2_PLACEMENT_3D( '', #206, #207, #208 );
#149 = SURFACE_SIDE_STYLE( '', ( #209 ) );
#150 = EDGE_LOOP( '', ( #210, #211, #212, #213 ) );
#151 = AXIS2_PLACEMENT_3D( '', #214, #215, #216 );
#152 = SURFACE_SIDE_STYLE( '', ( #217 ) );
#153 = VERTEX_LOOP( '', #218 );
#154 = EDGE_LOOP( '', ( #219 ) );
#155 = AXIS2_PLACEMENT_3D( '', #220, #221, #222 );
#156 = SURFACE_SIDE_STYLE( '', ( #223 ) );
#157 = EDGE_LOOP( '', ( #224, #225 ) );
#158 = AXIS2_PLACEMENT_3D( '', #226, #227, #228 );
#159 = SURFACE_SIDE_STYLE( '', ( #229 ) );
#160 = EDGE_LOOP( '', ( #230, #231, #232, #233 ) );
#161 = AXIS2_PLACEMENT_3D( '', #234, #235, #236 );
#162 = SURFACE_SIDE_STYLE( '', ( #237 ) );
#163 = EDGE_LOOP( '', ( #238 ) );
#164 = EDGE_LOOP( '', ( #239 ) );
#165 = AXIS2_PLACEMENT_3D( '', #240, #241, #242 );
#166 = SURFACE_SIDE_STYLE( '', ( #243 ) );
#167 = EDGE_LOOP( '', ( #244, #245, #246, #247, #248, #249 ) );
#168 = AXIS2_PLACEMENT_3D( '', #250, #251, #252 );
#169 = SURFACE_SIDE_STYLE( '', ( #253 ) );
#170 = EDGE_LOOP( '', ( #254 ) );
#171 = EDGE_LOOP( '', ( #255, #256, #257, #258, #259, #260, #261, #262 ) );
#172 = AXIS2_PLACEMENT_3D( '', #263, #264, #265 );
#173 = SURFACE_SIDE_STYLE( '', ( #266 ) );
#174 = EDGE_LOOP( '', ( #267, #268, #269, #270, #271, #272 ) );
#175 = AXIS2_PLACEMENT_3D( '', #273, #274, #275 );
#177 = SURFACE_STYLE_FILL_AREA( #276 );
#178 = ORIENTED_EDGE( '', *, *, #277, .T. );
#179 = ORIENTED_EDGE( '', *, *, #278, .T. );
#180 = ORIENTED_EDGE( '', *, *, #279, .F. );
#181 = ORIENTED_EDGE( '', *, *, #280, .T. );
#182 = CARTESIAN_POINT( '', ( -1.38777878078145E-14, -1.46413380368133E-14, 0.000000000000000 ) );
#183 = DIRECTION( '', ( 1.00000000000000, -6.12323399573676E-17, -0.000000000000000 ) );
#184 = DIRECTION( '', ( 6.12323399573676E-17, 1.00000000000000, 0.000000000000000 ) );
#185 = SURFACE_STYLE_FILL_AREA( #281 );
#186 = ORIENTED_EDGE( '', *, *, #282, .F. );
#187 = ORIENTED_EDGE( '', *, *, #283, .T. );
#188 = CARTESIAN_POINT( '', ( 80.0000000000000, -1.95399252334028E-14, 0.000000000000000 ) );
#189 = DIRECTION( '', ( -1.00000000000000, 6.12323399573676E-17, 0.000000000000000 ) );
#190 = DIRECTION( '', ( 6.12323399573676E-17, 1.00000000000000, 0.000000000000000 ) );
#191 = SURFACE_STYLE_FILL_AREA( #284 );
#192 = ORIENTED_EDGE( '', *, *, #283, .F. );
#193 = ORIENTED_EDGE( '', *, *, #285, .T. );
#194 = CARTESIAN_POINT( '', ( 66.0000000000000, -1.86826724739996E-14, 0.000000000000000 ) );
#195 = DIRECTION( '', ( -1.00000000000000, 6.12323399573676E-17, -0.000000000000000 ) );
#196 = DIRECTION( '', ( -6.12323399573676E-17, -1.00000000000000, 0.000000000000000 ) );
#197 = SURFACE_STYLE_FILL_AREA( #286 );
#198 = ORIENTED_EDGE( '', *, *, #277, .F. );
#199 = ORIENTED_EDGE( '', *, *, #287, .F. );
#200 = CARTESIAN_POINT( '', ( -1.44700665183265E-14, -1.46413380368133E-14, 0.000000000000000 ) );
#201 = DIRECTION( '', ( 1.00000000000000, -6.12323399573676E-17, -0.000000000000000 ) );
#202 = DIRECTION( '', ( 6.12323399573676E-17, 1.00000000000000, 0.000000000000000 ) );
#203 = SURFACE_STYLE_FILL_AREA( #288 );
#204 = ORIENTED_EDGE( '', *, *, #289, .F. );
#205 = ORIENTED_EDGE( '', *, *, #282, .T. );
#206 = CARTESIAN_POINT( '', ( 74.5000000000000, 7.19999999999998, 0.000000000000000 ) );
#207 = DIRECTION( '', ( 1.00000000000000, -6.12323399573676E-17, -0.000000000000000 ) );
#208 = DIRECTION( '', ( 6.12323399573676E-17, 1.00000000000000, 0.000000000000000 ) );
#209 = SURFACE_STYLE_FILL_AREA( #290 );
#210 = ORIENTED_EDGE( '', *, *, #291, .F. );
#211 = ORIENTED_EDGE( '', *, *, #292, .T. );
#212 = ORIENTED_EDGE( '', *, *, #293, .T. );
#213 = ORIENTED_EDGE( '', *, *, #294, .T. );
#214 = CARTESIAN_POINT( '', ( -1.38777878078145E-14, -1.46413380368133E-14, 0.000000000000000 ) );
#215 = DIRECTION( '', ( 1.00000000000000, -6.12323399573676E-17, -0.000000000000000 ) );
#216 = DIRECTION( '', ( 6.12323399573676E-17, 1.00000000000000, 0.000000000000000 ) );
#217 = SURFACE_STYLE_FILL_AREA( #295 );
#218 = VERTEX_POINT( '', #296 );
#219 = ORIENTED_EDGE( '', *, *, #297, .T. );
#220 = CARTESIAN_POINT( '', ( 67.0001500000002, 2.42861286636753E-14, 0.000000000000000 ) );
#221 = DIRECTION( '', ( 1.00000000000000, 0.000000000000000, 0.000000000000000 ) );
#222 = DIRECTION( '', ( 0.000000000000000, -1.00000000000000, 0.000000000000000 ) );
#223 = SURFACE_STYLE_FILL_AREA( #298 );
#224 = ORIENTED_EDGE( '', *, *, #293, .F. );
#225 = ORIENTED_EDGE( '', *, *, #299, .F. );
#226 = CARTESIAN_POINT( '', ( -1.44700665183265E-14, -1.46413380368133E-14, 0.000000000000000 ) );
#227 = DIRECTION( '', ( 1.00000000000000, -6.12323399573676E-17, -0.000000000000000 ) );
#228 = DIRECTION( '', ( 6.12323399573676E-17, 1.00000000000000, 0.000000000000000 ) );
#229 = SURFACE_STYLE_FILL_AREA( #300 );
#230 = ORIENTED_EDGE( '', *, *, #301, .T. );
#231 = ORIENTED_EDGE( '', *, *, #302, .T. );
#232 = ORIENTED_EDGE( '', *, *, #303, .T. );
#233 = ORIENTED_EDGE( '', *, *, #304, .T. );
#234 = CARTESIAN_POINT( '', ( 2.99999999999999, 0.000000000000000, 0.000000000000000 ) );
#235 = DIRECTION( '', ( -1.00000000000000, 0.000000000000000, 0.000000000000000 ) );
#236 = DIRECTION( '', ( 0.000000000000000, 0.000000000000000, 1.00000000000000 ) );
#237 = SURFACE_STYLE_FILL_AREA( #305 );
#238 = ORIENTED_EDGE( '', *, *, #297, .F. );
#239 = ORIENTED_EDGE( '', *, *, #289, .T. );
#240 = CARTESIAN_POINT( '', ( 80.0000000000000, -1.95399252334028E-14, 0.000000000000000 ) );
#241 = DIRECTION( '', ( -1.00000000000000, 6.12323399573676E-17, 0.000000000000000 ) );
#242 = DIRECTION( '', ( 6.12323399573676E-17, 1.00000000000000, 0.000000000000000 ) );
#243 = SURFACE_STYLE_FILL_AREA( #306 );
#244 = ORIENTED_EDGE( '', *, *, #278, .F. );
#245 = ORIENTED_EDGE( '', *, *, #287, .T. );
#246 = ORIENTED_EDGE( '', *, *, #280, .F. );
#247 = ORIENTED_EDGE( '', *, *, #307, .F. );
#248 = ORIENTED_EDGE( '', *, *, #304, .F. );
#249 = ORIENTED_EDGE( '', *, *, #308, .F. );
#250 = CARTESIAN_POINT( '', ( 2.99999999999999, 0.899999999999985, 10.5000000000000 ) );
#251 = DIRECTION( '', ( 0.000000000000000, 1.00000000000000, 0.000000000000000 ) );
#252 = DIRECTION( '', ( 0.000000000000000, -0.000000000000000, 1.00000000000000 ) );
#253 = SURFACE_STYLE_FILL_AREA( #309 );
#254 = ORIENTED_EDGE( '', *, *, #285, .F. );
#255 = ORIENTED_EDGE( '', *, *, #291, .T. );
#256 = ORIENTED_EDGE( '', *, *, #310, .T. );
#257 = ORIENTED_EDGE( '', *, *, #301, .F. );
#258 = ORIENTED_EDGE( '', *, *, #307, .T. );
#259 = ORIENTED_EDGE( '', *, *, #279, .T. );
#260 = ORIENTED_EDGE( '', *, *, #308, .T. );
#261 = ORIENTED_EDGE( '', *, *, #303, .F. );
#262 = ORIENTED_EDGE( '', *, *, #311, .T. );
#263 = CARTESIAN_POINT( '', ( 80.0000000000000, -1.95399252334028E-14, 0.000000000000000 ) );
#264 = DIRECTION( '', ( -1.00000000000000, 6.12323399573676E-17, 0.000000000000000 ) );
#265 = DIRECTION( '', ( 6.12323399573676E-17, 1.00000000000000, 0.000000000000000 ) );
#266 = SURFACE_STYLE_FILL_AREA( #312 );
#267 = ORIENTED_EDGE( '', *, *, #299, .T. );
#268 = ORIENTED_EDGE( '', *, *, #292, .F. );
#269 = ORIENTED_EDGE( '', *, *, #311, .F. );
#270 = ORIENTED_EDGE( '', *, *, #302, .F. );
#271 = ORIENTED_EDGE( '', *, *, #310, .F. );
#272 = ORIENTED_EDGE( '', *, *, #294, .F. );
#273 = CARTESIAN_POINT( '', ( 2.99999999999999, -0.900000000000015, -10.5000000000000 ) );
#274 = DIRECTION( '', ( 0.000000000000000, -1.00000000000000, 0.000000000000000 ) );
#275 = DIRECTION( '', ( 0.000000000000000, 0.000000000000000, -1.00000000000000 ) );
#276 = FILL_AREA_STYLE( '', ( #313 ) );
#277 = EDGE_CURVE( '', #314, #315, #316, .T. );
#278 = EDGE_CURVE( '', #315, #317, #318, .T. );
#279 = EDGE_CURVE( '', #319, #317, #320, .T. );
#280 = EDGE_CURVE( '', #319, #314, #321, .T. );
#281 = FILL_AREA_STYLE( '', ( #322 ) );
#282 = EDGE_CURVE( '', #323, #323, #324, .T. );
#283 = EDGE_CURVE( '', #325, #325, #326, .T. );
#284 = FILL_AREA_STYLE( '', ( #327 ) );
#285 = EDGE_CURVE( '', #328, #328, #329, .T. );
#286 = FILL_AREA_STYLE( '', ( #330 ) );
#287 = EDGE_CURVE( '', #315, #314, #331, .T. );
#288 = FILL_AREA_STYLE( '', ( #332 ) );
#289 = EDGE_CURVE( '', #333, #333, #334, .T. );
#290 = FILL_AREA_STYLE( '', ( #335 ) );
#291 = EDGE_CURVE( '', #336, #337, #338, .T. );
#292 = EDGE_CURVE( '', #336, #339, #340, .T. );
#293 = EDGE_CURVE( '', #339, #341, #342, .T. );
#294 = EDGE_CURVE( '', #341, #337, #343, .T. );
#295 = FILL_AREA_STYLE( '', ( #344 ) );
#296 = CARTESIAN_POINT( '', ( 80.0000000000000, 2.26941061944858E-14, 0.000000000000000 ) );
#297 = EDGE_CURVE( '', #345, #345, #346, .T. );
#298 = FILL_AREA_STYLE( '', ( #347 ) );
#299 = EDGE_CURVE( '', #341, #339, #348, .T. );
#300 = FILL_AREA_STYLE( '', ( #349 ) );
#301 = EDGE_CURVE( '', #350, #351, #352, .T. );
#302 = EDGE_CURVE( '', #351, #353, #354, .T. );
#303 = EDGE_CURVE( '', #353, #355, #356, .T. );
#304 = EDGE_CURVE( '', #355, #350, #357, .T. );
#305 = FILL_AREA_STYLE( '', ( #358 ) );
#306 = FILL_AREA_STYLE( '', ( #359 ) );
#307 = EDGE_CURVE( '', #350, #319, #360, .F. );
#308 = EDGE_CURVE( '', #317, #355, #361, .T. );
#309 = FILL_AREA_STYLE( '', ( #362 ) );
#310 = EDGE_CURVE( '', #337, #351, #363, .T. );
#311 = EDGE_CURVE( '', #353, #336, #364, .F. );
#312 = FILL_AREA_STYLE( '', ( #365 ) );
#313 = FILL_AREA_STYLE_COLOUR( '', #366 );
#314 = VERTEX_POINT( '', #367 );
#315 = VERTEX_POINT( '', #368 );
#316 = CIRCLE( '', #369, 8.46650000000000 );
#317 = VERTEX_POINT( '', #370 );
#318 = B_SPLINE_CURVE_WITH_KNOTS( '', 3, ( #371, #372, #373, #374 ), .UNSPECIFIED., .F., .F., ( 4, 4 ), ( 0.0420335464893133, 0.0442124251860489 ), .UNSPECIFIED. );
#319 = VERTEX_POINT( '', #375 );
#320 = CIRCLE( '', #376, 10.0000000000000 );
#321 = B_SPLINE_CURVE_WITH_KNOTS( '', 3, ( #377, #378, #379, #380 ), .UNSPECIFIED., .F., .F., ( 4, 4 ), ( 0.0170363399290314, 0.0192102676191475 ), .UNSPECIFIED. );
#322 = FILL_AREA_STYLE_COLOUR( '', #381 );
#323 = VERTEX_POINT( '', #382 );
#324 = CIRCLE( '', #383, 7.20000000000000 );
#325 = VERTEX_POINT( '', #384 );
#326 = CIRCLE( '', #385, 7.20000000000000 );
#327 = FILL_AREA_STYLE_COLOUR( '', #386 );
#328 = VERTEX_POINT( '', #387 );
#329 = CIRCLE( '', #388, 10.0000000000000 );
#330 = FILL_AREA_STYLE_COLOUR( '', #389 );
#331 = LINE( '', #390, #391 );
#332 = FILL_AREA_STYLE_COLOUR( '', #392 );
#333 = VERTEX_POINT( '', #393 );
#334 = CIRCLE( '', #394, 7.75000000000000 );
#335 = FILL_AREA_STYLE_COLOUR( '', #395 );
#336 = VERTEX_POINT( '', #396 );
#337 = VERTEX_POINT( '', #397 );
#338 = CIRCLE( '', #398, 10.0000000000000 );
#339 = VERTEX_POINT( '', #399 );
#340 = B_SPLINE_CURVE_WITH_KNOTS( '', 3, ( #400, #401, #402, #403 ), .UNSPECIFIED., .F., .F., ( 4, 4 ), ( 0.0170363399290314, 0.0192102676191475 ), .UNSPECIFIED. );
#341 = VERTEX_POINT( '', #404 );
#342 = CIRCLE( '', #405, 8.46650000000000 );
#343 = B_SPLINE_CURVE_WITH_KNOTS( '', 3, ( #406, #407, #408, #409 ), .UNSPECIFIED., .F., .F., ( 4, 4 ), ( 0.0420335464893133, 0.0442124251860489 ), .UNSPECIFIED. );
#344 = FILL_AREA_STYLE_COLOUR( '', #410 );
#345 = VERTEX_POINT( '', #411 );
#346 = CIRCLE( '', #412, 7.75000000000000 );
#347 = FILL_AREA_STYLE_COLOUR( '', #413 );
#348 = LINE( '', #414, #415 );
#349 = FILL_AREA_STYLE_COLOUR( '', #416 );
#350 = VERTEX_POINT( '', #417 );
#351 = VERTEX_POINT( '', #418 );
#352 = CIRCLE( '', #419, 10.0000000000000 );
#353 = VERTEX_POINT( '', #420 );
#354 = LINE( '', #421, #422 );
#355 = VERTEX_POINT( '', #423 );
#356 = CIRCLE( '', #424, 10.0000000000000 );
#357 = LINE( '', #425, #426 );
#358 = FILL_AREA_STYLE_COLOUR( '', #427 );
#359 = FILL_AREA_STYLE_COLOUR( '', #428 );
#360 = LINE( '', #429, #430 );
#361 = LINE( '', #431, #432 );
#362 = FILL_AREA_STYLE_COLOUR( '', #433 );
#363 = LINE( '', #434, #435 );
#364 = LINE( '', #436, #437 );
#365 = FILL_AREA_STYLE_COLOUR( '', #438 );
#366 = COLOUR_RGB( '', 0.689999997600000, 0.689999997600000, 0.689999997600000 );
#367 = CARTESIAN_POINT( '', ( -1.42108547152020E-14, 0.899999999999985, -8.41852850859341 ) );
#368 = CARTESIAN_POINT( '', ( -1.42108547152020E-14, 0.899999999999985, 8.41852850859341 ) );
#369 = AXIS2_PLACEMENT_3D( '', #439, #440, #441 );
#370 = CARTESIAN_POINT( '', ( 1.53349999999999, 0.899999999999990, 9.95941765365827 ) );
#371 = CARTESIAN_POINT( '', ( -1.70700571864519E-14, 0.899999999999985, 8.41852850859341 ) );
#372 = CARTESIAN_POINT( '', ( 0.510941899449493, 0.899999999999985, 8.93238191982478 ) );
#373 = CARTESIAN_POINT( '', ( 1.02214318709473, 0.899999999999985, 9.44597717883551 ) );
#374 = CARTESIAN_POINT( '', ( 1.53349999999998, 0.899999999999985, 9.95941765365827 ) );
#375 = CARTESIAN_POINT( '', ( 1.53349999999999, 0.899999999999990, -9.95941765365827 ) );
#376 = AXIS2_PLACEMENT_3D( '', #442, #443, #444 );
#377 = CARTESIAN_POINT( '', ( 1.53349999999998, 0.899999999999985, -9.95941765365827 ) );
#378 = CARTESIAN_POINT( '', ( 1.02214317772919, 0.899999999999985, -9.44597716943180 ) );
#379 = CARTESIAN_POINT( '', ( 0.510941888387706, 0.899999999999985, -8.93238190869996 ) );
#380 = CARTESIAN_POINT( '', ( -1.13101637653488E-14, 0.899999999999985, -8.41852850859341 ) );
#381 = COLOUR_RGB( '', 0.689999997600000, 0.689999997600000, 0.689999997600000 );
#382 = CARTESIAN_POINT( '', ( 74.5000000000000, 7.19999999999998, 0.000000000000000 ) );
#383 = AXIS2_PLACEMENT_3D( '', #445, #446, #447 );
#384 = CARTESIAN_POINT( '', ( 67.3472200000000, 7.19999999999998, 0.000000000000000 ) );
#385 = AXIS2_PLACEMENT_3D( '', #448, #449, #450 );
#386 = COLOUR_RGB( '', 0.689999997600000, 0.689999997600000, 0.689999997600000 );
#387 = CARTESIAN_POINT( '', ( 66.0000000000000, 9.99999999999998, 0.000000000000000 ) );
#388 = AXIS2_PLACEMENT_3D( '', #451, #452, #453 );
#389 = COLOUR_RGB( '', 0.689999997600000, 0.689999997600000, 0.689999997600000 );
#390 = CARTESIAN_POINT( '', ( -1.42108547152020E-14, 0.899999999999985, 10.5000000000000 ) );
#391 = VECTOR( '', #454, 1000.00000000000 );
#392 = COLOUR_RGB( '', 0.689999997600000, 0.689999997600000, 0.689999997600000 );
#393 = CARTESIAN_POINT( '', ( 74.5000000000000, 7.74999999999998, 0.000000000000000 ) );
#394 = AXIS2_PLACEMENT_3D( '', #455, #456, #457 );
#395 = COLOUR_RGB( '', 0.689999997600000, 0.689999997600000, 0.689999997600000 );
#396 = CARTESIAN_POINT( '', ( 1.53349999999999, -0.900000000000010, 9.95941765365827 ) );
#397 = CARTESIAN_POINT( '', ( 1.53349999999999, -0.900000000000010, -9.95941765365827 ) );
#398 = AXIS2_PLACEMENT_3D( '', #458, #459, #460 );
#399 = CARTESIAN_POINT( '', ( -1.42108547152020E-14, -0.900000000000014, 8.41852850859341 ) );
#400 = CARTESIAN_POINT( '', ( 1.53349999999999, -0.900000000000015, 9.95941765365828 ) );
#401 = CARTESIAN_POINT( '', ( 1.02214317772919, -0.900000000000015, 9.44597716943181 ) );
#402 = CARTESIAN_POINT( '', ( 0.510941888387704, -0.900000000000015, 8.93238190869996 ) );
#403 = CARTESIAN_POINT( '', ( -1.57052458301803E-14, -0.900000000000015, 8.41852850859341 ) );
#404 = CARTESIAN_POINT( '', ( -1.42108547152020E-14, -0.900000000000014, -8.41852850859341 ) );
#405 = AXIS2_PLACEMENT_3D( '', #461, #462, #463 );
#406 = CARTESIAN_POINT( '', ( -1.69103246552106E-14, -0.900000000000015, -8.41852850859341 ) );
#407 = CARTESIAN_POINT( '', ( 0.510941899449493, -0.900000000000015, -8.93238191982478 ) );
#408 = CARTESIAN_POINT( '', ( 1.02214318709473, -0.900000000000015, -9.44597717883551 ) );
#409 = CARTESIAN_POINT( '', ( 1.53349999999999, -0.900000000000015, -9.95941765365828 ) );
#410 = COLOUR_RGB( '', 0.689999997600000, 0.689999997600000, 0.689999997600000 );
#411 = CARTESIAN_POINT( '', ( 77.4372760422829, 7.74999999999998, 0.000000000000000 ) );
#412 = AXIS2_PLACEMENT_3D( '', #464, #465, #466 );
#413 = COLOUR_RGB( '', 0.689999997600000, 0.689999997600000, 0.689999997600000 );
#414 = CARTESIAN_POINT( '', ( -1.42108547152020E-14, -0.900000000000015, -10.5000000000000 ) );
#415 = VECTOR( '', #467, 1000.00000000000 );
#416 = COLOUR_RGB( '', 0.689999997600000, 0.689999997600000, 0.689999997600000 );
#417 = CARTESIAN_POINT( '', ( 2.99999999999999, 0.899999999999985, -9.95941765365827 ) );
#418 = CARTESIAN_POINT( '', ( 2.99999999999999, -0.900000000000014, -9.95941765365827 ) );
#419 = AXIS2_PLACEMENT_3D( '', #468, #469, #470 );
#420 = CARTESIAN_POINT( '', ( 2.99999999999999, -0.900000000000014, 9.95941765365827 ) );
#421 = CARTESIAN_POINT( '', ( 2.99999999999999, -0.900000000000015, -10.5000000000000 ) );
#422 = VECTOR( '', #471, 1000.00000000000 );
#423 = CARTESIAN_POINT( '', ( 2.99999999999999, 0.899999999999985, 9.95941765365827 ) );
#424 = AXIS2_PLACEMENT_3D( '', #472, #473, #474 );
#425 = CARTESIAN_POINT( '', ( 2.99999999999999, 0.899999999999985, 10.5000000000000 ) );
#426 = VECTOR( '', #475, 1000.00000000000 );
#427 = COLOUR_RGB( '', 0.689999997600000, 0.689999997600000, 0.689999997600000 );
#428 = COLOUR_RGB( '', 0.689999997600000, 0.689999997600000, 0.689999997600000 );
#429 = CARTESIAN_POINT( '', ( 80.0000000000000, 0.899999999999985, -9.95941765365827 ) );
#430 = VECTOR( '', #476, 1000.00000000000 );
#431 = CARTESIAN_POINT( '', ( 80.0000000000000, 0.899999999999985, 9.95941765365827 ) );
#432 = VECTOR( '', #477, 1000.00000000000 );
#433 = COLOUR_RGB( '', 0.689999997600000, 0.689999997600000, 0.689999997600000 );
#434 = CARTESIAN_POINT( '', ( 80.0000000000000, -0.900000000000015, -9.95941765365827 ) );
#435 = VECTOR( '', #478, 1000.00000000000 );
#436 = CARTESIAN_POINT( '', ( 80.0000000000000, -0.900000000000015, 9.95941765365827 ) );
#437 = VECTOR( '', #479, 1000.00000000000 );
#438 = COLOUR_RGB( '', 0.689999997600000, 0.689999997600000, 0.689999997600000 );
#439 = CARTESIAN_POINT( '', ( -1.38777878078145E-14, -1.46413380368133E-14, 0.000000000000000 ) );
#440 = DIRECTION( '', ( 1.00000000000000, -6.12323399573676E-17, -0.000000000000000 ) );
#441 = DIRECTION( '', ( 6.12323399573676E-17, 1.00000000000000, 0.000000000000000 ) );
#442 = CARTESIAN_POINT( '', ( 1.53349999999998, -1.47352378301380E-14, 0.000000000000000 ) );
#443 = DIRECTION( '', ( 1.00000000000000, -6.12323399573676E-17, -0.000000000000000 ) );
#444 = DIRECTION( '', ( 6.12323399573676E-17, 1.00000000000000, 0.000000000000000 ) );
#445 = CARTESIAN_POINT( '', ( 74.5000000000000, -1.92031473636372E-14, 0.000000000000000 ) );
#446 = DIRECTION( '', ( 1.00000000000000, -6.12323399573676E-17, -0.000000000000000 ) );
#447 = DIRECTION( '', ( 6.12323399573676E-17, 1.00000000000000, 0.000000000000000 ) );
#448 = CARTESIAN_POINT( '', ( 67.3472200000000, -1.87651659070370E-14, 0.000000000000000 ) );
#449 = DIRECTION( '', ( 1.00000000000000, -6.12323399573676E-17, -0.000000000000000 ) );
#450 = DIRECTION( '', ( 6.12323399573676E-17, 1.00000000000000, 0.000000000000000 ) );
#451 = CARTESIAN_POINT( '', ( 66.0000000000000, -1.86826724739996E-14, 0.000000000000000 ) );
#452 = DIRECTION( '', ( 1.00000000000000, -6.12323399573676E-17, -0.000000000000000 ) );
#453 = DIRECTION( '', ( 6.12323399573676E-17, 1.00000000000000, 0.000000000000000 ) );
#454 = DIRECTION( '', ( 0.000000000000000, 0.000000000000000, -1.00000000000000 ) );
#455 = CARTESIAN_POINT( '', ( 74.5000000000000, -1.92031473636372E-14, 0.000000000000000 ) );
#456 = DIRECTION( '', ( 1.00000000000000, -6.12323399573676E-17, -0.000000000000000 ) );
#457 = DIRECTION( '', ( 6.12323399573676E-17, 1.00000000000000, 0.000000000000000 ) );
#458 = CARTESIAN_POINT( '', ( 1.53349999999998, -1.47352378301380E-14, 0.000000000000000 ) );
#459 = DIRECTION( '', ( 1.00000000000000, -6.12323399573676E-17, -0.000000000000000 ) );
#460 = DIRECTION( '', ( 6.12323399573676E-17, 1.00000000000000, 0.000000000000000 ) );
#461 = CARTESIAN_POINT( '', ( -1.38777878078145E-14, -1.46413380368133E-14, 0.000000000000000 ) );
#462 = DIRECTION( '', ( 1.00000000000000, -6.12323399573676E-17, -0.000000000000000 ) );
#463 = DIRECTION( '', ( 6.12323399573676E-17, 1.00000000000000, 0.000000000000000 ) );
#464 = CARTESIAN_POINT( '', ( 77.4372760422829, -1.93830036488069E-14, 0.000000000000000 ) );
#465 = DIRECTION( '', ( 1.00000000000000, -6.12323399573676E-17, -0.000000000000000 ) );
#466 = DIRECTION( '', ( 6.12323399573676E-17, 1.00000000000000, 0.000000000000000 ) );
#467 = DIRECTION( '', ( 0.000000000000000, 0.000000000000000, 1.00000000000000 ) );
#468 = CARTESIAN_POINT( '', ( 2.99999999999999, -1.48250350566854E-14, 0.000000000000000 ) );
#469 = DIRECTION( '', ( -1.00000000000000, 0.000000000000000, 0.000000000000000 ) );
#470 = DIRECTION( '', ( 0.000000000000000, 0.000000000000000, 1.00000000000000 ) );
#471 = DIRECTION( '', ( 0.000000000000000, 0.000000000000000, 1.00000000000000 ) );
#472 = CARTESIAN_POINT( '', ( 2.99999999999999, -1.48250350566854E-14, 0.000000000000000 ) );
#473 = DIRECTION( '', ( -1.00000000000000, 0.000000000000000, 0.000000000000000 ) );
#474 = DIRECTION( '', ( 0.000000000000000, 0.000000000000000, 1.00000000000000 ) );
#475 = DIRECTION( '', ( 0.000000000000000, 0.000000000000000, -1.00000000000000 ) );
#476 = DIRECTION( '', ( 1.00000000000000, -6.12323399573676E-17, -0.000000000000000 ) );
#477 = DIRECTION( '', ( 1.00000000000000, -6.12323399573676E-17, -0.000000000000000 ) );
#478 = DIRECTION( '', ( 1.00000000000000, -6.12323399573676E-17, -0.000000000000000 ) );
#479 = DIRECTION( '', ( 1.00000000000000, -6.12323399573676E-17, -0.000000000000000 ) );
ENDSEC;
END-ISO-10303-21;
