ISO-10303-21;
HEADER;
FILE_DESCRIPTION( ( 'STEP AP214' ), '1' );
FILE_NAME( '//goodhand-server/Shared Folders/GoodHand Data/Kipp CAD/K1129/K1129.2003815.stp', '2020-12-10T10:17:29', ( '' ), ( '' ), ' ', 'PARTsolutions', ' ' );
FILE_SCHEMA( ( 'AUTOMOTIVE_DESIGN { 1 0 10303 214 1 1 1 1 }' ) );
ENDSEC;
DATA;
#1 = MECHANICAL_DESIGN_GEOMETRIC_PRESENTATION_REPRESENTATION( ' ', ( #10, #11, #12, #13, #14, #15, #16, #17, #18, #19, #20, #21 ), #6 );
#2 = PRODUCT_DEFINITION_CONTEXT( '', #22, 'design' );
#3 = APPLICATION_PROTOCOL_DEFINITION( 'international standard', 'automotive_design', 2001, #22 );
#4 = PRODUCT_CATEGORY_RELATIONSHIP( 'NONE', 'NONE', #23, #24 );
#5 = SHAPE_DEFINITION_REPRESENTATION( #25, #26 );
#6 =  ( GEOMETRIC_REPRESENTATION_CONTEXT( 3 )GLOBAL_UNCERTAINTY_ASSIGNED_CONTEXT( ( #29 ) )GLOBAL_UNIT_ASSIGNED_CONTEXT( ( #31, #32, #33 ) )REPRESENTATION_CONTEXT( 'NONE', 'WORKSPACE' ) );
#10 = STYLED_ITEM( '', ( #35 ), #36 );
#11 = STYLED_ITEM( '', ( #37 ), #38 );
#12 = STYLED_ITEM( '', ( #39 ), #40 );
#13 = STYLED_ITEM( '', ( #41 ), #42 );
#14 = STYLED_ITEM( '', ( #43 ), #44 );
#15 = STYLED_ITEM( '', ( #45 ), #46 );
#16 = STYLED_ITEM( '', ( #47 ), #48 );
#17 = STYLED_ITEM( '', ( #49 ), #50 );
#18 = STYLED_ITEM( '', ( #51 ), #52 );
#19 = STYLED_ITEM( '', ( #53 ), #54 );
#20 = STYLED_ITEM( '', ( #55 ), #56 );
#21 = STYLED_ITEM( '', ( #57 ), #58 );
#22 = APPLICATION_CONTEXT( 'core data for automotive mechanical design processes' );
#23 = PRODUCT_CATEGORY( 'part', 'NONE' );
#24 = PRODUCT_RELATED_PRODUCT_CATEGORY( 'detail', ' ', ( #59 ) );
#25 = PRODUCT_DEFINITION_SHAPE( 'NONE', 'NONE', #60 );
#26 = ADVANCED_BREP_SHAPE_REPRESENTATION( '_K1129.2003815', ( #61, #62 ), #6 );
#29 = UNCERTAINTY_MEASURE_WITH_UNIT( LENGTH_MEASURE( 0.00100000000000000 ), #31, '', '' );
#31 =  ( CONVERSION_BASED_UNIT( 'MILLIMETRE', #65 )LENGTH_UNIT(  )NAMED_UNIT( #68 ) );
#32 =  ( NAMED_UNIT( #70 )PLANE_ANGLE_UNIT(  )SI_UNIT( $, .RADIAN. ) );
#33 =  ( NAMED_UNIT( #70 )SI_UNIT( $, .STERADIAN. )SOLID_ANGLE_UNIT(  ) );
#35 = PRESENTATION_STYLE_ASSIGNMENT( ( #76 ) );
#36 = ADVANCED_FACE( '', ( #77 ), #78, .F. );
#37 = PRESENTATION_STYLE_ASSIGNMENT( ( #79 ) );
#38 = ADVANCED_FACE( '', ( #80, #81 ), #82, .T. );
#39 = PRESENTATION_STYLE_ASSIGNMENT( ( #83 ) );
#40 = ADVANCED_FACE( '', ( #84 ), #85, .T. );
#41 = PRESENTATION_STYLE_ASSIGNMENT( ( #86 ) );
#42 = ADVANCED_FACE( '', ( #87 ), #88, .T. );
#43 = PRESENTATION_STYLE_ASSIGNMENT( ( #89 ) );
#44 = ADVANCED_FACE( '', ( #90 ), #91, .T. );
#45 = PRESENTATION_STYLE_ASSIGNMENT( ( #92 ) );
#46 = ADVANCED_FACE( '', ( #93 ), #94, .T. );
#47 = PRESENTATION_STYLE_ASSIGNMENT( ( #95 ) );
#48 = ADVANCED_FACE( '', ( #96, #97 ), #98, .T. );
#49 = PRESENTATION_STYLE_ASSIGNMENT( ( #99 ) );
#50 = ADVANCED_FACE( '', ( #100 ), #101, .T. );
#51 = PRESENTATION_STYLE_ASSIGNMENT( ( #102 ) );
#52 = ADVANCED_FACE( '', ( #103 ), #104, .T. );
#53 = PRESENTATION_STYLE_ASSIGNMENT( ( #105 ) );
#54 = ADVANCED_FACE( '', ( #106, #107 ), #108, .F. );
#55 = PRESENTATION_STYLE_ASSIGNMENT( ( #109 ) );
#56 = ADVANCED_FACE( '', ( #110, #111 ), #112, .T. );
#57 = PRESENTATION_STYLE_ASSIGNMENT( ( #113 ) );
#58 = ADVANCED_FACE( '', ( #114 ), #115, .F. );
#59 = PRODUCT( '_K1129.2003815', '_K1129.2003815', 'PART-_K1129.2003815-DESC', ( #116 ) );
#60 = PRODUCT_DEFINITION( 'NONE', 'NONE', #117, #2 );
#61 = MANIFOLD_SOLID_BREP( '_K1129.2003815', #118 );
#62 = AXIS2_PLACEMENT_3D( '', #119, #120, #121 );
#65 = LENGTH_MEASURE_WITH_UNIT( LENGTH_MEASURE( 1.00000000000000 ), #122 );
#68 = DIMENSIONAL_EXPONENTS( 1.00000000000000, 0.000000000000000, 0.000000000000000, 0.000000000000000, 0.000000000000000, 0.000000000000000, 0.000000000000000 );
#70 = DIMENSIONAL_EXPONENTS( 0.000000000000000, 0.000000000000000, 0.000000000000000, 0.000000000000000, 0.000000000000000, 0.000000000000000, 0.000000000000000 );
#76 = SURFACE_STYLE_USAGE( .BOTH., #123 );
#77 = FACE_OUTER_BOUND( '', #124, .T. );
#78 = PLANE( '', #125 );
#79 = SURFACE_STYLE_USAGE( .BOTH., #126 );
#80 = FACE_BOUND( '', #127, .T. );
#81 = FACE_OUTER_BOUND( '', #128, .T. );
#82 = CONICAL_SURFACE( '', #129, 8.18957404930000, 0.801106126700000 );
#83 = SURFACE_STYLE_USAGE( .BOTH., #130 );
#84 = FACE_OUTER_BOUND( '', #131, .T. );
#85 = PLANE( '', #132 );
#86 = SURFACE_STYLE_USAGE( .BOTH., #133 );
#87 = FACE_OUTER_BOUND( '', #134, .T. );
#88 = PLANE( '', #135 );
#89 = SURFACE_STYLE_USAGE( .BOTH., #136 );
#90 = FACE_OUTER_BOUND( '', #137, .T. );
#91 = PLANE( '', #138 );
#92 = SURFACE_STYLE_USAGE( .BOTH., #139 );
#93 = FACE_OUTER_BOUND( '', #140, .T. );
#94 = PLANE( '', #141 );
#95 = SURFACE_STYLE_USAGE( .BOTH., #142 );
#96 = FACE_BOUND( '', #143, .T. );
#97 = FACE_OUTER_BOUND( '', #144, .T. );
#98 = CONICAL_SURFACE( '', #145, 8.47242595070000, 0.0314159265000000 );
#99 = SURFACE_STYLE_USAGE( .BOTH., #146 );
#100 = FACE_OUTER_BOUND( '', #147, .T. );
#101 = PLANE( '', #148 );
#102 = SURFACE_STYLE_USAGE( .BOTH., #149 );
#103 = FACE_OUTER_BOUND( '', #150, .T. );
#104 = PLANE( '', #151 );
#105 = SURFACE_STYLE_USAGE( .BOTH., #152 );
#106 = FACE_OUTER_BOUND( '', #153, .T. );
#107 = FACE_BOUND( '', #154, .T. );
#108 = PLANE( '', #155 );
#109 = SURFACE_STYLE_USAGE( .BOTH., #156 );
#110 = FACE_OUTER_BOUND( '', #157, .T. );
#111 = FACE_BOUND( '', #158, .T. );
#112 = CONICAL_SURFACE( '', #159, 7.98813133020000, 0.769690200100000 );
#113 = SURFACE_STYLE_USAGE( .BOTH., #160 );
#114 = FACE_OUTER_BOUND( '', #161, .T. );
#115 = PLANE( '', #162 );
#116 = PRODUCT_CONTEXT( '', #22, 'mechanical' );
#117 = PRODUCT_DEFINITION_FORMATION_WITH_SPECIFIED_SOURCE( ' ', 'NONE', #59, .NOT_KNOWN. );
#118 = CLOSED_SHELL( '', ( #56, #54, #50, #52, #42, #36, #38, #48, #40, #46, #44, #58 ) );
#119 = CARTESIAN_POINT( '', ( 0.000000000000000, 0.000000000000000, 0.000000000000000 ) );
#120 = DIRECTION( '', ( 0.000000000000000, 0.000000000000000, 1.00000000000000 ) );
#121 = DIRECTION( '', ( 1.00000000000000, 0.000000000000000, 0.000000000000000 ) );
#122 =  ( LENGTH_UNIT(  )NAMED_UNIT( #68 )SI_UNIT( .MILLI., .METRE. ) );
#123 = SURFACE_SIDE_STYLE( '', ( #164 ) );
#124 = EDGE_LOOP( '', ( #165 ) );
#125 = AXIS2_PLACEMENT_3D( '', #166, #167, #168 );
#126 = SURFACE_SIDE_STYLE( '', ( #169 ) );
#127 = EDGE_LOOP( '', ( #170 ) );
#128 = EDGE_LOOP( '', ( #171 ) );
#129 = AXIS2_PLACEMENT_3D( '', #172, #173, #174 );
#130 = SURFACE_SIDE_STYLE( '', ( #175 ) );
#131 = EDGE_LOOP( '', ( #176, #177, #178, #179 ) );
#132 = AXIS2_PLACEMENT_3D( '', #180, #181, #182 );
#133 = SURFACE_SIDE_STYLE( '', ( #183 ) );
#134 = EDGE_LOOP( '', ( #184, #185, #186, #187 ) );
#135 = AXIS2_PLACEMENT_3D( '', #188, #189, #190 );
#136 = SURFACE_SIDE_STYLE( '', ( #191 ) );
#137 = EDGE_LOOP( '', ( #192, #193, #194, #195 ) );
#138 = AXIS2_PLACEMENT_3D( '', #196, #197, #198 );
#139 = SURFACE_SIDE_STYLE( '', ( #199 ) );
#140 = EDGE_LOOP( '', ( #200, #201, #202, #203 ) );
#141 = AXIS2_PLACEMENT_3D( '', #204, #205, #206 );
#142 = SURFACE_SIDE_STYLE( '', ( #207 ) );
#143 = EDGE_LOOP( '', ( #208 ) );
#144 = EDGE_LOOP( '', ( #209 ) );
#145 = AXIS2_PLACEMENT_3D( '', #210, #211, #212 );
#146 = SURFACE_SIDE_STYLE( '', ( #213 ) );
#147 = EDGE_LOOP( '', ( #214, #215, #216, #217 ) );
#148 = AXIS2_PLACEMENT_3D( '', #218, #219, #220 );
#149 = SURFACE_SIDE_STYLE( '', ( #221 ) );
#150 = EDGE_LOOP( '', ( #222, #223, #224, #225 ) );
#151 = AXIS2_PLACEMENT_3D( '', #226, #227, #228 );
#152 = SURFACE_SIDE_STYLE( '', ( #229 ) );
#153 = EDGE_LOOP( '', ( #230 ) );
#154 = EDGE_LOOP( '', ( #231, #232, #233, #234, #235, #236 ) );
#155 = AXIS2_PLACEMENT_3D( '', #237, #238, #239 );
#156 = SURFACE_SIDE_STYLE( '', ( #240 ) );
#157 = EDGE_LOOP( '', ( #241 ) );
#158 = EDGE_LOOP( '', ( #242 ) );
#159 = AXIS2_PLACEMENT_3D( '', #243, #244, #245 );
#160 = SURFACE_SIDE_STYLE( '', ( #246 ) );
#161 = EDGE_LOOP( '', ( #247, #248, #249, #250, #251, #252 ) );
#162 = AXIS2_PLACEMENT_3D( '', #253, #254, #255 );
#164 = SURFACE_STYLE_FILL_AREA( #256 );
#165 = ORIENTED_EDGE( '', *, *, #257, .T. );
#166 = CARTESIAN_POINT( '', ( 10.0000000000000, 7.67386866978324, 0.000000000000000 ) );
#167 = DIRECTION( '', ( -1.00000000000000, 0.000000000000000, 0.000000000000000 ) );
#168 = DIRECTION( '', ( 0.000000000000000, 0.000000000000000, 1.00000000000000 ) );
#169 = SURFACE_STYLE_FILL_AREA( #258 );
#170 = ORIENTED_EDGE( '', *, *, #257, .F. );
#171 = ORIENTED_EDGE( '', *, *, #259, .T. );
#172 = CARTESIAN_POINT( '', ( 9.50024671981713, 0.000000000000000, 0.000000000000000 ) );
#173 = DIRECTION( '', ( -1.00000000000000, 0.000000000000000, -0.000000000000000 ) );
#174 = DIRECTION( '', ( 0.000000000000000, 0.000000000000000, 1.00000000000000 ) );
#175 = SURFACE_STYLE_FILL_AREA( #260 );
#176 = ORIENTED_EDGE( '', *, *, #261, .F. );
#177 = ORIENTED_EDGE( '', *, *, #262, .F. );
#178 = ORIENTED_EDGE( '', *, *, #263, .T. );
#179 = ORIENTED_EDGE( '', *, *, #264, .T. );
#180 = CARTESIAN_POINT( '', ( 5.00000000000000, -2.30940107675850, -4.00000000000000 ) );
#181 = DIRECTION( '', ( 0.000000000000000, 0.000000000000000, 1.00000000000000 ) );
#182 = DIRECTION( '', ( 1.00000000000000, 0.000000000000000, -0.000000000000000 ) );
#183 = SURFACE_STYLE_FILL_AREA( #265 );
#184 = ORIENTED_EDGE( '', *, *, #266, .F. );
#185 = ORIENTED_EDGE( '', *, *, #267, .F. );
#186 = ORIENTED_EDGE( '', *, *, #268, .T. );
#187 = ORIENTED_EDGE( '', *, *, #269, .T. );
#188 = CARTESIAN_POINT( '', ( 5.00000000000000, 2.30940107675850, 4.00000000000000 ) );
#189 = DIRECTION( '', ( 0.000000000000000, 0.000000000000000, -1.00000000000000 ) );
#190 = DIRECTION( '', ( -1.00000000000000, 0.000000000000000, 0.000000000000000 ) );
#191 = SURFACE_STYLE_FILL_AREA( #270 );
#192 = ORIENTED_EDGE( '', *, *, #271, .F. );
#193 = ORIENTED_EDGE( '', *, *, #272, .F. );
#194 = ORIENTED_EDGE( '', *, *, #273, .T. );
#195 = ORIENTED_EDGE( '', *, *, #267, .T. );
#196 = CARTESIAN_POINT( '', ( 5.00000000000000, 4.61880215351701, 0.000000000000000 ) );
#197 = DIRECTION( '', ( 0.000000000000000, -0.866025403784439, -0.500000000000000 ) );
#198 = DIRECTION( '', ( 0.000000000000000, 0.500000000000000, -0.866025403784439 ) );
#199 = SURFACE_STYLE_FILL_AREA( #274 );
#200 = ORIENTED_EDGE( '', *, *, #275, .F. );
#201 = ORIENTED_EDGE( '', *, *, #264, .F. );
#202 = ORIENTED_EDGE( '', *, *, #276, .T. );
#203 = ORIENTED_EDGE( '', *, *, #272, .T. );
#204 = CARTESIAN_POINT( '', ( 5.00000000000000, 2.30940107675850, -4.00000000000000 ) );
#205 = DIRECTION( '', ( 0.000000000000000, -0.866025403784439, 0.500000000000000 ) );
#206 = DIRECTION( '', ( 0.000000000000000, -0.500000000000000, -0.866025403784439 ) );
#207 = SURFACE_STYLE_FILL_AREA( #277 );
#208 = ORIENTED_EDGE( '', *, *, #259, .F. );
#209 = ORIENTED_EDGE( '', *, *, #278, .T. );
#210 = CARTESIAN_POINT( '', ( 0.499753280182865, 0.000000000000000, 0.000000000000000 ) );
#211 = DIRECTION( '', ( -1.00000000000000, 0.000000000000000, -0.000000000000000 ) );
#212 = DIRECTION( '', ( 0.000000000000000, 0.000000000000000, 1.00000000000000 ) );
#213 = SURFACE_STYLE_FILL_AREA( #279 );
#214 = ORIENTED_EDGE( '', *, *, #280, .F. );
#215 = ORIENTED_EDGE( '', *, *, #269, .F. );
#216 = ORIENTED_EDGE( '', *, *, #281, .T. );
#217 = ORIENTED_EDGE( '', *, *, #282, .T. );
#218 = CARTESIAN_POINT( '', ( 5.00000000000000, -2.30940107675850, 4.00000000000000 ) );
#219 = DIRECTION( '', ( 0.000000000000000, 0.866025403784439, -0.500000000000000 ) );
#220 = DIRECTION( '', ( 0.000000000000000, 0.500000000000000, 0.866025403784439 ) );
#221 = SURFACE_STYLE_FILL_AREA( #283 );
#222 = ORIENTED_EDGE( '', *, *, #284, .F. );
#223 = ORIENTED_EDGE( '', *, *, #282, .F. );
#224 = ORIENTED_EDGE( '', *, *, #285, .T. );
#225 = ORIENTED_EDGE( '', *, *, #262, .T. );
#226 = CARTESIAN_POINT( '', ( 5.00000000000000, -4.61880215351701, 0.000000000000000 ) );
#227 = DIRECTION( '', ( -0.000000000000000, 0.866025403784439, 0.500000000000000 ) );
#228 = DIRECTION( '', ( 0.000000000000000, -0.500000000000000, 0.866025403784439 ) );
#229 = SURFACE_STYLE_FILL_AREA( #286 );
#230 = ORIENTED_EDGE( '', *, *, #287, .F. );
#231 = ORIENTED_EDGE( '', *, *, #266, .T. );
#232 = ORIENTED_EDGE( '', *, *, #280, .T. );
#233 = ORIENTED_EDGE( '', *, *, #284, .T. );
#234 = ORIENTED_EDGE( '', *, *, #261, .T. );
#235 = ORIENTED_EDGE( '', *, *, #275, .T. );
#236 = ORIENTED_EDGE( '', *, *, #271, .T. );
#237 = CARTESIAN_POINT( '', ( 0.000000000000000, 0.000000000000000, 0.000000000000000 ) );
#238 = DIRECTION( '', ( 1.00000000000000, 0.000000000000000, -0.000000000000000 ) );
#239 = DIRECTION( '', ( -0.000000000000000, 0.000000000000000, -1.00000000000000 ) );
#240 = SURFACE_STYLE_FILL_AREA( #288 );
#241 = ORIENTED_EDGE( '', *, *, #278, .F. );
#242 = ORIENTED_EDGE( '', *, *, #287, .T. );
#243 = CARTESIAN_POINT( '', ( 0.000000000000000, 0.000000000000000, 0.000000000000000 ) );
#244 = DIRECTION( '', ( 1.00000000000000, -0.000000000000000, -0.000000000000000 ) );
#245 = DIRECTION( '', ( -0.000000000000000, 0.000000000000000, -1.00000000000000 ) );
#246 = SURFACE_STYLE_FILL_AREA( #289 );
#247 = ORIENTED_EDGE( '', *, *, #268, .F. );
#248 = ORIENTED_EDGE( '', *, *, #273, .F. );
#249 = ORIENTED_EDGE( '', *, *, #276, .F. );
#250 = ORIENTED_EDGE( '', *, *, #263, .F. );
#251 = ORIENTED_EDGE( '', *, *, #285, .F. );
#252 = ORIENTED_EDGE( '', *, *, #281, .F. );
#253 = CARTESIAN_POINT( '', ( 5.00000000000000, 0.000000000000000, 0.000000000000000 ) );
#254 = DIRECTION( '', ( 1.00000000000000, 0.000000000000000, 0.000000000000000 ) );
#255 = DIRECTION( '', ( 0.000000000000000, 0.000000000000000, -1.00000000000000 ) );
#256 = FILL_AREA_STYLE( '', ( #290 ) );
#257 = EDGE_CURVE( '', #291, #291, #292, .T. );
#258 = FILL_AREA_STYLE( '', ( #293 ) );
#259 = EDGE_CURVE( '', #294, #294, #295, .T. );
#260 = FILL_AREA_STYLE( '', ( #296 ) );
#261 = EDGE_CURVE( '', #297, #298, #299, .T. );
#262 = EDGE_CURVE( '', #300, #297, #301, .T. );
#263 = EDGE_CURVE( '', #300, #302, #303, .T. );
#264 = EDGE_CURVE( '', #302, #298, #304, .T. );
#265 = FILL_AREA_STYLE( '', ( #305 ) );
#266 = EDGE_CURVE( '', #306, #307, #308, .T. );
#267 = EDGE_CURVE( '', #309, #306, #310, .T. );
#268 = EDGE_CURVE( '', #309, #311, #312, .T. );
#269 = EDGE_CURVE( '', #311, #307, #313, .T. );
#270 = FILL_AREA_STYLE( '', ( #314 ) );
#271 = EDGE_CURVE( '', #315, #306, #316, .T. );
#272 = EDGE_CURVE( '', #317, #315, #318, .T. );
#273 = EDGE_CURVE( '', #317, #309, #319, .T. );
#274 = FILL_AREA_STYLE( '', ( #320 ) );
#275 = EDGE_CURVE( '', #298, #315, #321, .T. );
#276 = EDGE_CURVE( '', #302, #317, #322, .T. );
#277 = FILL_AREA_STYLE( '', ( #323 ) );
#278 = EDGE_CURVE( '', #324, #324, #325, .T. );
#279 = FILL_AREA_STYLE( '', ( #326 ) );
#280 = EDGE_CURVE( '', #307, #327, #328, .T. );
#281 = EDGE_CURVE( '', #311, #329, #330, .T. );
#282 = EDGE_CURVE( '', #329, #327, #331, .T. );
#283 = FILL_AREA_STYLE( '', ( #332 ) );
#284 = EDGE_CURVE( '', #327, #297, #333, .T. );
#285 = EDGE_CURVE( '', #329, #300, #334, .T. );
#286 = FILL_AREA_STYLE( '', ( #335 ) );
#287 = EDGE_CURVE( '', #336, #336, #337, .T. );
#288 = FILL_AREA_STYLE( '', ( #338 ) );
#289 = FILL_AREA_STYLE( '', ( #339 ) );
#290 = FILL_AREA_STYLE_COLOUR( '', #340 );
#291 = VERTEX_POINT( '', #341 );
#292 = CIRCLE( '', #342, 7.67386866980000 );
#293 = FILL_AREA_STYLE_COLOUR( '', #343 );
#294 = VERTEX_POINT( '', #344 );
#295 = CIRCLE( '', #345, 8.18957404930000 );
#296 = FILL_AREA_STYLE_COLOUR( '', #346 );
#297 = VERTEX_POINT( '', #347 );
#298 = VERTEX_POINT( '', #348 );
#299 = LINE( '', #349, #350 );
#300 = VERTEX_POINT( '', #351 );
#301 = LINE( '', #352, #353 );
#302 = VERTEX_POINT( '', #354 );
#303 = LINE( '', #355, #356 );
#304 = LINE( '', #357, #358 );
#305 = FILL_AREA_STYLE_COLOUR( '', #359 );
#306 = VERTEX_POINT( '', #360 );
#307 = VERTEX_POINT( '', #361 );
#308 = LINE( '', #362, #363 );
#309 = VERTEX_POINT( '', #364 );
#310 = LINE( '', #365, #366 );
#311 = VERTEX_POINT( '', #367 );
#312 = LINE( '', #368, #369 );
#313 = LINE( '', #370, #371 );
#314 = FILL_AREA_STYLE_COLOUR( '', #372 );
#315 = VERTEX_POINT( '', #373 );
#316 = LINE( '', #374, #375 );
#317 = VERTEX_POINT( '', #376 );
#318 = LINE( '', #377, #378 );
#319 = LINE( '', #379, #380 );
#320 = FILL_AREA_STYLE_COLOUR( '', #381 );
#321 = LINE( '', #382, #383 );
#322 = LINE( '', #384, #385 );
#323 = FILL_AREA_STYLE_COLOUR( '', #386 );
#324 = VERTEX_POINT( '', #387 );
#325 = CIRCLE( '', #388, 8.47242595070000 );
#326 = FILL_AREA_STYLE_COLOUR( '', #389 );
#327 = VERTEX_POINT( '', #390 );
#328 = LINE( '', #391, #392 );
#329 = VERTEX_POINT( '', #393 );
#330 = LINE( '', #394, #395 );
#331 = LINE( '', #396, #397 );
#332 = FILL_AREA_STYLE_COLOUR( '', #398 );
#333 = LINE( '', #399, #400 );
#334 = LINE( '', #401, #402 );
#335 = FILL_AREA_STYLE_COLOUR( '', #403 );
#336 = VERTEX_POINT( '', #404 );
#337 = CIRCLE( '', #405, 7.98813133020000 );
#338 = FILL_AREA_STYLE_COLOUR( '', #406 );
#339 = FILL_AREA_STYLE_COLOUR( '', #407 );
#340 = COLOUR_RGB( '', 0.689999997600000, 0.689999997600000, 0.689999997600000 );
#341 = CARTESIAN_POINT( '', ( 10.0000000000000, 0.000000000000000, -7.67386866978324 ) );
#342 = AXIS2_PLACEMENT_3D( '', #408, #409, #410 );
#343 = COLOUR_RGB( '', 0.689999997600000, 0.689999997600000, 0.689999997600000 );
#344 = CARTESIAN_POINT( '', ( 9.50024671981713, 0.000000000000000, -8.18957404932231 ) );
#345 = AXIS2_PLACEMENT_3D( '', #411, #412, #413 );
#346 = COLOUR_RGB( '', 0.689999997600000, 0.689999997600000, 0.689999997600000 );
#347 = CARTESIAN_POINT( '', ( 0.000000000000000, -2.30940107675850, -4.00000000000000 ) );
#348 = CARTESIAN_POINT( '', ( 0.000000000000000, 2.30940107675850, -4.00000000000000 ) );
#349 = CARTESIAN_POINT( '', ( 0.000000000000000, -2.30940107675850, -4.00000000000000 ) );
#350 = VECTOR( '', #414, 1000.00000000000 );
#351 = CARTESIAN_POINT( '', ( 5.00000000000000, -2.30940107675850, -4.00000000000000 ) );
#352 = CARTESIAN_POINT( '', ( 5.00000000000000, -2.30940107675850, -4.00000000000000 ) );
#353 = VECTOR( '', #415, 1000.00000000000 );
#354 = CARTESIAN_POINT( '', ( 5.00000000000000, 2.30940107675850, -4.00000000000000 ) );
#355 = CARTESIAN_POINT( '', ( 5.00000000000000, -2.30940107675850, -4.00000000000000 ) );
#356 = VECTOR( '', #416, 1000.00000000000 );
#357 = CARTESIAN_POINT( '', ( 5.00000000000000, 2.30940107675850, -4.00000000000000 ) );
#358 = VECTOR( '', #417, 1000.00000000000 );
#359 = COLOUR_RGB( '', 0.689999997600000, 0.689999997600000, 0.689999997600000 );
#360 = CARTESIAN_POINT( '', ( 0.000000000000000, 2.30940107675850, 4.00000000000000 ) );
#361 = CARTESIAN_POINT( '', ( 0.000000000000000, -2.30940107675850, 4.00000000000000 ) );
#362 = CARTESIAN_POINT( '', ( 0.000000000000000, 2.30940107675850, 4.00000000000000 ) );
#363 = VECTOR( '', #418, 1000.00000000000 );
#364 = CARTESIAN_POINT( '', ( 5.00000000000000, 2.30940107675850, 4.00000000000000 ) );
#365 = CARTESIAN_POINT( '', ( 5.00000000000000, 2.30940107675850, 4.00000000000000 ) );
#366 = VECTOR( '', #419, 1000.00000000000 );
#367 = CARTESIAN_POINT( '', ( 5.00000000000000, -2.30940107675850, 4.00000000000000 ) );
#368 = CARTESIAN_POINT( '', ( 5.00000000000000, 2.30940107675850, 4.00000000000000 ) );
#369 = VECTOR( '', #420, 1000.00000000000 );
#370 = CARTESIAN_POINT( '', ( 5.00000000000000, -2.30940107675850, 4.00000000000000 ) );
#371 = VECTOR( '', #421, 1000.00000000000 );
#372 = COLOUR_RGB( '', 0.689999997600000, 0.689999997600000, 0.689999997600000 );
#373 = CARTESIAN_POINT( '', ( 0.000000000000000, 4.61880215351701, 0.000000000000000 ) );
#374 = CARTESIAN_POINT( '', ( 0.000000000000000, 4.61880215351701, 0.000000000000000 ) );
#375 = VECTOR( '', #422, 1000.00000000000 );
#376 = CARTESIAN_POINT( '', ( 5.00000000000000, 4.61880215351701, 0.000000000000000 ) );
#377 = CARTESIAN_POINT( '', ( 5.00000000000000, 4.61880215351701, 0.000000000000000 ) );
#378 = VECTOR( '', #423, 1000.00000000000 );
#379 = CARTESIAN_POINT( '', ( 5.00000000000000, 4.61880215351701, 0.000000000000000 ) );
#380 = VECTOR( '', #424, 1000.00000000000 );
#381 = COLOUR_RGB( '', 0.689999997600000, 0.689999997600000, 0.689999997600000 );
#382 = CARTESIAN_POINT( '', ( 0.000000000000000, 2.30940107675850, -4.00000000000000 ) );
#383 = VECTOR( '', #425, 1000.00000000000 );
#384 = CARTESIAN_POINT( '', ( 5.00000000000000, 2.30940107675850, -4.00000000000000 ) );
#385 = VECTOR( '', #426, 1000.00000000000 );
#386 = COLOUR_RGB( '', 0.689999997600000, 0.689999997600000, 0.689999997600000 );
#387 = CARTESIAN_POINT( '', ( 0.499753280182865, 0.000000000000000, -8.47242595067769 ) );
#388 = AXIS2_PLACEMENT_3D( '', #427, #428, #429 );
#389 = COLOUR_RGB( '', 0.689999997600000, 0.689999997600000, 0.689999997600000 );
#390 = CARTESIAN_POINT( '', ( 0.000000000000000, -4.61880215351701, 0.000000000000000 ) );
#391 = CARTESIAN_POINT( '', ( 0.000000000000000, -2.30940107675850, 4.00000000000000 ) );
#392 = VECTOR( '', #430, 1000.00000000000 );
#393 = CARTESIAN_POINT( '', ( 5.00000000000000, -4.61880215351701, 0.000000000000000 ) );
#394 = CARTESIAN_POINT( '', ( 5.00000000000000, -2.30940107675850, 4.00000000000000 ) );
#395 = VECTOR( '', #431, 1000.00000000000 );
#396 = CARTESIAN_POINT( '', ( 5.00000000000000, -4.61880215351701, 0.000000000000000 ) );
#397 = VECTOR( '', #432, 1000.00000000000 );
#398 = COLOUR_RGB( '', 0.689999997600000, 0.689999997600000, 0.689999997600000 );
#399 = CARTESIAN_POINT( '', ( 0.000000000000000, -4.61880215351701, 0.000000000000000 ) );
#400 = VECTOR( '', #433, 1000.00000000000 );
#401 = CARTESIAN_POINT( '', ( 5.00000000000000, -4.61880215351701, 0.000000000000000 ) );
#402 = VECTOR( '', #434, 1000.00000000000 );
#403 = COLOUR_RGB( '', 0.689999997600000, 0.689999997600000, 0.689999997600000 );
#404 = CARTESIAN_POINT( '', ( 0.000000000000000, 0.000000000000000, -7.98813133021676 ) );
#405 = AXIS2_PLACEMENT_3D( '', #435, #436, #437 );
#406 = COLOUR_RGB( '', 0.689999997600000, 0.689999997600000, 0.689999997600000 );
#407 = COLOUR_RGB( '', 0.689999997600000, 0.689999997600000, 0.689999997600000 );
#408 = CARTESIAN_POINT( '', ( 10.0000000000000, 0.000000000000000, 0.000000000000000 ) );
#409 = DIRECTION( '', ( 1.00000000000000, 0.000000000000000, -0.000000000000000 ) );
#410 = DIRECTION( '', ( -0.000000000000000, 0.000000000000000, -1.00000000000000 ) );
#411 = CARTESIAN_POINT( '', ( 9.50024671981713, 0.000000000000000, 0.000000000000000 ) );
#412 = DIRECTION( '', ( 1.00000000000000, 0.000000000000000, -0.000000000000000 ) );
#413 = DIRECTION( '', ( -0.000000000000000, 0.000000000000000, -1.00000000000000 ) );
#414 = DIRECTION( '', ( 0.000000000000000, 1.00000000000000, 0.000000000000000 ) );
#415 = DIRECTION( '', ( -1.00000000000000, -0.000000000000000, -0.000000000000000 ) );
#416 = DIRECTION( '', ( 0.000000000000000, 1.00000000000000, 0.000000000000000 ) );
#417 = DIRECTION( '', ( -1.00000000000000, -0.000000000000000, -0.000000000000000 ) );
#418 = DIRECTION( '', ( 0.000000000000000, -1.00000000000000, 0.000000000000000 ) );
#419 = DIRECTION( '', ( -1.00000000000000, -0.000000000000000, -0.000000000000000 ) );
#420 = DIRECTION( '', ( 0.000000000000000, -1.00000000000000, 0.000000000000000 ) );
#421 = DIRECTION( '', ( -1.00000000000000, -0.000000000000000, -0.000000000000000 ) );
#422 = DIRECTION( '', ( 0.000000000000000, -0.500000000000000, 0.866025403784439 ) );
#423 = DIRECTION( '', ( -1.00000000000000, -0.000000000000000, -0.000000000000000 ) );
#424 = DIRECTION( '', ( 0.000000000000000, -0.500000000000000, 0.866025403784439 ) );
#425 = DIRECTION( '', ( 0.000000000000000, 0.500000000000000, 0.866025403784439 ) );
#426 = DIRECTION( '', ( 0.000000000000000, 0.500000000000000, 0.866025403784439 ) );
#427 = CARTESIAN_POINT( '', ( 0.499753280182865, 0.000000000000000, 0.000000000000000 ) );
#428 = DIRECTION( '', ( 1.00000000000000, 0.000000000000000, -0.000000000000000 ) );
#429 = DIRECTION( '', ( -0.000000000000000, 0.000000000000000, -1.00000000000000 ) );
#430 = DIRECTION( '', ( 0.000000000000000, -0.500000000000000, -0.866025403784439 ) );
#431 = DIRECTION( '', ( 0.000000000000000, -0.500000000000000, -0.866025403784439 ) );
#432 = DIRECTION( '', ( -1.00000000000000, -0.000000000000000, -0.000000000000000 ) );
#433 = DIRECTION( '', ( 0.000000000000000, 0.500000000000000, -0.866025403784439 ) );
#434 = DIRECTION( '', ( 0.000000000000000, 0.500000000000000, -0.866025403784439 ) );
#435 = CARTESIAN_POINT( '', ( 0.000000000000000, 0.000000000000000, 0.000000000000000 ) );
#436 = DIRECTION( '', ( 1.00000000000000, 0.000000000000000, -0.000000000000000 ) );
#437 = DIRECTION( '', ( -0.000000000000000, 0.000000000000000, -1.00000000000000 ) );
ENDSEC;
END-ISO-10303-21;
