ISO-10303-21;
HEADER;
FILE_DESCRIPTION( ( 'STEP AP214' ), '1' );
FILE_NAME( '//goodhand-server/Shared Folders/GoodHand Data/Kipp CAD/K0676/K0676.2006X040.stp', '2020-12-09T11:09:28', ( '' ), ( '' ), ' ', 'PARTsolutions', ' ' );
FILE_SCHEMA( ( 'AUTOMOTIVE_DESIGN { 1 0 10303 214 1 1 1 1 }' ) );
ENDSEC;
DATA;
#1 = MECHANICAL_DESIGN_GEOMETRIC_PRESENTATION_REPRESENTATION( ' ', ( #10, #11, #12, #13, #14, #15, #16, #17, #18, #19, #20 ), #6 );
#2 = PRODUCT_DEFINITION_CONTEXT( '', #21, 'design' );
#3 = APPLICATION_PROTOCOL_DEFINITION( 'international standard', 'automotive_design', 2001, #21 );
#4 = PRODUCT_CATEGORY_RELATIONSHIP( 'NONE', 'NONE', #22, #23 );
#5 = SHAPE_DEFINITION_REPRESENTATION( #24, #25 );
#6 =  ( GEOMETRIC_REPRESENTATION_CONTEXT( 3 )GLOBAL_UNCERTAINTY_ASSIGNED_CONTEXT( ( #28 ) )GLOBAL_UNIT_ASSIGNED_CONTEXT( ( #30, #31, #32 ) )REPRESENTATION_CONTEXT( 'NONE', 'WORKSPACE' ) );
#10 = STYLED_ITEM( '', ( #34 ), #35 );
#11 = STYLED_ITEM( '', ( #36 ), #37 );
#12 = STYLED_ITEM( '', ( #38 ), #39 );
#13 = STYLED_ITEM( '', ( #40 ), #41 );
#14 = STYLED_ITEM( '', ( #42 ), #43 );
#15 = STYLED_ITEM( '', ( #44 ), #45 );
#16 = STYLED_ITEM( '', ( #46 ), #47 );
#17 = STYLED_ITEM( '', ( #48 ), #49 );
#18 = STYLED_ITEM( '', ( #50 ), #51 );
#19 = STYLED_ITEM( '', ( #52 ), #53 );
#20 = STYLED_ITEM( '', ( #54 ), #55 );
#21 = APPLICATION_CONTEXT( 'core data for automotive mechanical design processes' );
#22 = PRODUCT_CATEGORY( 'part', 'NONE' );
#23 = PRODUCT_RELATED_PRODUCT_CATEGORY( 'detail', ' ', ( #56 ) );
#24 = PRODUCT_DEFINITION_SHAPE( 'NONE', 'NONE', #57 );
#25 = ADVANCED_BREP_SHAPE_REPRESENTATION( '_K0676.2006X040', ( #58, #59 ), #6 );
#28 = UNCERTAINTY_MEASURE_WITH_UNIT( LENGTH_MEASURE( 0.00100000000000000 ), #30, '', '' );
#30 =  ( CONVERSION_BASED_UNIT( 'MILLIMETRE', #62 )LENGTH_UNIT(  )NAMED_UNIT( #65 ) );
#31 =  ( NAMED_UNIT( #67 )PLANE_ANGLE_UNIT(  )SI_UNIT( $, .RADIAN. ) );
#32 =  ( NAMED_UNIT( #67 )SI_UNIT( $, .STERADIAN. )SOLID_ANGLE_UNIT(  ) );
#34 = PRESENTATION_STYLE_ASSIGNMENT( ( #73 ) );
#35 = ADVANCED_FACE( '', ( #74 ), #75, .F. );
#36 = PRESENTATION_STYLE_ASSIGNMENT( ( #76 ) );
#37 = ADVANCED_FACE( '', ( #77 ), #78, .T. );
#38 = PRESENTATION_STYLE_ASSIGNMENT( ( #79 ) );
#39 = ADVANCED_FACE( '', ( #80 ), #81, .T. );
#40 = PRESENTATION_STYLE_ASSIGNMENT( ( #82 ) );
#41 = ADVANCED_FACE( '', ( #83 ), #84, .T. );
#42 = PRESENTATION_STYLE_ASSIGNMENT( ( #85 ) );
#43 = ADVANCED_FACE( '', ( #86 ), #87, .F. );
#44 = PRESENTATION_STYLE_ASSIGNMENT( ( #88 ) );
#45 = ADVANCED_FACE( '', ( #89 ), #90, .T. );
#46 = PRESENTATION_STYLE_ASSIGNMENT( ( #91 ) );
#47 = ADVANCED_FACE( '', ( #92 ), #93, .T. );
#48 = PRESENTATION_STYLE_ASSIGNMENT( ( #94 ) );
#49 = ADVANCED_FACE( '', ( #95, #96 ), #97, .T. );
#50 = PRESENTATION_STYLE_ASSIGNMENT( ( #98 ) );
#51 = ADVANCED_FACE( '', ( #99 ), #100, .T. );
#52 = PRESENTATION_STYLE_ASSIGNMENT( ( #101 ) );
#53 = ADVANCED_FACE( '', ( #102, #103 ), #104, .T. );
#54 = PRESENTATION_STYLE_ASSIGNMENT( ( #105 ) );
#55 = ADVANCED_FACE( '', ( #106, #107 ), #108, .T. );
#56 = PRODUCT( '_K0676.2006X040', '_K0676.2006X040', 'PART-_K0676.2006X040-DESC', ( #109 ) );
#57 = PRODUCT_DEFINITION( 'NONE', 'NONE', #110, #2 );
#58 = MANIFOLD_SOLID_BREP( '_K0676.2006X040', #111 );
#59 = AXIS2_PLACEMENT_3D( '', #112, #113, #114 );
#62 = LENGTH_MEASURE_WITH_UNIT( LENGTH_MEASURE( 1.00000000000000 ), #115 );
#65 = DIMENSIONAL_EXPONENTS( 1.00000000000000, 0.000000000000000, 0.000000000000000, 0.000000000000000, 0.000000000000000, 0.000000000000000, 0.000000000000000 );
#67 = DIMENSIONAL_EXPONENTS( 0.000000000000000, 0.000000000000000, 0.000000000000000, 0.000000000000000, 0.000000000000000, 0.000000000000000, 0.000000000000000 );
#73 = SURFACE_STYLE_USAGE( .BOTH., #116 );
#74 = FACE_OUTER_BOUND( '', #117, .T. );
#75 = PLANE( '', #118 );
#76 = SURFACE_STYLE_USAGE( .BOTH., #119 );
#77 = FACE_OUTER_BOUND( '', #120, .T. );
#78 = PLANE( '', #121 );
#79 = SURFACE_STYLE_USAGE( .BOTH., #122 );
#80 = FACE_OUTER_BOUND( '', #123, .T. );
#81 = PLANE( '', #124 );
#82 = SURFACE_STYLE_USAGE( .BOTH., #125 );
#83 = FACE_OUTER_BOUND( '', #126, .T. );
#84 = PLANE( '', #127 );
#85 = SURFACE_STYLE_USAGE( .BOTH., #128 );
#86 = FACE_OUTER_BOUND( '', #129, .T. );
#87 = PLANE( '', #130 );
#88 = SURFACE_STYLE_USAGE( .BOTH., #131 );
#89 = FACE_OUTER_BOUND( '', #132, .T. );
#90 = PLANE( '', #133 );
#91 = SURFACE_STYLE_USAGE( .BOTH., #134 );
#92 = FACE_OUTER_BOUND( '', #135, .T. );
#93 = PLANE( '', #136 );
#94 = SURFACE_STYLE_USAGE( .BOTH., #137 );
#95 = FACE_OUTER_BOUND( '', #138, .T. );
#96 = FACE_BOUND( '', #139, .T. );
#97 = CONICAL_SURFACE( '', #140, 2.38650000000000, 0.785398163400000 );
#98 = SURFACE_STYLE_USAGE( .BOTH., #141 );
#99 = FACE_OUTER_BOUND( '', #142, .T. );
#100 = PLANE( '', #143 );
#101 = SURFACE_STYLE_USAGE( .BOTH., #144 );
#102 = FACE_OUTER_BOUND( '', #145, .T. );
#103 = FACE_OUTER_BOUND( '', #146, .T. );
#104 = CYLINDRICAL_SURFACE( '', #147, 3.00000000000000 );
#105 = SURFACE_STYLE_USAGE( .BOTH., #148 );
#106 = FACE_BOUND( '', #149, .T. );
#107 = FACE_OUTER_BOUND( '', #150, .T. );
#108 = PLANE( '', #151 );
#109 = PRODUCT_CONTEXT( '', #21, 'mechanical' );
#110 = PRODUCT_DEFINITION_FORMATION_WITH_SPECIFIED_SOURCE( ' ', 'NONE', #56, .NOT_KNOWN. );
#111 = CLOSED_SHELL( '', ( #41, #43, #37, #51, #47, #39, #45, #55, #35, #49, #53 ) );
#112 = CARTESIAN_POINT( '', ( 0.000000000000000, 0.000000000000000, 0.000000000000000 ) );
#113 = DIRECTION( '', ( 0.000000000000000, 0.000000000000000, 1.00000000000000 ) );
#114 = DIRECTION( '', ( 1.00000000000000, 0.000000000000000, 0.000000000000000 ) );
#115 =  ( LENGTH_UNIT(  )NAMED_UNIT( #65 )SI_UNIT( .MILLI., .METRE. ) );
#116 = SURFACE_SIDE_STYLE( '', ( #153 ) );
#117 = EDGE_LOOP( '', ( #154 ) );
#118 = AXIS2_PLACEMENT_3D( '', #155, #156, #157 );
#119 = SURFACE_SIDE_STYLE( '', ( #158 ) );
#120 = EDGE_LOOP( '', ( #159, #160, #161, #162 ) );
#121 = AXIS2_PLACEMENT_3D( '', #163, #164, #165 );
#122 = SURFACE_SIDE_STYLE( '', ( #166 ) );
#123 = EDGE_LOOP( '', ( #167, #168, #169, #170 ) );
#124 = AXIS2_PLACEMENT_3D( '', #171, #172, #173 );
#125 = SURFACE_SIDE_STYLE( '', ( #174 ) );
#126 = EDGE_LOOP( '', ( #175, #176, #177, #178 ) );
#127 = AXIS2_PLACEMENT_3D( '', #179, #180, #181 );
#128 = SURFACE_SIDE_STYLE( '', ( #182 ) );
#129 = EDGE_LOOP( '', ( #183, #184, #185, #186, #187, #188 ) );
#130 = AXIS2_PLACEMENT_3D( '', #189, #190, #191 );
#131 = SURFACE_SIDE_STYLE( '', ( #192 ) );
#132 = EDGE_LOOP( '', ( #193, #194, #195, #196 ) );
#133 = AXIS2_PLACEMENT_3D( '', #197, #198, #199 );
#134 = SURFACE_SIDE_STYLE( '', ( #200 ) );
#135 = EDGE_LOOP( '', ( #201, #202, #203, #204 ) );
#136 = AXIS2_PLACEMENT_3D( '', #205, #206, #207 );
#137 = SURFACE_SIDE_STYLE( '', ( #208 ) );
#138 = EDGE_LOOP( '', ( #209 ) );
#139 = EDGE_LOOP( '', ( #210 ) );
#140 = AXIS2_PLACEMENT_3D( '', #211, #212, #213 );
#141 = SURFACE_SIDE_STYLE( '', ( #214 ) );
#142 = EDGE_LOOP( '', ( #215, #216, #217, #218 ) );
#143 = AXIS2_PLACEMENT_3D( '', #219, #220, #221 );
#144 = SURFACE_SIDE_STYLE( '', ( #222 ) );
#145 = EDGE_LOOP( '', ( #223 ) );
#146 = EDGE_LOOP( '', ( #224 ) );
#147 = AXIS2_PLACEMENT_3D( '', #225, #226, #227 );
#148 = SURFACE_SIDE_STYLE( '', ( #228 ) );
#149 = EDGE_LOOP( '', ( #229 ) );
#150 = EDGE_LOOP( '', ( #230, #231, #232, #233, #234, #235 ) );
#151 = AXIS2_PLACEMENT_3D( '', #236, #237, #238 );
#153 = SURFACE_STYLE_FILL_AREA( #239 );
#154 = ORIENTED_EDGE( '', *, *, #240, .F. );
#155 = CARTESIAN_POINT( '', ( 0.000000000000000, 47.0000000000000, 0.000000000000000 ) );
#156 = DIRECTION( '', ( 0.000000000000000, -1.00000000000000, -0.000000000000000 ) );
#157 = DIRECTION( '', ( 0.000000000000000, 0.000000000000000, -1.00000000000000 ) );
#158 = SURFACE_STYLE_FILL_AREA( #241 );
#159 = ORIENTED_EDGE( '', *, *, #242, .F. );
#160 = ORIENTED_EDGE( '', *, *, #243, .F. );
#161 = ORIENTED_EDGE( '', *, *, #244, .T. );
#162 = ORIENTED_EDGE( '', *, *, #245, .T. );
#163 = CARTESIAN_POINT( '', ( 10.0000000000000, 7.00000000000000, -5.77350269189626 ) );
#164 = DIRECTION( '', ( 0.499524110790929, -0.0436193873653360, -0.865201139495554 ) );
#165 = DIRECTION( '', ( -0.866025403784439, 0.000000000000000, -0.500000000000000 ) );
#166 = SURFACE_STYLE_FILL_AREA( #246 );
#167 = ORIENTED_EDGE( '', *, *, #247, .F. );
#168 = ORIENTED_EDGE( '', *, *, #248, .F. );
#169 = ORIENTED_EDGE( '', *, *, #249, .T. );
#170 = ORIENTED_EDGE( '', *, *, #250, .T. );
#171 = CARTESIAN_POINT( '', ( 0.000000000000000, 7.00000000000000, 11.5470053837925 ) );
#172 = DIRECTION( '', ( 0.499524110790929, -0.0436193873653360, 0.865201139495554 ) );
#173 = DIRECTION( '', ( 0.866025403784439, 0.000000000000000, -0.500000000000000 ) );
#174 = SURFACE_STYLE_FILL_AREA( #251 );
#175 = ORIENTED_EDGE( '', *, *, #252, .F. );
#176 = ORIENTED_EDGE( '', *, *, #245, .F. );
#177 = ORIENTED_EDGE( '', *, *, #253, .T. );
#178 = ORIENTED_EDGE( '', *, *, #254, .T. );
#179 = CARTESIAN_POINT( '', ( 0.000000000000000, 7.00000000000000, -11.5470053837925 ) );
#180 = DIRECTION( '', ( -0.499524110790929, -0.0436193873653360, -0.865201139495554 ) );
#181 = DIRECTION( '', ( -0.866025403784439, 0.000000000000000, 0.500000000000000 ) );
#182 = SURFACE_STYLE_FILL_AREA( #255 );
#183 = ORIENTED_EDGE( '', *, *, #256, .F. );
#184 = ORIENTED_EDGE( '', *, *, #253, .F. );
#185 = ORIENTED_EDGE( '', *, *, #244, .F. );
#186 = ORIENTED_EDGE( '', *, *, #257, .F. );
#187 = ORIENTED_EDGE( '', *, *, #249, .F. );
#188 = ORIENTED_EDGE( '', *, *, #258, .F. );
#189 = CARTESIAN_POINT( '', ( 0.000000000000000, 0.000000000000000, 0.000000000000000 ) );
#190 = DIRECTION( '', ( 0.000000000000000, 1.00000000000000, 0.000000000000000 ) );
#191 = DIRECTION( '', ( 0.000000000000000, -0.000000000000000, 1.00000000000000 ) );
#192 = SURFACE_STYLE_FILL_AREA( #259 );
#193 = ORIENTED_EDGE( '', *, *, #260, .F. );
#194 = ORIENTED_EDGE( '', *, *, #250, .F. );
#195 = ORIENTED_EDGE( '', *, *, #257, .T. );
#196 = ORIENTED_EDGE( '', *, *, #243, .T. );
#197 = CARTESIAN_POINT( '', ( 10.0000000000000, 7.00000000000000, 5.77350269189626 ) );
#198 = DIRECTION( '', ( 0.999048221581858, -0.0436193873653360, 0.000000000000000 ) );
#199 = DIRECTION( '', ( 0.0436193873653360, 0.999048221581858, 0.000000000000000 ) );
#200 = SURFACE_STYLE_FILL_AREA( #261 );
#201 = ORIENTED_EDGE( '', *, *, #262, .F. );
#202 = ORIENTED_EDGE( '', *, *, #263, .F. );
#203 = ORIENTED_EDGE( '', *, *, #258, .T. );
#204 = ORIENTED_EDGE( '', *, *, #248, .T. );
#205 = CARTESIAN_POINT( '', ( -10.0000000000000, 7.00000000000000, 5.77350269189626 ) );
#206 = DIRECTION( '', ( -0.499524110790929, -0.0436193873653360, 0.865201139495554 ) );
#207 = DIRECTION( '', ( 0.866025403784439, 0.000000000000000, 0.500000000000000 ) );
#208 = SURFACE_STYLE_FILL_AREA( #264 );
#209 = ORIENTED_EDGE( '', *, *, #265, .F. );
#210 = ORIENTED_EDGE( '', *, *, #240, .T. );
#211 = CARTESIAN_POINT( '', ( 0.000000000000000, 47.0000000000000, 0.000000000000000 ) );
#212 = DIRECTION( '', ( -0.000000000000000, -1.00000000000000, -0.000000000000000 ) );
#213 = DIRECTION( '', ( 0.000000000000000, 0.000000000000000, -1.00000000000000 ) );
#214 = SURFACE_STYLE_FILL_AREA( #266 );
#215 = ORIENTED_EDGE( '', *, *, #267, .F. );
#216 = ORIENTED_EDGE( '', *, *, #254, .F. );
#217 = ORIENTED_EDGE( '', *, *, #256, .T. );
#218 = ORIENTED_EDGE( '', *, *, #263, .T. );
#219 = CARTESIAN_POINT( '', ( -10.0000000000000, 7.00000000000000, -5.77350269189626 ) );
#220 = DIRECTION( '', ( -0.999048221581858, -0.0436193873653360, 0.000000000000000 ) );
#221 = DIRECTION( '', ( 0.0436193873653360, -0.999048221581858, 0.000000000000000 ) );
#222 = SURFACE_STYLE_FILL_AREA( #268 );
#223 = ORIENTED_EDGE( '', *, *, #269, .F. );
#224 = ORIENTED_EDGE( '', *, *, #265, .T. );
#225 = CARTESIAN_POINT( '', ( 0.000000000000000, 7.00000000000000, 0.000000000000000 ) );
#226 = DIRECTION( '', ( -0.000000000000000, 1.00000000000000, 0.000000000000000 ) );
#227 = DIRECTION( '', ( 0.000000000000000, 0.000000000000000, -1.00000000000000 ) );
#228 = SURFACE_STYLE_FILL_AREA( #270 );
#229 = ORIENTED_EDGE( '', *, *, #269, .T. );
#230 = ORIENTED_EDGE( '', *, *, #267, .T. );
#231 = ORIENTED_EDGE( '', *, *, #262, .T. );
#232 = ORIENTED_EDGE( '', *, *, #247, .T. );
#233 = ORIENTED_EDGE( '', *, *, #260, .T. );
#234 = ORIENTED_EDGE( '', *, *, #242, .T. );
#235 = ORIENTED_EDGE( '', *, *, #252, .T. );
#236 = CARTESIAN_POINT( '', ( 0.000000000000000, 7.00000000000000, 0.000000000000000 ) );
#237 = DIRECTION( '', ( 0.000000000000000, 1.00000000000000, 0.000000000000000 ) );
#238 = DIRECTION( '', ( 0.000000000000000, -0.000000000000000, 1.00000000000000 ) );
#239 = FILL_AREA_STYLE( '', ( #271 ) );
#240 = EDGE_CURVE( '', #272, #272, #273, .T. );
#241 = FILL_AREA_STYLE( '', ( #274 ) );
#242 = EDGE_CURVE( '', #275, #276, #277, .T. );
#243 = EDGE_CURVE( '', #278, #275, #279, .T. );
#244 = EDGE_CURVE( '', #278, #280, #281, .T. );
#245 = EDGE_CURVE( '', #280, #276, #282, .T. );
#246 = FILL_AREA_STYLE( '', ( #283 ) );
#247 = EDGE_CURVE( '', #284, #285, #286, .T. );
#248 = EDGE_CURVE( '', #287, #284, #288, .T. );
#249 = EDGE_CURVE( '', #287, #289, #290, .T. );
#250 = EDGE_CURVE( '', #289, #285, #291, .T. );
#251 = FILL_AREA_STYLE( '', ( #292 ) );
#252 = EDGE_CURVE( '', #276, #293, #294, .T. );
#253 = EDGE_CURVE( '', #280, #295, #296, .T. );
#254 = EDGE_CURVE( '', #295, #293, #297, .T. );
#255 = FILL_AREA_STYLE( '', ( #298 ) );
#256 = EDGE_CURVE( '', #295, #299, #300, .T. );
#257 = EDGE_CURVE( '', #289, #278, #301, .T. );
#258 = EDGE_CURVE( '', #299, #287, #302, .T. );
#259 = FILL_AREA_STYLE( '', ( #303 ) );
#260 = EDGE_CURVE( '', #285, #275, #304, .T. );
#261 = FILL_AREA_STYLE( '', ( #305 ) );
#262 = EDGE_CURVE( '', #306, #284, #307, .T. );
#263 = EDGE_CURVE( '', #299, #306, #308, .T. );
#264 = FILL_AREA_STYLE( '', ( #309 ) );
#265 = EDGE_CURVE( '', #310, #310, #311, .T. );
#266 = FILL_AREA_STYLE( '', ( #312 ) );
#267 = EDGE_CURVE( '', #293, #306, #313, .T. );
#268 = FILL_AREA_STYLE( '', ( #314 ) );
#269 = EDGE_CURVE( '', #315, #315, #316, .T. );
#270 = FILL_AREA_STYLE( '', ( #317 ) );
#271 = FILL_AREA_STYLE_COLOUR( '', #318 );
#272 = VERTEX_POINT( '', #319 );
#273 = CIRCLE( '', #320, 2.38650000000000 );
#274 = FILL_AREA_STYLE_COLOUR( '', #321 );
#275 = VERTEX_POINT( '', #322 );
#276 = VERTEX_POINT( '', #323 );
#277 = LINE( '', #324, #325 );
#278 = VERTEX_POINT( '', #326 );
#279 = LINE( '', #327, #328 );
#280 = VERTEX_POINT( '', #329 );
#281 = LINE( '', #330, #331 );
#282 = LINE( '', #332, #333 );
#283 = FILL_AREA_STYLE_COLOUR( '', #334 );
#284 = VERTEX_POINT( '', #335 );
#285 = VERTEX_POINT( '', #336 );
#286 = LINE( '', #337, #338 );
#287 = VERTEX_POINT( '', #339 );
#288 = LINE( '', #340, #341 );
#289 = VERTEX_POINT( '', #342 );
#290 = LINE( '', #343, #344 );
#291 = LINE( '', #345, #346 );
#292 = FILL_AREA_STYLE_COLOUR( '', #347 );
#293 = VERTEX_POINT( '', #348 );
#294 = LINE( '', #349, #350 );
#295 = VERTEX_POINT( '', #351 );
#296 = LINE( '', #352, #353 );
#297 = LINE( '', #354, #355 );
#298 = FILL_AREA_STYLE_COLOUR( '', #356 );
#299 = VERTEX_POINT( '', #357 );
#300 = LINE( '', #358, #359 );
#301 = LINE( '', #360, #361 );
#302 = LINE( '', #362, #363 );
#303 = FILL_AREA_STYLE_COLOUR( '', #364 );
#304 = LINE( '', #365, #366 );
#305 = FILL_AREA_STYLE_COLOUR( '', #367 );
#306 = VERTEX_POINT( '', #368 );
#307 = LINE( '', #369, #370 );
#308 = LINE( '', #371, #372 );
#309 = FILL_AREA_STYLE_COLOUR( '', #373 );
#310 = VERTEX_POINT( '', #374 );
#311 = CIRCLE( '', #375, 3.00000000000000 );
#312 = FILL_AREA_STYLE_COLOUR( '', #376 );
#313 = LINE( '', #377, #378 );
#314 = FILL_AREA_STYLE_COLOUR( '', #379 );
#315 = VERTEX_POINT( '', #380 );
#316 = CIRCLE( '', #381, 3.00000000000000 );
#317 = FILL_AREA_STYLE_COLOUR( '', #382 );
#318 = COLOUR_RGB( '', 0.689999997600000, 0.689999997600000, 0.689999997600000 );
#319 = CARTESIAN_POINT( '', ( 0.000000000000000, 47.0000000000000, -2.38650000000000 ) );
#320 = AXIS2_PLACEMENT_3D( '', #383, #384, #385 );
#321 = COLOUR_RGB( '', 0.689999997600000, 0.689999997600000, 0.689999997600000 );
#322 = CARTESIAN_POINT( '', ( 10.0000000000000, 7.00000000000000, -5.77350269189626 ) );
#323 = CARTESIAN_POINT( '', ( 0.000000000000000, 7.00000000000000, -11.5470053837925 ) );
#324 = CARTESIAN_POINT( '', ( 10.0000000000000, 7.00000000000000, -5.77350269189626 ) );
#325 = VECTOR( '', #386, 1000.00000000000 );
#326 = CARTESIAN_POINT( '', ( 9.69437339964042, 0.000000000000000, -5.59704909190714 ) );
#327 = CARTESIAN_POINT( '', ( 9.98732369983069, 6.70966499290056, -5.76618402658118 ) );
#328 = VECTOR( '', #387, 1000.00000000000 );
#329 = CARTESIAN_POINT( '', ( 4.39010374806836E-16, 0.000000000000000, -11.1940981838143 ) );
#330 = CARTESIAN_POINT( '', ( 4.84718669982021, 0.000000000000000, -8.39557363786071 ) );
#331 = VECTOR( '', #388, 1000.00000000000 );
#332 = CARTESIAN_POINT( '', ( 0.000000000000000, 6.70966499290056, -11.5323680531624 ) );
#333 = VECTOR( '', #389, 1000.00000000000 );
#334 = COLOUR_RGB( '', 0.689999997600000, 0.689999997600000, 0.689999997600000 );
#335 = CARTESIAN_POINT( '', ( 0.000000000000000, 7.00000000000000, 11.5470053837925 ) );
#336 = CARTESIAN_POINT( '', ( 10.0000000000000, 7.00000000000000, 5.77350269189626 ) );
#337 = CARTESIAN_POINT( '', ( 0.000000000000000, 7.00000000000000, 11.5470053837925 ) );
#338 = VECTOR( '', #390, 1000.00000000000 );
#339 = CARTESIAN_POINT( '', ( -4.39010374806836E-16, 0.000000000000000, 11.1940981838143 ) );
#340 = CARTESIAN_POINT( '', ( 0.000000000000000, 6.70966499290056, 11.5323680531624 ) );
#341 = VECTOR( '', #391, 1000.00000000000 );
#342 = CARTESIAN_POINT( '', ( 9.69437339964042, 0.000000000000000, 5.59704909190714 ) );
#343 = CARTESIAN_POINT( '', ( 4.84718669982021, 0.000000000000000, 8.39557363786071 ) );
#344 = VECTOR( '', #392, 1000.00000000000 );
#345 = CARTESIAN_POINT( '', ( 9.98732369983069, 6.70966499290056, 5.76618402658118 ) );
#346 = VECTOR( '', #393, 1000.00000000000 );
#347 = COLOUR_RGB( '', 0.689999997600000, 0.689999997600000, 0.689999997600000 );
#348 = CARTESIAN_POINT( '', ( -10.0000000000000, 7.00000000000000, -5.77350269189626 ) );
#349 = CARTESIAN_POINT( '', ( 0.000000000000000, 7.00000000000000, -11.5470053837925 ) );
#350 = VECTOR( '', #394, 1000.00000000000 );
#351 = CARTESIAN_POINT( '', ( -9.69437339964042, 0.000000000000000, -5.59704909190714 ) );
#352 = CARTESIAN_POINT( '', ( -4.84718669982021, 0.000000000000000, -8.39557363786071 ) );
#353 = VECTOR( '', #395, 1000.00000000000 );
#354 = CARTESIAN_POINT( '', ( -9.98732369983069, 6.70966499290056, -5.76618402658118 ) );
#355 = VECTOR( '', #396, 1000.00000000000 );
#356 = COLOUR_RGB( '', 0.689999997600000, 0.689999997600000, 0.689999997600000 );
#357 = CARTESIAN_POINT( '', ( -9.69437339964042, 0.000000000000000, 5.59704909190714 ) );
#358 = CARTESIAN_POINT( '', ( -9.69437339964042, 0.000000000000000, 0.000000000000000 ) );
#359 = VECTOR( '', #397, 1000.00000000000 );
#360 = CARTESIAN_POINT( '', ( 9.69437339964042, 0.000000000000000, 0.000000000000000 ) );
#361 = VECTOR( '', #398, 1000.00000000000 );
#362 = CARTESIAN_POINT( '', ( -4.84718669982021, 0.000000000000000, 8.39557363786071 ) );
#363 = VECTOR( '', #399, 1000.00000000000 );
#364 = COLOUR_RGB( '', 0.689999997600000, 0.689999997600000, 0.689999997600000 );
#365 = CARTESIAN_POINT( '', ( 10.0000000000000, 7.00000000000000, 5.77350269189626 ) );
#366 = VECTOR( '', #400, 1000.00000000000 );
#367 = COLOUR_RGB( '', 0.689999997600000, 0.689999997600000, 0.689999997600000 );
#368 = CARTESIAN_POINT( '', ( -10.0000000000000, 7.00000000000000, 5.77350269189626 ) );
#369 = CARTESIAN_POINT( '', ( -10.0000000000000, 7.00000000000000, 5.77350269189626 ) );
#370 = VECTOR( '', #401, 1000.00000000000 );
#371 = CARTESIAN_POINT( '', ( -9.98732369983069, 6.70966499290056, 5.76618402658118 ) );
#372 = VECTOR( '', #402, 1000.00000000000 );
#373 = COLOUR_RGB( '', 0.689999997600000, 0.689999997600000, 0.689999997600000 );
#374 = CARTESIAN_POINT( '', ( 0.000000000000000, 46.3865000000000, -3.00000000000000 ) );
#375 = AXIS2_PLACEMENT_3D( '', #403, #404, #405 );
#376 = COLOUR_RGB( '', 0.689999997600000, 0.689999997600000, 0.689999997600000 );
#377 = CARTESIAN_POINT( '', ( -10.0000000000000, 7.00000000000000, -5.77350269189626 ) );
#378 = VECTOR( '', #406, 1000.00000000000 );
#379 = COLOUR_RGB( '', 0.689999997600000, 0.689999997600000, 0.689999997600000 );
#380 = CARTESIAN_POINT( '', ( 0.000000000000000, 7.00000000000000, -3.00000000000000 ) );
#381 = AXIS2_PLACEMENT_3D( '', #407, #408, #409 );
#382 = COLOUR_RGB( '', 0.689999997600000, 0.689999997600000, 0.689999997600000 );
#383 = CARTESIAN_POINT( '', ( 0.000000000000000, 47.0000000000000, 0.000000000000000 ) );
#384 = DIRECTION( '', ( 0.000000000000000, -1.00000000000000, -0.000000000000000 ) );
#385 = DIRECTION( '', ( 0.000000000000000, 0.000000000000000, -1.00000000000000 ) );
#386 = DIRECTION( '', ( -0.866025403784439, 0.000000000000000, -0.500000000000000 ) );
#387 = DIRECTION( '', ( 0.0436055618630999, 0.998731565520054, -0.0251756828798256 ) );
#388 = DIRECTION( '', ( -0.866025403784439, 0.000000000000000, -0.500000000000000 ) );
#389 = DIRECTION( '', ( 0.000000000000000, 0.998731565520054, -0.0503513657596513 ) );
#390 = DIRECTION( '', ( 0.866025403784439, 0.000000000000000, -0.500000000000000 ) );
#391 = DIRECTION( '', ( 0.000000000000000, 0.998731565520054, 0.0503513657596513 ) );
#392 = DIRECTION( '', ( 0.866025403784439, 0.000000000000000, -0.500000000000000 ) );
#393 = DIRECTION( '', ( 0.0436055618630999, 0.998731565520054, 0.0251756828798256 ) );
#394 = DIRECTION( '', ( -0.866025403784439, 0.000000000000000, 0.500000000000000 ) );
#395 = DIRECTION( '', ( -0.866025403784439, 0.000000000000000, 0.500000000000000 ) );
#396 = DIRECTION( '', ( -0.0436055618630999, 0.998731565520054, -0.0251756828798256 ) );
#397 = DIRECTION( '', ( 0.000000000000000, 0.000000000000000, 1.00000000000000 ) );
#398 = DIRECTION( '', ( 0.000000000000000, 0.000000000000000, -1.00000000000000 ) );
#399 = DIRECTION( '', ( 0.866025403784439, 0.000000000000000, 0.500000000000000 ) );
#400 = DIRECTION( '', ( 0.000000000000000, 0.000000000000000, -1.00000000000000 ) );
#401 = DIRECTION( '', ( 0.866025403784439, 0.000000000000000, 0.500000000000000 ) );
#402 = DIRECTION( '', ( -0.0436055618630999, 0.998731565520054, 0.0251756828798256 ) );
#403 = CARTESIAN_POINT( '', ( 0.000000000000000, 46.3865000000000, 0.000000000000000 ) );
#404 = DIRECTION( '', ( 0.000000000000000, -1.00000000000000, -0.000000000000000 ) );
#405 = DIRECTION( '', ( 0.000000000000000, 0.000000000000000, -1.00000000000000 ) );
#406 = DIRECTION( '', ( 0.000000000000000, 0.000000000000000, 1.00000000000000 ) );
#407 = CARTESIAN_POINT( '', ( 0.000000000000000, 7.00000000000000, 0.000000000000000 ) );
#408 = DIRECTION( '', ( 0.000000000000000, -1.00000000000000, -0.000000000000000 ) );
#409 = DIRECTION( '', ( 0.000000000000000, 0.000000000000000, -1.00000000000000 ) );
ENDSEC;
END-ISO-10303-21;
