ISO-10303-21;
HEADER;
FILE_DESCRIPTION( ( 'STEP AP214' ), '1' );
FILE_NAME( '//goodhand-server/Shared Folders/GoodHand Data/Kipp CAD/K0127/27618-0506116.stp', '2020-11-25T11:42:45', ( '' ), ( '' ), ' ', 'PARTsolutions', ' ' );
FILE_SCHEMA( ( 'AUTOMOTIVE_DESIGN { 1 0 10303 214 1 1 1 1 }' ) );
ENDSEC;
DATA;
#1 = MECHANICAL_DESIGN_GEOMETRIC_PRESENTATION_REPRESENTATION( ' ', ( #10, #11, #12, #13, #14, #15, #16, #17, #18, #19, #20, #21, #22 ), #6 );
#2 = PRODUCT_DEFINITION_CONTEXT( '', #23, 'design' );
#3 = APPLICATION_PROTOCOL_DEFINITION( 'international standard', 'automotive_design', 2001, #23 );
#4 = PRODUCT_CATEGORY_RELATIONSHIP( 'NONE', 'NONE', #24, #25 );
#5 = SHAPE_DEFINITION_REPRESENTATION( #26, #27 );
#6 =  ( GEOMETRIC_REPRESENTATION_CONTEXT( 3 )GLOBAL_UNCERTAINTY_ASSIGNED_CONTEXT( ( #30 ) )GLOBAL_UNIT_ASSIGNED_CONTEXT( ( #32, #33, #34 ) )REPRESENTATION_CONTEXT( 'NONE', 'WORKSPACE' ) );
#10 = STYLED_ITEM( '', ( #36 ), #37 );
#11 = STYLED_ITEM( '', ( #38 ), #39 );
#12 = STYLED_ITEM( '', ( #40 ), #41 );
#13 = STYLED_ITEM( '', ( #42 ), #43 );
#14 = STYLED_ITEM( '', ( #44 ), #45 );
#15 = STYLED_ITEM( '', ( #46 ), #47 );
#16 = STYLED_ITEM( '', ( #48 ), #49 );
#17 = STYLED_ITEM( '', ( #50 ), #51 );
#18 = STYLED_ITEM( '', ( #52 ), #53 );
#19 = STYLED_ITEM( '', ( #54 ), #55 );
#20 = STYLED_ITEM( '', ( #56 ), #57 );
#21 = STYLED_ITEM( '', ( #58 ), #59 );
#22 = STYLED_ITEM( '', ( #60 ), #61 );
#23 = APPLICATION_CONTEXT( 'core data for automotive mechanical design processes' );
#24 = PRODUCT_CATEGORY( 'part', 'NONE' );
#25 = PRODUCT_RELATED_PRODUCT_CATEGORY( 'detail', ' ', ( #62 ) );
#26 = PRODUCT_DEFINITION_SHAPE( 'NONE', 'NONE', #63 );
#27 = ADVANCED_BREP_SHAPE_REPRESENTATION( '_27618-0506116', ( #64, #65 ), #6 );
#30 = UNCERTAINTY_MEASURE_WITH_UNIT( LENGTH_MEASURE( 0.00100000000000000 ), #32, '', '' );
#32 =  ( CONVERSION_BASED_UNIT( 'MILLIMETRE', #68 )LENGTH_UNIT(  )NAMED_UNIT( #71 ) );
#33 =  ( NAMED_UNIT( #73 )PLANE_ANGLE_UNIT(  )SI_UNIT( $, .RADIAN. ) );
#34 =  ( NAMED_UNIT( #73 )SI_UNIT( $, .STERADIAN. )SOLID_ANGLE_UNIT(  ) );
#36 = PRESENTATION_STYLE_ASSIGNMENT( ( #79 ) );
#37 = ADVANCED_FACE( '', ( #80 ), #81, .T. );
#38 = PRESENTATION_STYLE_ASSIGNMENT( ( #82 ) );
#39 = ADVANCED_FACE( '', ( #83, #84 ), #85, .T. );
#40 = PRESENTATION_STYLE_ASSIGNMENT( ( #86 ) );
#41 = ADVANCED_FACE( '', ( #87, #88 ), #89, .F. );
#42 = PRESENTATION_STYLE_ASSIGNMENT( ( #90 ) );
#43 = ADVANCED_FACE( '', ( #91, #92 ), #93, .T. );
#44 = PRESENTATION_STYLE_ASSIGNMENT( ( #94 ) );
#45 = ADVANCED_FACE( '', ( #95 ), #96, .F. );
#46 = PRESENTATION_STYLE_ASSIGNMENT( ( #97 ) );
#47 = ADVANCED_FACE( '', ( #98, #99 ), #100, .T. );
#48 = PRESENTATION_STYLE_ASSIGNMENT( ( #101 ) );
#49 = ADVANCED_FACE( '', ( #102, #103 ), #104, .F. );
#50 = PRESENTATION_STYLE_ASSIGNMENT( ( #105 ) );
#51 = ADVANCED_FACE( '', ( #106, #107 ), #108, .F. );
#52 = PRESENTATION_STYLE_ASSIGNMENT( ( #109 ) );
#53 = ADVANCED_FACE( '', ( #110 ), #111, .T. );
#54 = PRESENTATION_STYLE_ASSIGNMENT( ( #112 ) );
#55 = ADVANCED_FACE( '', ( #113, #114 ), #115, .F. );
#56 = PRESENTATION_STYLE_ASSIGNMENT( ( #116 ) );
#57 = ADVANCED_FACE( '', ( #117, #118 ), #119, .T. );
#58 = PRESENTATION_STYLE_ASSIGNMENT( ( #120 ) );
#59 = ADVANCED_FACE( '', ( #121, #122 ), #123, .F. );
#60 = PRESENTATION_STYLE_ASSIGNMENT( ( #124 ) );
#61 = ADVANCED_FACE( '', ( #125, #126 ), #127, .F. );
#62 = PRODUCT( '_27618-0506116', '_27618-0506116', 'PART-_27618-0506116-DESC', ( #128 ) );
#63 = PRODUCT_DEFINITION( 'NONE', 'NONE', #129, #2 );
#64 = MANIFOLD_SOLID_BREP( '_27618-0506116', #130 );
#65 = AXIS2_PLACEMENT_3D( '', #131, #132, #133 );
#68 = LENGTH_MEASURE_WITH_UNIT( LENGTH_MEASURE( 1.00000000000000 ), #134 );
#71 = DIMENSIONAL_EXPONENTS( 1.00000000000000, 0.000000000000000, 0.000000000000000, 0.000000000000000, 0.000000000000000, 0.000000000000000, 0.000000000000000 );
#73 = DIMENSIONAL_EXPONENTS( 0.000000000000000, 0.000000000000000, 0.000000000000000, 0.000000000000000, 0.000000000000000, 0.000000000000000, 0.000000000000000 );
#79 = SURFACE_STYLE_USAGE( .BOTH., #135 );
#80 = FACE_OUTER_BOUND( '', #136, .T. );
#81 = PLANE( '', #137 );
#82 = SURFACE_STYLE_USAGE( .BOTH., #138 );
#83 = FACE_BOUND( '', #139, .T. );
#84 = FACE_OUTER_BOUND( '', #140, .T. );
#85 = SPHERICAL_SURFACE( '', #141, 5.00000000000000 );
#86 = SURFACE_STYLE_USAGE( .BOTH., #142 );
#87 = FACE_OUTER_BOUND( '', #143, .T. );
#88 = FACE_BOUND( '', #144, .T. );
#89 = CONICAL_SURFACE( '', #145, 3.05000000000000, 0.785398163400000 );
#90 = SURFACE_STYLE_USAGE( .BOTH., #146 );
#91 = FACE_BOUND( '', #147, .T. );
#92 = FACE_OUTER_BOUND( '', #148, .T. );
#93 = PLANE( '', #149 );
#94 = SURFACE_STYLE_USAGE( .BOTH., #150 );
#95 = FACE_OUTER_BOUND( '', #151, .T. );
#96 = PLANE( '', #152 );
#97 = SURFACE_STYLE_USAGE( .BOTH., #153 );
#98 = FACE_OUTER_BOUND( '', #154, .T. );
#99 = FACE_OUTER_BOUND( '', #155, .T. );
#100 = CYLINDRICAL_SURFACE( '', #156, 5.00000000000000 );
#101 = SURFACE_STYLE_USAGE( .BOTH., #157 );
#102 = FACE_BOUND( '', #158, .T. );
#103 = FACE_OUTER_BOUND( '', #159, .T. );
#104 = CONICAL_SURFACE( '', #160, 2.50000000000000, 0.785398163400000 );
#105 = SURFACE_STYLE_USAGE( .BOTH., #161 );
#106 = FACE_OUTER_BOUND( '', #162, .T. );
#107 = FACE_OUTER_BOUND( '', #163, .T. );
#108 = CYLINDRICAL_SURFACE( '', #164, 2.06700000000000 );
#109 = SURFACE_STYLE_USAGE( .BOTH., #165 );
#110 = FACE_OUTER_BOUND( '', #166, .T. );
#111 = PLANE( '', #167 );
#112 = SURFACE_STYLE_USAGE( .BOTH., #168 );
#113 = FACE_BOUND( '', #169, .T. );
#114 = FACE_OUTER_BOUND( '', #170, .T. );
#115 = CONICAL_SURFACE( '', #171, 3.55000000000000, 0.785398163400000 );
#116 = SURFACE_STYLE_USAGE( .BOTH., #172 );
#117 = FACE_BOUND( '', #173, .T. );
#118 = FACE_OUTER_BOUND( '', #174, .T. );
#119 = PLANE( '', #175 );
#120 = SURFACE_STYLE_USAGE( .BOTH., #176 );
#121 = FACE_BOUND( '', #177, .T. );
#122 = FACE_OUTER_BOUND( '', #178, .T. );
#123 = PLANE( '', #179 );
#124 = SURFACE_STYLE_USAGE( .BOTH., #180 );
#125 = FACE_OUTER_BOUND( '', #181, .T. );
#126 = FACE_OUTER_BOUND( '', #182, .T. );
#127 = CYLINDRICAL_SURFACE( '', #183, 3.05000000000000 );
#128 = PRODUCT_CONTEXT( '', #23, 'mechanical' );
#129 = PRODUCT_DEFINITION_FORMATION_WITH_SPECIFIED_SOURCE( ' ', 'NONE', #62, .NOT_KNOWN. );
#130 = CLOSED_SHELL( '', ( #39, #47, #59, #49, #51, #45, #37, #43, #57, #53, #55, #61, #41 ) );
#131 = CARTESIAN_POINT( '', ( 0.000000000000000, 0.000000000000000, 0.000000000000000 ) );
#132 = DIRECTION( '', ( 0.000000000000000, 0.000000000000000, 1.00000000000000 ) );
#133 = DIRECTION( '', ( 1.00000000000000, 0.000000000000000, 0.000000000000000 ) );
#134 =  ( LENGTH_UNIT(  )NAMED_UNIT( #71 )SI_UNIT( .MILLI., .METRE. ) );
#135 = SURFACE_SIDE_STYLE( '', ( #185 ) );
#136 = EDGE_LOOP( '', ( #186, #187 ) );
#137 = AXIS2_PLACEMENT_3D( '', #188, #189, #190 );
#138 = SURFACE_SIDE_STYLE( '', ( #191 ) );
#139 = VERTEX_LOOP( '', #192 );
#140 = EDGE_LOOP( '', ( #193, #194, #195, #196 ) );
#141 = AXIS2_PLACEMENT_3D( '', #197, #198, #199 );
#142 = SURFACE_SIDE_STYLE( '', ( #200 ) );
#143 = EDGE_LOOP( '', ( #201 ) );
#144 = EDGE_LOOP( '', ( #202 ) );
#145 = AXIS2_PLACEMENT_3D( '', #203, #204, #205 );
#146 = SURFACE_SIDE_STYLE( '', ( #206 ) );
#147 = EDGE_LOOP( '', ( #207 ) );
#148 = EDGE_LOOP( '', ( #208, #209, #210, #211 ) );
#149 = AXIS2_PLACEMENT_3D( '', #212, #213, #214 );
#150 = SURFACE_SIDE_STYLE( '', ( #215 ) );
#151 = EDGE_LOOP( '', ( #216 ) );
#152 = AXIS2_PLACEMENT_3D( '', #217, #218, #219 );
#153 = SURFACE_SIDE_STYLE( '', ( #220 ) );
#154 = EDGE_LOOP( '', ( #221 ) );
#155 = EDGE_LOOP( '', ( #222, #223, #224, #225, #226, #227, #228, #229 ) );
#156 = AXIS2_PLACEMENT_3D( '', #230, #231, #232 );
#157 = SURFACE_SIDE_STYLE( '', ( #233 ) );
#158 = EDGE_LOOP( '', ( #234 ) );
#159 = EDGE_LOOP( '', ( #235 ) );
#160 = AXIS2_PLACEMENT_3D( '', #236, #237, #238 );
#161 = SURFACE_SIDE_STYLE( '', ( #239 ) );
#162 = EDGE_LOOP( '', ( #240 ) );
#163 = EDGE_LOOP( '', ( #241 ) );
#164 = AXIS2_PLACEMENT_3D( '', #242, #243, #244 );
#165 = SURFACE_SIDE_STYLE( '', ( #245 ) );
#166 = EDGE_LOOP( '', ( #246, #247 ) );
#167 = AXIS2_PLACEMENT_3D( '', #248, #249, #250 );
#168 = SURFACE_SIDE_STYLE( '', ( #251 ) );
#169 = EDGE_LOOP( '', ( #252 ) );
#170 = EDGE_LOOP( '', ( #253 ) );
#171 = AXIS2_PLACEMENT_3D( '', #254, #255, #256 );
#172 = SURFACE_SIDE_STYLE( '', ( #257 ) );
#173 = EDGE_LOOP( '', ( #258 ) );
#174 = EDGE_LOOP( '', ( #259, #260, #261, #262 ) );
#175 = AXIS2_PLACEMENT_3D( '', #263, #264, #265 );
#176 = SURFACE_SIDE_STYLE( '', ( #266 ) );
#177 = EDGE_LOOP( '', ( #267 ) );
#178 = EDGE_LOOP( '', ( #268 ) );
#179 = AXIS2_PLACEMENT_3D( '', #269, #270, #271 );
#180 = SURFACE_SIDE_STYLE( '', ( #272 ) );
#181 = EDGE_LOOP( '', ( #273 ) );
#182 = EDGE_LOOP( '', ( #274 ) );
#183 = AXIS2_PLACEMENT_3D( '', #275, #276, #277 );
#185 = SURFACE_STYLE_FILL_AREA( #278 );
#186 = ORIENTED_EDGE( '', *, *, #279, .T. );
#187 = ORIENTED_EDGE( '', *, *, #280, .T. );
#188 = CARTESIAN_POINT( '', ( -5.00000000000000, 8.50000000000000, 5.00000000000000 ) );
#189 = DIRECTION( '', ( 0.000000000000000, 1.00000000000000, 0.000000000000000 ) );
#190 = DIRECTION( '', ( 0.000000000000000, -0.000000000000000, 1.00000000000000 ) );
#191 = SURFACE_STYLE_FILL_AREA( #281 );
#192 = VERTEX_POINT( '', #282 );
#193 = ORIENTED_EDGE( '', *, *, #283, .F. );
#194 = ORIENTED_EDGE( '', *, *, #284, .T. );
#195 = ORIENTED_EDGE( '', *, *, #285, .F. );
#196 = ORIENTED_EDGE( '', *, *, #286, .T. );
#197 = CARTESIAN_POINT( '', ( 8.67361737988404E-16, 16.0000000000000, 0.000000000000000 ) );
#198 = DIRECTION( '', ( 0.000000000000000, -1.00000000000000, 0.000000000000000 ) );
#199 = DIRECTION( '', ( 1.00000000000000, 0.000000000000000, 0.000000000000000 ) );
#200 = SURFACE_STYLE_FILL_AREA( #287 );
#201 = ORIENTED_EDGE( '', *, *, #288, .T. );
#202 = ORIENTED_EDGE( '', *, *, #289, .F. );
#203 = CARTESIAN_POINT( '', ( 2.50000000000000, 16.0000000000000, 0.000000000000000 ) );
#204 = DIRECTION( '', ( 1.00000000000000, -0.000000000000000, -0.000000000000000 ) );
#205 = DIRECTION( '', ( -0.000000000000000, 0.000000000000000, -1.00000000000000 ) );
#206 = SURFACE_STYLE_FILL_AREA( #290 );
#207 = ORIENTED_EDGE( '', *, *, #291, .T. );
#208 = ORIENTED_EDGE( '', *, *, #292, .T. );
#209 = ORIENTED_EDGE( '', *, *, #279, .F. );
#210 = ORIENTED_EDGE( '', *, *, #293, .T. );
#211 = ORIENTED_EDGE( '', *, *, #284, .F. );
#212 = CARTESIAN_POINT( '', ( -3.00000000000000, 8.50000000000000, 5.00000000000000 ) );
#213 = DIRECTION( '', ( -1.00000000000000, 0.000000000000000, 0.000000000000000 ) );
#214 = DIRECTION( '', ( 0.000000000000000, 0.000000000000000, 1.00000000000000 ) );
#215 = SURFACE_STYLE_FILL_AREA( #294 );
#216 = ORIENTED_EDGE( '', *, *, #295, .T. );
#217 = CARTESIAN_POINT( '', ( 2.06700000000000, 8.00000000000000, 0.000000000000000 ) );
#218 = DIRECTION( '', ( 0.000000000000000, 1.00000000000000, 0.000000000000000 ) );
#219 = DIRECTION( '', ( 0.000000000000000, -0.000000000000000, 1.00000000000000 ) );
#220 = SURFACE_STYLE_FILL_AREA( #296 );
#221 = ORIENTED_EDGE( '', *, *, #297, .F. );
#222 = ORIENTED_EDGE( '', *, *, #280, .F. );
#223 = ORIENTED_EDGE( '', *, *, #292, .F. );
#224 = ORIENTED_EDGE( '', *, *, #283, .T. );
#225 = ORIENTED_EDGE( '', *, *, #298, .F. );
#226 = ORIENTED_EDGE( '', *, *, #299, .F. );
#227 = ORIENTED_EDGE( '', *, *, #300, .F. );
#228 = ORIENTED_EDGE( '', *, *, #285, .T. );
#229 = ORIENTED_EDGE( '', *, *, #293, .F. );
#230 = CARTESIAN_POINT( '', ( 0.000000000000000, 0.000000000000000, 0.000000000000000 ) );
#231 = DIRECTION( '', ( -0.000000000000000, 1.00000000000000, 0.000000000000000 ) );
#232 = DIRECTION( '', ( 0.000000000000000, 0.000000000000000, -1.00000000000000 ) );
#233 = SURFACE_STYLE_FILL_AREA( #301 );
#234 = ORIENTED_EDGE( '', *, *, #302, .F. );
#235 = ORIENTED_EDGE( '', *, *, #303, .T. );
#236 = CARTESIAN_POINT( '', ( 0.000000000000000, 0.000000000000000, 0.000000000000000 ) );
#237 = DIRECTION( '', ( -0.000000000000000, -1.00000000000000, -0.000000000000000 ) );
#238 = DIRECTION( '', ( 0.000000000000000, 0.000000000000000, -1.00000000000000 ) );
#239 = SURFACE_STYLE_FILL_AREA( #304 );
#240 = ORIENTED_EDGE( '', *, *, #295, .F. );
#241 = ORIENTED_EDGE( '', *, *, #302, .T. );
#242 = CARTESIAN_POINT( '', ( 0.000000000000000, 0.000000000000000, 0.000000000000000 ) );
#243 = DIRECTION( '', ( -0.000000000000000, 1.00000000000000, 0.000000000000000 ) );
#244 = DIRECTION( '', ( 0.000000000000000, 0.000000000000000, -1.00000000000000 ) );
#245 = SURFACE_STYLE_FILL_AREA( #305 );
#246 = ORIENTED_EDGE( '', *, *, #306, .F. );
#247 = ORIENTED_EDGE( '', *, *, #299, .T. );
#248 = CARTESIAN_POINT( '', ( 3.00000000000000, 8.50000000000000, 5.00000000000000 ) );
#249 = DIRECTION( '', ( 0.000000000000000, 1.00000000000000, 0.000000000000000 ) );
#250 = DIRECTION( '', ( 0.000000000000000, -0.000000000000000, 1.00000000000000 ) );
#251 = SURFACE_STYLE_FILL_AREA( #307 );
#252 = ORIENTED_EDGE( '', *, *, #308, .T. );
#253 = ORIENTED_EDGE( '', *, *, #291, .F. );
#254 = CARTESIAN_POINT( '', ( -3.00000000000000, 16.0000000000000, 0.000000000000000 ) );
#255 = DIRECTION( '', ( -1.00000000000000, 0.000000000000000, -0.000000000000000 ) );
#256 = DIRECTION( '', ( 0.000000000000000, 0.000000000000000, 1.00000000000000 ) );
#257 = SURFACE_STYLE_FILL_AREA( #309 );
#258 = ORIENTED_EDGE( '', *, *, #288, .F. );
#259 = ORIENTED_EDGE( '', *, *, #300, .T. );
#260 = ORIENTED_EDGE( '', *, *, #306, .T. );
#261 = ORIENTED_EDGE( '', *, *, #298, .T. );
#262 = ORIENTED_EDGE( '', *, *, #286, .F. );
#263 = CARTESIAN_POINT( '', ( 3.00000000000000, 21.0000000000000, 5.00000000000000 ) );
#264 = DIRECTION( '', ( 1.00000000000000, 0.000000000000000, -0.000000000000000 ) );
#265 = DIRECTION( '', ( -0.000000000000000, 0.000000000000000, -1.00000000000000 ) );
#266 = SURFACE_STYLE_FILL_AREA( #310 );
#267 = ORIENTED_EDGE( '', *, *, #303, .F. );
#268 = ORIENTED_EDGE( '', *, *, #297, .T. );
#269 = CARTESIAN_POINT( '', ( 5.00000000000000, 0.000000000000000, 0.000000000000000 ) );
#270 = DIRECTION( '', ( 0.000000000000000, 1.00000000000000, 0.000000000000000 ) );
#271 = DIRECTION( '', ( 0.000000000000000, -0.000000000000000, 1.00000000000000 ) );
#272 = SURFACE_STYLE_FILL_AREA( #311 );
#273 = ORIENTED_EDGE( '', *, *, #289, .T. );
#274 = ORIENTED_EDGE( '', *, *, #308, .F. );
#275 = CARTESIAN_POINT( '', ( 3.00000000000000, 16.0000000000000, 0.000000000000000 ) );
#276 = DIRECTION( '', ( -1.00000000000000, -0.000000000000000, 0.000000000000000 ) );
#277 = DIRECTION( '', ( -0.000000000000000, 0.000000000000000, -1.00000000000000 ) );
#278 = FILL_AREA_STYLE( '', ( #312 ) );
#279 = EDGE_CURVE( '', #313, #314, #315, .T. );
#280 = EDGE_CURVE( '', #314, #313, #316, .T. );
#281 = FILL_AREA_STYLE( '', ( #317 ) );
#282 = CARTESIAN_POINT( '', ( 1.17352343777524E-15, 21.0000000000000, 0.000000000000000 ) );
#283 = EDGE_CURVE( '', #318, #319, #320, .T. );
#284 = EDGE_CURVE( '', #318, #321, #322, .F. );
#285 = EDGE_CURVE( '', #323, #321, #324, .T. );
#286 = EDGE_CURVE( '', #323, #319, #325, .F. );
#287 = FILL_AREA_STYLE( '', ( #326 ) );
#288 = EDGE_CURVE( '', #327, #327, #328, .T. );
#289 = EDGE_CURVE( '', #329, #329, #330, .T. );
#290 = FILL_AREA_STYLE( '', ( #331 ) );
#291 = EDGE_CURVE( '', #332, #332, #333, .T. );
#292 = EDGE_CURVE( '', #318, #314, #334, .T. );
#293 = EDGE_CURVE( '', #313, #321, #335, .F. );
#294 = FILL_AREA_STYLE( '', ( #336 ) );
#295 = EDGE_CURVE( '', #337, #337, #338, .T. );
#296 = FILL_AREA_STYLE( '', ( #339 ) );
#297 = EDGE_CURVE( '', #340, #340, #341, .T. );
#298 = EDGE_CURVE( '', #342, #319, #343, .F. );
#299 = EDGE_CURVE( '', #344, #342, #345, .T. );
#300 = EDGE_CURVE( '', #323, #344, #346, .T. );
#301 = FILL_AREA_STYLE( '', ( #347 ) );
#302 = EDGE_CURVE( '', #348, #348, #349, .T. );
#303 = EDGE_CURVE( '', #350, #350, #351, .T. );
#304 = FILL_AREA_STYLE( '', ( #352 ) );
#305 = FILL_AREA_STYLE( '', ( #353 ) );
#306 = EDGE_CURVE( '', #344, #342, #354, .T. );
#307 = FILL_AREA_STYLE( '', ( #355 ) );
#308 = EDGE_CURVE( '', #356, #356, #357, .T. );
#309 = FILL_AREA_STYLE( '', ( #358 ) );
#310 = FILL_AREA_STYLE( '', ( #359 ) );
#311 = FILL_AREA_STYLE( '', ( #360 ) );
#312 = FILL_AREA_STYLE_COLOUR( '', #361 );
#313 = VERTEX_POINT( '', #362 );
#314 = VERTEX_POINT( '', #363 );
#315 = LINE( '', #364, #365 );
#316 = CIRCLE( '', #366, 5.00000000000000 );
#317 = FILL_AREA_STYLE_COLOUR( '', #367 );
#318 = VERTEX_POINT( '', #368 );
#319 = VERTEX_POINT( '', #369 );
#320 = CIRCLE( '', #370, 5.00000000000000 );
#321 = VERTEX_POINT( '', #371 );
#322 = CIRCLE( '', #372, 4.00000000000000 );
#323 = VERTEX_POINT( '', #373 );
#324 = CIRCLE( '', #374, 5.00000000000000 );
#325 = CIRCLE( '', #375, 4.00000000000000 );
#326 = FILL_AREA_STYLE_COLOUR( '', #376 );
#327 = VERTEX_POINT( '', #377 );
#328 = CIRCLE( '', #378, 3.55000000000000 );
#329 = VERTEX_POINT( '', #379 );
#330 = CIRCLE( '', #380, 3.05000000000000 );
#331 = FILL_AREA_STYLE_COLOUR( '', #381 );
#332 = VERTEX_POINT( '', #382 );
#333 = CIRCLE( '', #383, 3.55000000000000 );
#334 = LINE( '', #384, #385 );
#335 = LINE( '', #386, #387 );
#336 = FILL_AREA_STYLE_COLOUR( '', #388 );
#337 = VERTEX_POINT( '', #389 );
#338 = CIRCLE( '', #390, 2.06700000000000 );
#339 = FILL_AREA_STYLE_COLOUR( '', #391 );
#340 = VERTEX_POINT( '', #392 );
#341 = CIRCLE( '', #393, 5.00000000000000 );
#342 = VERTEX_POINT( '', #394 );
#343 = LINE( '', #395, #396 );
#344 = VERTEX_POINT( '', #397 );
#345 = CIRCLE( '', #398, 5.00000000000000 );
#346 = LINE( '', #399, #400 );
#347 = FILL_AREA_STYLE_COLOUR( '', #401 );
#348 = VERTEX_POINT( '', #402 );
#349 = CIRCLE( '', #403, 2.06700000000000 );
#350 = VERTEX_POINT( '', #404 );
#351 = CIRCLE( '', #405, 2.50000000000000 );
#352 = FILL_AREA_STYLE_COLOUR( '', #406 );
#353 = FILL_AREA_STYLE_COLOUR( '', #407 );
#354 = LINE( '', #408, #409 );
#355 = FILL_AREA_STYLE_COLOUR( '', #410 );
#356 = VERTEX_POINT( '', #411 );
#357 = CIRCLE( '', #412, 3.05000000000000 );
#358 = FILL_AREA_STYLE_COLOUR( '', #413 );
#359 = FILL_AREA_STYLE_COLOUR( '', #414 );
#360 = FILL_AREA_STYLE_COLOUR( '', #415 );
#361 = COLOUR_RGB( '', 0.689999997600000, 0.689999997600000, 0.689999997600000 );
#362 = CARTESIAN_POINT( '', ( -3.00000000000000, 8.50000000000000, 4.00000000000000 ) );
#363 = CARTESIAN_POINT( '', ( -3.00000000000000, 8.50000000000000, -4.00000000000000 ) );
#364 = CARTESIAN_POINT( '', ( -3.00000000000000, 8.50000000000000, 5.00000000000000 ) );
#365 = VECTOR( '', #416, 1000.00000000000 );
#366 = AXIS2_PLACEMENT_3D( '', #417, #418, #419 );
#367 = COLOUR_RGB( '', 0.689999997600000, 0.689999997600000, 0.689999997600000 );
#368 = CARTESIAN_POINT( '', ( -3.00000000000000, 16.0000000000000, -4.00000000000000 ) );
#369 = CARTESIAN_POINT( '', ( 3.00000000000000, 16.0000000000000, -4.00000000000000 ) );
#370 = AXIS2_PLACEMENT_3D( '', #420, #421, #422 );
#371 = CARTESIAN_POINT( '', ( -3.00000000000000, 16.0000000000000, 4.00000000000000 ) );
#372 = AXIS2_PLACEMENT_3D( '', #423, #424, #425 );
#373 = CARTESIAN_POINT( '', ( 3.00000000000000, 16.0000000000000, 4.00000000000000 ) );
#374 = AXIS2_PLACEMENT_3D( '', #426, #427, #428 );
#375 = AXIS2_PLACEMENT_3D( '', #429, #430, #431 );
#376 = COLOUR_RGB( '', 0.689999997600000, 0.689999997600000, 0.689999997600000 );
#377 = CARTESIAN_POINT( '', ( 3.00000000000000, 16.0000000000000, -3.55000000000000 ) );
#378 = AXIS2_PLACEMENT_3D( '', #432, #433, #434 );
#379 = CARTESIAN_POINT( '', ( 2.50000000000000, 16.0000000000000, -3.05000000000000 ) );
#380 = AXIS2_PLACEMENT_3D( '', #435, #436, #437 );
#381 = COLOUR_RGB( '', 0.689999997600000, 0.689999997600000, 0.689999997600000 );
#382 = CARTESIAN_POINT( '', ( -3.00000000000000, 16.0000000000000, -3.55000000000000 ) );
#383 = AXIS2_PLACEMENT_3D( '', #438, #439, #440 );
#384 = CARTESIAN_POINT( '', ( -3.00000000000000, 0.000000000000000, -4.00000000000000 ) );
#385 = VECTOR( '', #441, 1000.00000000000 );
#386 = CARTESIAN_POINT( '', ( -3.00000000000000, 0.000000000000000, 4.00000000000000 ) );
#387 = VECTOR( '', #442, 1000.00000000000 );
#388 = COLOUR_RGB( '', 0.689999997600000, 0.689999997600000, 0.689999997600000 );
#389 = CARTESIAN_POINT( '', ( 0.000000000000000, 8.00000000000000, -2.06700000000000 ) );
#390 = AXIS2_PLACEMENT_3D( '', #443, #444, #445 );
#391 = COLOUR_RGB( '', 0.689999997600000, 0.689999997600000, 0.689999997600000 );
#392 = CARTESIAN_POINT( '', ( 0.000000000000000, 0.000000000000000, -5.00000000000000 ) );
#393 = AXIS2_PLACEMENT_3D( '', #446, #447, #448 );
#394 = CARTESIAN_POINT( '', ( 3.00000000000000, 8.50000000000000, -4.00000000000000 ) );
#395 = CARTESIAN_POINT( '', ( 3.00000000000000, 0.000000000000000, -4.00000000000000 ) );
#396 = VECTOR( '', #449, 1000.00000000000 );
#397 = CARTESIAN_POINT( '', ( 3.00000000000000, 8.50000000000000, 4.00000000000000 ) );
#398 = AXIS2_PLACEMENT_3D( '', #450, #451, #452 );
#399 = CARTESIAN_POINT( '', ( 3.00000000000000, 0.000000000000000, 4.00000000000000 ) );
#400 = VECTOR( '', #453, 1000.00000000000 );
#401 = COLOUR_RGB( '', 0.689999997600000, 0.689999997600000, 0.689999997600000 );
#402 = CARTESIAN_POINT( '', ( 0.000000000000000, 0.433000000000000, -2.06700000000000 ) );
#403 = AXIS2_PLACEMENT_3D( '', #454, #455, #456 );
#404 = CARTESIAN_POINT( '', ( 0.000000000000000, 0.000000000000000, -2.50000000000000 ) );
#405 = AXIS2_PLACEMENT_3D( '', #457, #458, #459 );
#406 = COLOUR_RGB( '', 0.689999997600000, 0.689999997600000, 0.689999997600000 );
#407 = COLOUR_RGB( '', 0.689999997600000, 0.689999997600000, 0.689999997600000 );
#408 = CARTESIAN_POINT( '', ( 3.00000000000000, 8.50000000000000, 5.00000000000000 ) );
#409 = VECTOR( '', #460, 1000.00000000000 );
#410 = COLOUR_RGB( '', 0.689999997600000, 0.689999997600000, 0.689999997600000 );
#411 = CARTESIAN_POINT( '', ( -2.50000000000000, 16.0000000000000, -3.05000000000000 ) );
#412 = AXIS2_PLACEMENT_3D( '', #461, #462, #463 );
#413 = COLOUR_RGB( '', 0.689999997600000, 0.689999997600000, 0.689999997600000 );
#414 = COLOUR_RGB( '', 0.689999997600000, 0.689999997600000, 0.689999997600000 );
#415 = COLOUR_RGB( '', 0.689999997600000, 0.689999997600000, 0.689999997600000 );
#416 = DIRECTION( '', ( -0.000000000000000, -0.000000000000000, -1.00000000000000 ) );
#417 = CARTESIAN_POINT( '', ( 0.000000000000000, 8.50000000000000, 0.000000000000000 ) );
#418 = DIRECTION( '', ( 0.000000000000000, 1.00000000000000, 0.000000000000000 ) );
#419 = DIRECTION( '', ( 0.000000000000000, -0.000000000000000, 1.00000000000000 ) );
#420 = CARTESIAN_POINT( '', ( 0.000000000000000, 16.0000000000000, 0.000000000000000 ) );
#421 = DIRECTION( '', ( 0.000000000000000, -1.00000000000000, -0.000000000000000 ) );
#422 = DIRECTION( '', ( 0.000000000000000, 0.000000000000000, -1.00000000000000 ) );
#423 = CARTESIAN_POINT( '', ( -3.00000000000000, 16.0000000000000, 0.000000000000000 ) );
#424 = DIRECTION( '', ( -1.00000000000000, 0.000000000000000, 0.000000000000000 ) );
#425 = DIRECTION( '', ( 0.000000000000000, 0.000000000000000, 1.00000000000000 ) );
#426 = CARTESIAN_POINT( '', ( 0.000000000000000, 16.0000000000000, 0.000000000000000 ) );
#427 = DIRECTION( '', ( 0.000000000000000, -1.00000000000000, -0.000000000000000 ) );
#428 = DIRECTION( '', ( 0.000000000000000, 0.000000000000000, -1.00000000000000 ) );
#429 = CARTESIAN_POINT( '', ( 3.00000000000000, 16.0000000000000, 0.000000000000000 ) );
#430 = DIRECTION( '', ( 1.00000000000000, 0.000000000000000, -0.000000000000000 ) );
#431 = DIRECTION( '', ( -0.000000000000000, 0.000000000000000, -1.00000000000000 ) );
#432 = CARTESIAN_POINT( '', ( 3.00000000000000, 16.0000000000000, 0.000000000000000 ) );
#433 = DIRECTION( '', ( 1.00000000000000, 0.000000000000000, -0.000000000000000 ) );
#434 = DIRECTION( '', ( -0.000000000000000, 0.000000000000000, -1.00000000000000 ) );
#435 = CARTESIAN_POINT( '', ( 2.50000000000000, 16.0000000000000, 0.000000000000000 ) );
#436 = DIRECTION( '', ( 1.00000000000000, 0.000000000000000, -0.000000000000000 ) );
#437 = DIRECTION( '', ( -0.000000000000000, 0.000000000000000, -1.00000000000000 ) );
#438 = CARTESIAN_POINT( '', ( -3.00000000000000, 16.0000000000000, 0.000000000000000 ) );
#439 = DIRECTION( '', ( 1.00000000000000, 0.000000000000000, -0.000000000000000 ) );
#440 = DIRECTION( '', ( -0.000000000000000, 0.000000000000000, -1.00000000000000 ) );
#441 = DIRECTION( '', ( -0.000000000000000, -1.00000000000000, -0.000000000000000 ) );
#442 = DIRECTION( '', ( -0.000000000000000, -1.00000000000000, -0.000000000000000 ) );
#443 = CARTESIAN_POINT( '', ( 0.000000000000000, 8.00000000000000, 0.000000000000000 ) );
#444 = DIRECTION( '', ( 0.000000000000000, -1.00000000000000, -0.000000000000000 ) );
#445 = DIRECTION( '', ( 0.000000000000000, 0.000000000000000, -1.00000000000000 ) );
#446 = CARTESIAN_POINT( '', ( 0.000000000000000, 0.000000000000000, 0.000000000000000 ) );
#447 = DIRECTION( '', ( 0.000000000000000, -1.00000000000000, -0.000000000000000 ) );
#448 = DIRECTION( '', ( 0.000000000000000, 0.000000000000000, -1.00000000000000 ) );
#449 = DIRECTION( '', ( -0.000000000000000, -1.00000000000000, -0.000000000000000 ) );
#450 = CARTESIAN_POINT( '', ( 0.000000000000000, 8.50000000000000, 0.000000000000000 ) );
#451 = DIRECTION( '', ( 0.000000000000000, 1.00000000000000, 0.000000000000000 ) );
#452 = DIRECTION( '', ( 0.000000000000000, -0.000000000000000, 1.00000000000000 ) );
#453 = DIRECTION( '', ( -0.000000000000000, -1.00000000000000, -0.000000000000000 ) );
#454 = CARTESIAN_POINT( '', ( 0.000000000000000, 0.433000000000000, 0.000000000000000 ) );
#455 = DIRECTION( '', ( 0.000000000000000, -1.00000000000000, -0.000000000000000 ) );
#456 = DIRECTION( '', ( 0.000000000000000, 0.000000000000000, -1.00000000000000 ) );
#457 = CARTESIAN_POINT( '', ( 0.000000000000000, 0.000000000000000, 0.000000000000000 ) );
#458 = DIRECTION( '', ( 0.000000000000000, -1.00000000000000, -0.000000000000000 ) );
#459 = DIRECTION( '', ( 0.000000000000000, 0.000000000000000, -1.00000000000000 ) );
#460 = DIRECTION( '', ( -0.000000000000000, -0.000000000000000, -1.00000000000000 ) );
#461 = CARTESIAN_POINT( '', ( -2.50000000000000, 16.0000000000000, 0.000000000000000 ) );
#462 = DIRECTION( '', ( 1.00000000000000, 0.000000000000000, -0.000000000000000 ) );
#463 = DIRECTION( '', ( -0.000000000000000, 0.000000000000000, -1.00000000000000 ) );
ENDSEC;
END-ISO-10303-21;
