ISO-10303-21;
HEADER;
FILE_DESCRIPTION( ( 'STEP AP214' ), '1' );
FILE_NAME( '//goodhand-server/Shared Folders/GoodHand Data/Kipp CAD/K0163/K0163.0120X12.stp', '2020-11-26T10:29:11', ( '' ), ( '' ), ' ', 'PARTsolutions', ' ' );
FILE_SCHEMA( ( 'AUTOMOTIVE_DESIGN { 1 0 10303 214 1 1 1 1 }' ) );
ENDSEC;
DATA;
#1 = MECHANICAL_DESIGN_GEOMETRIC_PRESENTATION_REPRESENTATION( ' ', ( #10, #11, #12, #13, #14, #15, #16, #17, #18, #19, #20, #21 ), #6 );
#2 = PRODUCT_DEFINITION_CONTEXT( '', #22, 'design' );
#3 = APPLICATION_PROTOCOL_DEFINITION( 'international standard', 'automotive_design', 2001, #22 );
#4 = PRODUCT_CATEGORY_RELATIONSHIP( 'NONE', 'NONE', #23, #24 );
#5 = SHAPE_DEFINITION_REPRESENTATION( #25, #26 );
#6 =  ( GEOMETRIC_REPRESENTATION_CONTEXT( 3 )GLOBAL_UNCERTAINTY_ASSIGNED_CONTEXT( ( #29 ) )GLOBAL_UNIT_ASSIGNED_CONTEXT( ( #31, #32, #33 ) )REPRESENTATION_CONTEXT( 'NONE', 'WORKSPACE' ) );
#10 = STYLED_ITEM( '', ( #35 ), #36 );
#11 = STYLED_ITEM( '', ( #37 ), #38 );
#12 = STYLED_ITEM( '', ( #39 ), #40 );
#13 = STYLED_ITEM( '', ( #41 ), #42 );
#14 = STYLED_ITEM( '', ( #43 ), #44 );
#15 = STYLED_ITEM( '', ( #45 ), #46 );
#16 = STYLED_ITEM( '', ( #47 ), #48 );
#17 = STYLED_ITEM( '', ( #49 ), #50 );
#18 = STYLED_ITEM( '', ( #51 ), #52 );
#19 = STYLED_ITEM( '', ( #53 ), #54 );
#20 = STYLED_ITEM( '', ( #55 ), #56 );
#21 = STYLED_ITEM( '', ( #57 ), #58 );
#22 = APPLICATION_CONTEXT( 'core data for automotive mechanical design processes' );
#23 = PRODUCT_CATEGORY( 'part', 'NONE' );
#24 = PRODUCT_RELATED_PRODUCT_CATEGORY( 'detail', ' ', ( #59 ) );
#25 = PRODUCT_DEFINITION_SHAPE( 'NONE', 'NONE', #60 );
#26 = ADVANCED_BREP_SHAPE_REPRESENTATION( '_K0163.0120X12', ( #61, #62 ), #6 );
#29 = UNCERTAINTY_MEASURE_WITH_UNIT( LENGTH_MEASURE( 0.00100000000000000 ), #31, '', '' );
#31 =  ( CONVERSION_BASED_UNIT( 'MILLIMETRE', #65 )LENGTH_UNIT(  )NAMED_UNIT( #68 ) );
#32 =  ( NAMED_UNIT( #70 )PLANE_ANGLE_UNIT(  )SI_UNIT( $, .RADIAN. ) );
#33 =  ( NAMED_UNIT( #70 )SI_UNIT( $, .STERADIAN. )SOLID_ANGLE_UNIT(  ) );
#35 = PRESENTATION_STYLE_ASSIGNMENT( ( #76 ) );
#36 = ADVANCED_FACE( '', ( #77, #78 ), #79, .F. );
#37 = PRESENTATION_STYLE_ASSIGNMENT( ( #80 ) );
#38 = ADVANCED_FACE( '', ( #81, #82 ), #83, .F. );
#39 = PRESENTATION_STYLE_ASSIGNMENT( ( #84 ) );
#40 = ADVANCED_FACE( '', ( #85, #86 ), #87, .F. );
#41 = PRESENTATION_STYLE_ASSIGNMENT( ( #88 ) );
#42 = ADVANCED_FACE( '', ( #89, #90 ), #91, .T. );
#43 = PRESENTATION_STYLE_ASSIGNMENT( ( #92 ) );
#44 = ADVANCED_FACE( '', ( #93, #94 ), #95, .T. );
#45 = PRESENTATION_STYLE_ASSIGNMENT( ( #96 ) );
#46 = ADVANCED_FACE( '', ( #97, #98, #99 ), #100, .T. );
#47 = PRESENTATION_STYLE_ASSIGNMENT( ( #101 ) );
#48 = ADVANCED_FACE( '', ( #102, #103 ), #104, .T. );
#49 = PRESENTATION_STYLE_ASSIGNMENT( ( #105 ) );
#50 = ADVANCED_FACE( '', ( #106, #107 ), #108, .T. );
#51 = PRESENTATION_STYLE_ASSIGNMENT( ( #109 ) );
#52 = ADVANCED_FACE( '', ( #110, #111 ), #112, .F. );
#53 = PRESENTATION_STYLE_ASSIGNMENT( ( #113 ) );
#54 = ADVANCED_FACE( '', ( #114, #115 ), #116, .F. );
#55 = PRESENTATION_STYLE_ASSIGNMENT( ( #117 ) );
#56 = ADVANCED_FACE( '', ( #118, #119 ), #120, .F. );
#57 = PRESENTATION_STYLE_ASSIGNMENT( ( #121 ) );
#58 = ADVANCED_FACE( '', ( #122, #123 ), #124, .F. );
#59 = PRODUCT( '_K0163.0120X12', '_K0163.0120X12', 'PART-_K0163.0120X12-DESC', ( #125 ) );
#60 = PRODUCT_DEFINITION( 'NONE', 'NONE', #126, #2 );
#61 = MANIFOLD_SOLID_BREP( '_K0163.0120X12', #127 );
#62 = AXIS2_PLACEMENT_3D( '', #128, #129, #130 );
#65 = LENGTH_MEASURE_WITH_UNIT( LENGTH_MEASURE( 1.00000000000000 ), #131 );
#68 = DIMENSIONAL_EXPONENTS( 1.00000000000000, 0.000000000000000, 0.000000000000000, 0.000000000000000, 0.000000000000000, 0.000000000000000, 0.000000000000000 );
#70 = DIMENSIONAL_EXPONENTS( 0.000000000000000, 0.000000000000000, 0.000000000000000, 0.000000000000000, 0.000000000000000, 0.000000000000000, 0.000000000000000 );
#76 = SURFACE_STYLE_USAGE( .BOTH., #132 );
#77 = FACE_BOUND( '', #133, .T. );
#78 = FACE_OUTER_BOUND( '', #134, .T. );
#79 = CONICAL_SURFACE( '', #135, 51.0000000000000, 0.389352174000000 );
#80 = SURFACE_STYLE_USAGE( .BOTH., #136 );
#81 = FACE_BOUND( '', #137, .T. );
#82 = FACE_OUTER_BOUND( '', #138, .T. );
#83 = PLANE( '', #139 );
#84 = SURFACE_STYLE_USAGE( .BOTH., #140 );
#85 = FACE_OUTER_BOUND( '', #141, .T. );
#86 = FACE_BOUND( '', #142, .T. );
#87 = PLANE( '', #143 );
#88 = SURFACE_STYLE_USAGE( .BOTH., #144 );
#89 = FACE_BOUND( '', #145, .T. );
#90 = FACE_OUTER_BOUND( '', #146, .T. );
#91 = CONICAL_SURFACE( '', #147, 46.0000000000000, 1.28641155020000 );
#92 = SURFACE_STYLE_USAGE( .BOTH., #148 );
#93 = FACE_OUTER_BOUND( '', #149, .T. );
#94 = FACE_OUTER_BOUND( '', #150, .T. );
#95 = CYLINDRICAL_SURFACE( '', #151, 13.5000000000000 );
#96 = SURFACE_STYLE_USAGE( .BOTH., #152 );
#97 = FACE_BOUND( '', #153, .T. );
#98 = FACE_OUTER_BOUND( '', #154, .T. );
#99 = FACE_OUTER_BOUND( '', #155, .T. );
#100 = TOROIDAL_SURFACE( '', #156, 52.0000000000000, 8.00000000000000 );
#101 = SURFACE_STYLE_USAGE( .BOTH., #157 );
#102 = FACE_OUTER_BOUND( '', #158, .T. );
#103 = FACE_OUTER_BOUND( '', #159, .T. );
#104 = TOROIDAL_SURFACE( '', #160, 49.9999371535000, 5.00000000000000 );
#105 = SURFACE_STYLE_USAGE( .BOTH., #161 );
#106 = FACE_OUTER_BOUND( '', #162, .T. );
#107 = FACE_OUTER_BOUND( '', #163, .T. );
#108 = CYLINDRICAL_SURFACE( '', #164, 13.5000000000000 );
#109 = SURFACE_STYLE_USAGE( .BOTH., #165 );
#110 = FACE_BOUND( '', #166, .T. );
#111 = FACE_OUTER_BOUND( '', #167, .T. );
#112 = CONICAL_SURFACE( '', #168, 50.0000000000000, 1.10714871780000 );
#113 = SURFACE_STYLE_USAGE( .BOTH., #169 );
#114 = FACE_OUTER_BOUND( '', #170, .T. );
#115 = FACE_OUTER_BOUND( '', #171, .T. );
#116 = CYLINDRICAL_SURFACE( '', #172, 6.00000000000000 );
#117 = SURFACE_STYLE_USAGE( .BOTH., #173 );
#118 = FACE_OUTER_BOUND( '', #174, .T. );
#119 = FACE_BOUND( '', #175, .T. );
#120 = CONICAL_SURFACE( '', #176, 13.5000000000000, 1.32208633770000 );
#121 = SURFACE_STYLE_USAGE( .BOTH., #177 );
#122 = FACE_OUTER_BOUND( '', #178, .T. );
#123 = FACE_BOUND( '', #179, .T. );
#124 = CONICAL_SURFACE( '', #180, 50.5000000000000, 0.382675352600000 );
#125 = PRODUCT_CONTEXT( '', #22, 'mechanical' );
#126 = PRODUCT_DEFINITION_FORMATION_WITH_SPECIFIED_SOURCE( ' ', 'NONE', #59, .NOT_KNOWN. );
#127 = CLOSED_SHELL( '', ( #54, #40, #44, #56, #48, #58, #46, #36, #52, #42, #50, #38 ) );
#128 = CARTESIAN_POINT( '', ( 0.000000000000000, 0.000000000000000, 0.000000000000000 ) );
#129 = DIRECTION( '', ( 0.000000000000000, 0.000000000000000, 1.00000000000000 ) );
#130 = DIRECTION( '', ( 1.00000000000000, 0.000000000000000, 0.000000000000000 ) );
#131 =  ( LENGTH_UNIT(  )NAMED_UNIT( #68 )SI_UNIT( .MILLI., .METRE. ) );
#132 = SURFACE_SIDE_STYLE( '', ( #182 ) );
#133 = EDGE_LOOP( '', ( #183 ) );
#134 = EDGE_LOOP( '', ( #184 ) );
#135 = AXIS2_PLACEMENT_3D( '', #185, #186, #187 );
#136 = SURFACE_SIDE_STYLE( '', ( #188 ) );
#137 = EDGE_LOOP( '', ( #189 ) );
#138 = EDGE_LOOP( '', ( #190 ) );
#139 = AXIS2_PLACEMENT_3D( '', #191, #192, #193 );
#140 = SURFACE_SIDE_STYLE( '', ( #194 ) );
#141 = EDGE_LOOP( '', ( #195 ) );
#142 = EDGE_LOOP( '', ( #196 ) );
#143 = AXIS2_PLACEMENT_3D( '', #197, #198, #199 );
#144 = SURFACE_SIDE_STYLE( '', ( #200 ) );
#145 = EDGE_LOOP( '', ( #201 ) );
#146 = EDGE_LOOP( '', ( #202 ) );
#147 = AXIS2_PLACEMENT_3D( '', #203, #204, #205 );
#148 = SURFACE_SIDE_STYLE( '', ( #206 ) );
#149 = EDGE_LOOP( '', ( #207 ) );
#150 = EDGE_LOOP( '', ( #208 ) );
#151 = AXIS2_PLACEMENT_3D( '', #209, #210, #211 );
#152 = SURFACE_SIDE_STYLE( '', ( #212 ) );
#153 = VERTEX_LOOP( '', #213 );
#154 = EDGE_LOOP( '', ( #214 ) );
#155 = EDGE_LOOP( '', ( #215 ) );
#156 = AXIS2_PLACEMENT_3D( '', #216, #217, #218 );
#157 = SURFACE_SIDE_STYLE( '', ( #219 ) );
#158 = EDGE_LOOP( '', ( #220 ) );
#159 = EDGE_LOOP( '', ( #221 ) );
#160 = AXIS2_PLACEMENT_3D( '', #222, #223, #224 );
#161 = SURFACE_SIDE_STYLE( '', ( #225 ) );
#162 = EDGE_LOOP( '', ( #226 ) );
#163 = EDGE_LOOP( '', ( #227 ) );
#164 = AXIS2_PLACEMENT_3D( '', #228, #229, #230 );
#165 = SURFACE_SIDE_STYLE( '', ( #231 ) );
#166 = EDGE_LOOP( '', ( #232 ) );
#167 = EDGE_LOOP( '', ( #233 ) );
#168 = AXIS2_PLACEMENT_3D( '', #234, #235, #236 );
#169 = SURFACE_SIDE_STYLE( '', ( #237 ) );
#170 = EDGE_LOOP( '', ( #238 ) );
#171 = EDGE_LOOP( '', ( #239 ) );
#172 = AXIS2_PLACEMENT_3D( '', #240, #241, #242 );
#173 = SURFACE_SIDE_STYLE( '', ( #243 ) );
#174 = EDGE_LOOP( '', ( #244 ) );
#175 = EDGE_LOOP( '', ( #245 ) );
#176 = AXIS2_PLACEMENT_3D( '', #246, #247, #248 );
#177 = SURFACE_SIDE_STYLE( '', ( #249 ) );
#178 = EDGE_LOOP( '', ( #250 ) );
#179 = EDGE_LOOP( '', ( #251 ) );
#180 = AXIS2_PLACEMENT_3D( '', #252, #253, #254 );
#182 = SURFACE_STYLE_FILL_AREA( #255 );
#183 = ORIENTED_EDGE( '', *, *, #256, .F. );
#184 = ORIENTED_EDGE( '', *, *, #257, .T. );
#185 = CARTESIAN_POINT( '', ( 14.0627460668062, 0.000000000000000, 0.000000000000000 ) );
#186 = DIRECTION( '', ( -1.00000000000000, -0.000000000000000, -0.000000000000000 ) );
#187 = DIRECTION( '', ( 0.000000000000000, 0.000000000000000, 1.00000000000000 ) );
#188 = SURFACE_STYLE_FILL_AREA( #258 );
#189 = ORIENTED_EDGE( '', *, *, #259, .T. );
#190 = ORIENTED_EDGE( '', *, *, #260, .T. );
#191 = CARTESIAN_POINT( '', ( 0.000000000000000, -13.5000000000000, 0.000000000000000 ) );
#192 = DIRECTION( '', ( 1.00000000000000, 0.000000000000000, 0.000000000000000 ) );
#193 = DIRECTION( '', ( 0.000000000000000, 0.000000000000000, -1.00000000000000 ) );
#194 = SURFACE_STYLE_FILL_AREA( #261 );
#195 = ORIENTED_EDGE( '', *, *, #262, .F. );
#196 = ORIENTED_EDGE( '', *, *, #263, .F. );
#197 = CARTESIAN_POINT( '', ( 18.0000000000000, 0.000000000000000, 0.000000000000000 ) );
#198 = DIRECTION( '', ( -1.00000000000000, 0.000000000000000, 0.000000000000000 ) );
#199 = DIRECTION( '', ( 0.000000000000000, 0.000000000000000, 1.00000000000000 ) );
#200 = SURFACE_STYLE_FILL_AREA( #264 );
#201 = ORIENTED_EDGE( '', *, *, #265, .F. );
#202 = ORIENTED_EDGE( '', *, *, #266, .T. );
#203 = CARTESIAN_POINT( '', ( 18.5000000000000, 0.000000000000000, 0.000000000000000 ) );
#204 = DIRECTION( '', ( 1.00000000000000, -0.000000000000000, 0.000000000000000 ) );
#205 = DIRECTION( '', ( 0.000000000000000, 0.000000000000000, -1.00000000000000 ) );
#206 = SURFACE_STYLE_FILL_AREA( #267 );
#207 = ORIENTED_EDGE( '', *, *, #268, .F. );
#208 = ORIENTED_EDGE( '', *, *, #262, .T. );
#209 = CARTESIAN_POINT( '', ( 0.000000000000000, 0.000000000000000, 0.000000000000000 ) );
#210 = DIRECTION( '', ( 1.00000000000000, -0.000000000000000, -0.000000000000000 ) );
#211 = DIRECTION( '', ( 0.000000000000000, 0.000000000000000, 1.00000000000000 ) );
#212 = SURFACE_STYLE_FILL_AREA( #269 );
#213 = VERTEX_POINT( '', #270 );
#214 = ORIENTED_EDGE( '', *, *, #271, .T. );
#215 = ORIENTED_EDGE( '', *, *, #257, .F. );
#216 = CARTESIAN_POINT( '', ( 22.0000000000000, 0.000000000000000, 0.000000000000000 ) );
#217 = DIRECTION( '', ( -1.00000000000000, 0.000000000000000, 0.000000000000000 ) );
#218 = DIRECTION( '', ( 0.000000000000000, 0.000000000000000, 1.00000000000000 ) );
#219 = SURFACE_STYLE_FILL_AREA( #272 );
#220 = ORIENTED_EDGE( '', *, *, #273, .T. );
#221 = ORIENTED_EDGE( '', *, *, #274, .F. );
#222 = CARTESIAN_POINT( '', ( 22.5250691311817, 0.000000000000000, 0.000000000000000 ) );
#223 = DIRECTION( '', ( -1.00000000000000, 0.000000000000000, 0.000000000000000 ) );
#224 = DIRECTION( '', ( 0.000000000000000, 0.000000000000000, 1.00000000000000 ) );
#225 = SURFACE_STYLE_FILL_AREA( #275 );
#226 = ORIENTED_EDGE( '', *, *, #260, .F. );
#227 = ORIENTED_EDGE( '', *, *, #265, .T. );
#228 = CARTESIAN_POINT( '', ( 0.000000000000000, 0.000000000000000, 0.000000000000000 ) );
#229 = DIRECTION( '', ( 1.00000000000000, -0.000000000000000, -0.000000000000000 ) );
#230 = DIRECTION( '', ( 0.000000000000000, 0.000000000000000, 1.00000000000000 ) );
#231 = SURFACE_STYLE_FILL_AREA( #276 );
#232 = ORIENTED_EDGE( '', *, *, #266, .F. );
#233 = ORIENTED_EDGE( '', *, *, #256, .T. );
#234 = CARTESIAN_POINT( '', ( 16.5000000000000, 0.000000000000000, 0.000000000000000 ) );
#235 = DIRECTION( '', ( -1.00000000000000, -0.000000000000000, -0.000000000000000 ) );
#236 = DIRECTION( '', ( 0.000000000000000, 0.000000000000000, 1.00000000000000 ) );
#237 = SURFACE_STYLE_FILL_AREA( #277 );
#238 = ORIENTED_EDGE( '', *, *, #259, .F. );
#239 = ORIENTED_EDGE( '', *, *, #263, .T. );
#240 = CARTESIAN_POINT( '', ( 30.0000000000000, 0.000000000000000, 0.000000000000000 ) );
#241 = DIRECTION( '', ( 1.00000000000000, -0.000000000000000, -0.000000000000000 ) );
#242 = DIRECTION( '', ( 0.000000000000000, 0.000000000000000, 1.00000000000000 ) );
#243 = SURFACE_STYLE_FILL_AREA( #278 );
#244 = ORIENTED_EDGE( '', *, *, #273, .F. );
#245 = ORIENTED_EDGE( '', *, *, #268, .T. );
#246 = CARTESIAN_POINT( '', ( 14.5000000000000, 0.000000000000000, 0.000000000000000 ) );
#247 = DIRECTION( '', ( 1.00000000000000, -0.000000000000000, 0.000000000000000 ) );
#248 = DIRECTION( '', ( 0.000000000000000, 0.000000000000000, -1.00000000000000 ) );
#249 = SURFACE_STYLE_FILL_AREA( #279 );
#250 = ORIENTED_EDGE( '', *, *, #271, .F. );
#251 = ORIENTED_EDGE( '', *, *, #274, .T. );
#252 = CARTESIAN_POINT( '', ( 27.5000000000000, 0.000000000000000, 0.000000000000000 ) );
#253 = DIRECTION( '', ( 1.00000000000000, -0.000000000000000, 0.000000000000000 ) );
#254 = DIRECTION( '', ( 0.000000000000000, 0.000000000000000, -1.00000000000000 ) );
#255 = FILL_AREA_STYLE( '', ( #280 ) );
#256 = EDGE_CURVE( '', #281, #281, #282, .T. );
#257 = EDGE_CURVE( '', #283, #283, #284, .T. );
#258 = FILL_AREA_STYLE( '', ( #285 ) );
#259 = EDGE_CURVE( '', #286, #286, #287, .T. );
#260 = EDGE_CURVE( '', #288, #288, #289, .T. );
#261 = FILL_AREA_STYLE( '', ( #290 ) );
#262 = EDGE_CURVE( '', #291, #291, #292, .T. );
#263 = EDGE_CURVE( '', #293, #293, #294, .F. );
#264 = FILL_AREA_STYLE( '', ( #295 ) );
#265 = EDGE_CURVE( '', #296, #296, #297, .T. );
#266 = EDGE_CURVE( '', #298, #298, #299, .T. );
#267 = FILL_AREA_STYLE( '', ( #300 ) );
#268 = EDGE_CURVE( '', #301, #301, #302, .T. );
#269 = FILL_AREA_STYLE( '', ( #303 ) );
#270 = CARTESIAN_POINT( '', ( 22.0000000000000, 0.000000000000000, 60.0000000000000 ) );
#271 = EDGE_CURVE( '', #304, #304, #305, .T. );
#272 = FILL_AREA_STYLE( '', ( #306 ) );
#273 = EDGE_CURVE( '', #307, #307, #308, .T. );
#274 = EDGE_CURVE( '', #309, #309, #310, .T. );
#275 = FILL_AREA_STYLE( '', ( #311 ) );
#276 = FILL_AREA_STYLE( '', ( #312 ) );
#277 = FILL_AREA_STYLE( '', ( #313 ) );
#278 = FILL_AREA_STYLE( '', ( #314 ) );
#279 = FILL_AREA_STYLE( '', ( #315 ) );
#280 = FILL_AREA_STYLE_COLOUR( '', #316 );
#281 = VERTEX_POINT( '', #317 );
#282 = CIRCLE( '', #318, 50.0000000000000 );
#283 = VERTEX_POINT( '', #319 );
#284 = CIRCLE( '', #320, 51.0000000000000 );
#285 = FILL_AREA_STYLE_COLOUR( '', #321 );
#286 = VERTEX_POINT( '', #322 );
#287 = CIRCLE( '', #323, 6.00000000000000 );
#288 = VERTEX_POINT( '', #324 );
#289 = CIRCLE( '', #325, 13.5000000000000 );
#290 = FILL_AREA_STYLE_COLOUR( '', #326 );
#291 = VERTEX_POINT( '', #327 );
#292 = CIRCLE( '', #328, 13.5000000000000 );
#293 = VERTEX_POINT( '', #329 );
#294 = CIRCLE( '', #330, 6.00000000000000 );
#295 = FILL_AREA_STYLE_COLOUR( '', #331 );
#296 = VERTEX_POINT( '', #332 );
#297 = CIRCLE( '', #333, 13.5000000000000 );
#298 = VERTEX_POINT( '', #334 );
#299 = CIRCLE( '', #335, 46.0000000000000 );
#300 = FILL_AREA_STYLE_COLOUR( '', #336 );
#301 = VERTEX_POINT( '', #337 );
#302 = CIRCLE( '', #338, 13.5000000000000 );
#303 = FILL_AREA_STYLE_COLOUR( '', #339 );
#304 = VERTEX_POINT( '', #340 );
#305 = CIRCLE( '', #341, 51.5000000000000 );
#306 = FILL_AREA_STYLE_COLOUR( '', #342 );
#307 = VERTEX_POINT( '', #343 );
#308 = CIRCLE( '', #344, 45.0000000000000 );
#309 = VERTEX_POINT( '', #345 );
#310 = CIRCLE( '', #346, 50.5000000000000 );
#311 = FILL_AREA_STYLE_COLOUR( '', #347 );
#312 = FILL_AREA_STYLE_COLOUR( '', #348 );
#313 = FILL_AREA_STYLE_COLOUR( '', #349 );
#314 = FILL_AREA_STYLE_COLOUR( '', #350 );
#315 = FILL_AREA_STYLE_COLOUR( '', #351 );
#316 = COLOUR_RGB( '', 0.689999997600000, 0.689999997600000, 0.689999997600000 );
#317 = CARTESIAN_POINT( '', ( 16.5000000000000, 0.000000000000000, 50.0000000000000 ) );
#318 = AXIS2_PLACEMENT_3D( '', #352, #353, #354 );
#319 = CARTESIAN_POINT( '', ( 14.0627460668062, 0.000000000000000, 51.0000000000000 ) );
#320 = AXIS2_PLACEMENT_3D( '', #355, #356, #357 );
#321 = COLOUR_RGB( '', 0.689999997600000, 0.689999997600000, 0.689999997600000 );
#322 = CARTESIAN_POINT( '', ( 0.000000000000000, 0.000000000000000, -6.00000000000000 ) );
#323 = AXIS2_PLACEMENT_3D( '', #358, #359, #360 );
#324 = CARTESIAN_POINT( '', ( 0.000000000000000, 0.000000000000000, 13.5000000000000 ) );
#325 = AXIS2_PLACEMENT_3D( '', #361, #362, #363 );
#326 = COLOUR_RGB( '', 0.689999997600000, 0.689999997600000, 0.689999997600000 );
#327 = CARTESIAN_POINT( '', ( 18.0000000000000, 0.000000000000000, 13.5000000000000 ) );
#328 = AXIS2_PLACEMENT_3D( '', #364, #365, #366 );
#329 = CARTESIAN_POINT( '', ( 18.0000000000000, 0.000000000000000, 6.00000000000000 ) );
#330 = AXIS2_PLACEMENT_3D( '', #367, #368, #369 );
#331 = COLOUR_RGB( '', 0.689999997600000, 0.689999997600000, 0.689999997600000 );
#332 = CARTESIAN_POINT( '', ( 9.00000000000000, 0.000000000000000, 13.5000000000000 ) );
#333 = AXIS2_PLACEMENT_3D( '', #370, #371, #372 );
#334 = CARTESIAN_POINT( '', ( 18.5000000000000, 0.000000000000000, 46.0000000000000 ) );
#335 = AXIS2_PLACEMENT_3D( '', #373, #374, #375 );
#336 = COLOUR_RGB( '', 0.689999997600000, 0.689999997600000, 0.689999997600000 );
#337 = CARTESIAN_POINT( '', ( 14.5000000000000, 0.000000000000000, 13.5000000000000 ) );
#338 = AXIS2_PLACEMENT_3D( '', #376, #377, #378 );
#339 = COLOUR_RGB( '', 0.689999997600000, 0.689999997600000, 0.689999997600000 );
#340 = CARTESIAN_POINT( '', ( 29.9843597113357, 0.000000000000000, 51.5000000000000 ) );
#341 = AXIS2_PLACEMENT_3D( '', #379, #380, #381 );
#342 = COLOUR_RGB( '', 0.689999997600000, 0.689999997600000, 0.689999997600000 );
#343 = CARTESIAN_POINT( '', ( 22.5000000000000, 0.000000000000000, 45.0000000000000 ) );
#344 = AXIS2_PLACEMENT_3D( '', #382, #383, #384 );
#345 = CARTESIAN_POINT( '', ( 27.5000000000000, 0.000000000000000, 50.5000000000000 ) );
#346 = AXIS2_PLACEMENT_3D( '', #385, #386, #387 );
#347 = COLOUR_RGB( '', 0.689999997600000, 0.689999997600000, 0.689999997600000 );
#348 = COLOUR_RGB( '', 0.689999997600000, 0.689999997600000, 0.689999997600000 );
#349 = COLOUR_RGB( '', 0.689999997600000, 0.689999997600000, 0.689999997600000 );
#350 = COLOUR_RGB( '', 0.689999997600000, 0.689999997600000, 0.689999997600000 );
#351 = COLOUR_RGB( '', 0.689999997600000, 0.689999997600000, 0.689999997600000 );
#352 = CARTESIAN_POINT( '', ( 16.5000000000000, 0.000000000000000, 0.000000000000000 ) );
#353 = DIRECTION( '', ( -1.00000000000000, 0.000000000000000, 0.000000000000000 ) );
#354 = DIRECTION( '', ( 0.000000000000000, 0.000000000000000, 1.00000000000000 ) );
#355 = CARTESIAN_POINT( '', ( 14.0627460668062, 0.000000000000000, 0.000000000000000 ) );
#356 = DIRECTION( '', ( -1.00000000000000, 0.000000000000000, 0.000000000000000 ) );
#357 = DIRECTION( '', ( 0.000000000000000, 0.000000000000000, 1.00000000000000 ) );
#358 = CARTESIAN_POINT( '', ( 0.000000000000000, 0.000000000000000, 0.000000000000000 ) );
#359 = DIRECTION( '', ( 1.00000000000000, 0.000000000000000, 0.000000000000000 ) );
#360 = DIRECTION( '', ( 0.000000000000000, 0.000000000000000, -1.00000000000000 ) );
#361 = CARTESIAN_POINT( '', ( 0.000000000000000, 0.000000000000000, 0.000000000000000 ) );
#362 = DIRECTION( '', ( -1.00000000000000, 0.000000000000000, 0.000000000000000 ) );
#363 = DIRECTION( '', ( 0.000000000000000, 0.000000000000000, 1.00000000000000 ) );
#364 = CARTESIAN_POINT( '', ( 18.0000000000000, 0.000000000000000, 0.000000000000000 ) );
#365 = DIRECTION( '', ( -1.00000000000000, 0.000000000000000, 0.000000000000000 ) );
#366 = DIRECTION( '', ( 0.000000000000000, 0.000000000000000, 1.00000000000000 ) );
#367 = CARTESIAN_POINT( '', ( 18.0000000000000, 0.000000000000000, 0.000000000000000 ) );
#368 = DIRECTION( '', ( -1.00000000000000, 0.000000000000000, 0.000000000000000 ) );
#369 = DIRECTION( '', ( 0.000000000000000, 0.000000000000000, 1.00000000000000 ) );
#370 = CARTESIAN_POINT( '', ( 9.00000000000000, 0.000000000000000, 0.000000000000000 ) );
#371 = DIRECTION( '', ( -1.00000000000000, 0.000000000000000, 0.000000000000000 ) );
#372 = DIRECTION( '', ( 0.000000000000000, 0.000000000000000, 1.00000000000000 ) );
#373 = CARTESIAN_POINT( '', ( 18.5000000000000, 0.000000000000000, 0.000000000000000 ) );
#374 = DIRECTION( '', ( -1.00000000000000, 0.000000000000000, 0.000000000000000 ) );
#375 = DIRECTION( '', ( 0.000000000000000, 0.000000000000000, 1.00000000000000 ) );
#376 = CARTESIAN_POINT( '', ( 14.5000000000000, 0.000000000000000, 0.000000000000000 ) );
#377 = DIRECTION( '', ( -1.00000000000000, 0.000000000000000, 0.000000000000000 ) );
#378 = DIRECTION( '', ( 0.000000000000000, 0.000000000000000, 1.00000000000000 ) );
#379 = CARTESIAN_POINT( '', ( 29.9843597113357, 0.000000000000000, 0.000000000000000 ) );
#380 = DIRECTION( '', ( -1.00000000000000, 0.000000000000000, 0.000000000000000 ) );
#381 = DIRECTION( '', ( 0.000000000000000, 0.000000000000000, 1.00000000000000 ) );
#382 = CARTESIAN_POINT( '', ( 22.5000000000000, 0.000000000000000, 0.000000000000000 ) );
#383 = DIRECTION( '', ( -1.00000000000000, 0.000000000000000, 0.000000000000000 ) );
#384 = DIRECTION( '', ( 0.000000000000000, 0.000000000000000, 1.00000000000000 ) );
#385 = CARTESIAN_POINT( '', ( 27.5000000000000, 0.000000000000000, 0.000000000000000 ) );
#386 = DIRECTION( '', ( -1.00000000000000, 0.000000000000000, 0.000000000000000 ) );
#387 = DIRECTION( '', ( 0.000000000000000, 0.000000000000000, 1.00000000000000 ) );
ENDSEC;
END-ISO-10303-21;
