ISO-10303-21;
HEADER;
FILE_DESCRIPTION( ( 'STEP AP214' ), '1' );
FILE_NAME( '//goodhand-server/Shared Folders/GoodHand Data/Kipp CAD/K0390/K0390.161X100.stp', '2020-12-07T10:16:07', ( '' ), ( '' ), ' ', 'PARTsolutions', ' ' );
FILE_SCHEMA( ( 'AUTOMOTIVE_DESIGN { 1 0 10303 214 1 1 1 1 }' ) );
ENDSEC;
DATA;
#1 = MECHANICAL_DESIGN_GEOMETRIC_PRESENTATION_REPRESENTATION( ' ', ( #10, #11, #12, #13, #14, #15, #16, #17, #18, #19, #20, #21, #22 ), #6 );
#2 = PRODUCT_DEFINITION_CONTEXT( '', #23, 'design' );
#3 = APPLICATION_PROTOCOL_DEFINITION( 'international standard', 'automotive_design', 2001, #23 );
#4 = PRODUCT_CATEGORY_RELATIONSHIP( 'NONE', 'NONE', #24, #25 );
#5 = SHAPE_DEFINITION_REPRESENTATION( #26, #27 );
#6 =  ( GEOMETRIC_REPRESENTATION_CONTEXT( 3 )GLOBAL_UNCERTAINTY_ASSIGNED_CONTEXT( ( #30 ) )GLOBAL_UNIT_ASSIGNED_CONTEXT( ( #32, #33, #34 ) )REPRESENTATION_CONTEXT( 'NONE', 'WORKSPACE' ) );
#10 = STYLED_ITEM( '', ( #36 ), #37 );
#11 = STYLED_ITEM( '', ( #38 ), #39 );
#12 = STYLED_ITEM( '', ( #40 ), #41 );
#13 = STYLED_ITEM( '', ( #42 ), #43 );
#14 = STYLED_ITEM( '', ( #44 ), #45 );
#15 = STYLED_ITEM( '', ( #46 ), #47 );
#16 = STYLED_ITEM( '', ( #48 ), #49 );
#17 = STYLED_ITEM( '', ( #50 ), #51 );
#18 = STYLED_ITEM( '', ( #52 ), #53 );
#19 = STYLED_ITEM( '', ( #54 ), #55 );
#20 = STYLED_ITEM( '', ( #56 ), #57 );
#21 = STYLED_ITEM( '', ( #58 ), #59 );
#22 = STYLED_ITEM( '', ( #60 ), #61 );
#23 = APPLICATION_CONTEXT( 'core data for automotive mechanical design processes' );
#24 = PRODUCT_CATEGORY( 'part', 'NONE' );
#25 = PRODUCT_RELATED_PRODUCT_CATEGORY( 'detail', ' ', ( #62 ) );
#26 = PRODUCT_DEFINITION_SHAPE( 'NONE', 'NONE', #63 );
#27 = ADVANCED_BREP_SHAPE_REPRESENTATION( '_K0390.161X100', ( #64, #65 ), #6 );
#30 = UNCERTAINTY_MEASURE_WITH_UNIT( LENGTH_MEASURE( 0.00100000000000000 ), #32, '', '' );
#32 =  ( CONVERSION_BASED_UNIT( 'MILLIMETRE', #68 )LENGTH_UNIT(  )NAMED_UNIT( #71 ) );
#33 =  ( NAMED_UNIT( #73 )PLANE_ANGLE_UNIT(  )SI_UNIT( $, .RADIAN. ) );
#34 =  ( NAMED_UNIT( #73 )SI_UNIT( $, .STERADIAN. )SOLID_ANGLE_UNIT(  ) );
#36 = PRESENTATION_STYLE_ASSIGNMENT( ( #79 ) );
#37 = ADVANCED_FACE( '', ( #80 ), #81, .T. );
#38 = PRESENTATION_STYLE_ASSIGNMENT( ( #82 ) );
#39 = ADVANCED_FACE( '', ( #83 ), #84, .F. );
#40 = PRESENTATION_STYLE_ASSIGNMENT( ( #85 ) );
#41 = ADVANCED_FACE( '', ( #86, #87 ), #88, .T. );
#42 = PRESENTATION_STYLE_ASSIGNMENT( ( #89 ) );
#43 = ADVANCED_FACE( '', ( #90, #91 ), #92, .T. );
#44 = PRESENTATION_STYLE_ASSIGNMENT( ( #93 ) );
#45 = ADVANCED_FACE( '', ( #94 ), #95, .F. );
#46 = PRESENTATION_STYLE_ASSIGNMENT( ( #96 ) );
#47 = ADVANCED_FACE( '', ( #97, #98 ), #99, .T. );
#48 = PRESENTATION_STYLE_ASSIGNMENT( ( #100 ) );
#49 = ADVANCED_FACE( '', ( #101 ), #102, .T. );
#50 = PRESENTATION_STYLE_ASSIGNMENT( ( #103 ) );
#51 = ADVANCED_FACE( '', ( #104, #105 ), #106, .T. );
#52 = PRESENTATION_STYLE_ASSIGNMENT( ( #107 ) );
#53 = ADVANCED_FACE( '', ( #108 ), #109, .F. );
#54 = PRESENTATION_STYLE_ASSIGNMENT( ( #110 ) );
#55 = ADVANCED_FACE( '', ( #111 ), #112, .F. );
#56 = PRESENTATION_STYLE_ASSIGNMENT( ( #113 ) );
#57 = ADVANCED_FACE( '', ( #114 ), #115, .T. );
#58 = PRESENTATION_STYLE_ASSIGNMENT( ( #116 ) );
#59 = ADVANCED_FACE( '', ( #117, #118 ), #119, .F. );
#60 = PRESENTATION_STYLE_ASSIGNMENT( ( #120 ) );
#61 = ADVANCED_FACE( '', ( #121, #122 ), #123, .T. );
#62 = PRODUCT( '_K0390.161X100', '_K0390.161X100', 'PART-_K0390.161X100-DESC', ( #124 ) );
#63 = PRODUCT_DEFINITION( 'NONE', 'NONE', #125, #2 );
#64 = MANIFOLD_SOLID_BREP( '_K0390.161X100', #126 );
#65 = AXIS2_PLACEMENT_3D( '', #127, #128, #129 );
#68 = LENGTH_MEASURE_WITH_UNIT( LENGTH_MEASURE( 1.00000000000000 ), #130 );
#71 = DIMENSIONAL_EXPONENTS( 1.00000000000000, 0.000000000000000, 0.000000000000000, 0.000000000000000, 0.000000000000000, 0.000000000000000, 0.000000000000000 );
#73 = DIMENSIONAL_EXPONENTS( 0.000000000000000, 0.000000000000000, 0.000000000000000, 0.000000000000000, 0.000000000000000, 0.000000000000000, 0.000000000000000 );
#79 = SURFACE_STYLE_USAGE( .BOTH., #131 );
#80 = FACE_OUTER_BOUND( '', #132, .T. );
#81 = PLANE( '', #133 );
#82 = SURFACE_STYLE_USAGE( .BOTH., #134 );
#83 = FACE_OUTER_BOUND( '', #135, .T. );
#84 = PLANE( '', #136 );
#85 = SURFACE_STYLE_USAGE( .BOTH., #137 );
#86 = FACE_BOUND( '', #138, .T. );
#87 = FACE_OUTER_BOUND( '', #139, .T. );
#88 = CONICAL_SURFACE( '', #140, 8.00000000000000, 1.13808724680000 );
#89 = SURFACE_STYLE_USAGE( .BOTH., #141 );
#90 = FACE_OUTER_BOUND( '', #142, .T. );
#91 = FACE_OUTER_BOUND( '', #143, .T. );
#92 = CYLINDRICAL_SURFACE( '', #144, 8.00000000000000 );
#93 = SURFACE_STYLE_USAGE( .BOTH., #145 );
#94 = FACE_OUTER_BOUND( '', #146, .T. );
#95 = PLANE( '', #147 );
#96 = SURFACE_STYLE_USAGE( .BOTH., #148 );
#97 = FACE_OUTER_BOUND( '', #149, .T. );
#98 = FACE_OUTER_BOUND( '', #150, .T. );
#99 = CYLINDRICAL_SURFACE( '', #151, 6.00000000000000 );
#100 = SURFACE_STYLE_USAGE( .BOTH., #152 );
#101 = FACE_OUTER_BOUND( '', #153, .T. );
#102 = CONICAL_SURFACE( '', #154, 6.77300000000000, 0.785398163400000 );
#103 = SURFACE_STYLE_USAGE( .BOTH., #155 );
#104 = FACE_OUTER_BOUND( '', #156, .T. );
#105 = FACE_OUTER_BOUND( '', #157, .T. );
#106 = CYLINDRICAL_SURFACE( '', #158, 5.50000000000000 );
#107 = SURFACE_STYLE_USAGE( .BOTH., #159 );
#108 = FACE_OUTER_BOUND( '', #160, .T. );
#109 = PLANE( '', #161 );
#110 = SURFACE_STYLE_USAGE( .BOTH., #162 );
#111 = FACE_OUTER_BOUND( '', #163, .T. );
#112 = PLANE( '', #164 );
#113 = SURFACE_STYLE_USAGE( .BOTH., #165 );
#114 = FACE_OUTER_BOUND( '', #166, .T. );
#115 = CONICAL_SURFACE( '', #167, 6.77300000000000, 0.785398163400000 );
#116 = SURFACE_STYLE_USAGE( .BOTH., #168 );
#117 = FACE_OUTER_BOUND( '', #169, .T. );
#118 = FACE_BOUND( '', #170, .T. );
#119 = PLANE( '', #171 );
#120 = SURFACE_STYLE_USAGE( .BOTH., #172 );
#121 = FACE_BOUND( '', #173, .T. );
#122 = FACE_OUTER_BOUND( '', #174, .T. );
#123 = SPHERICAL_SURFACE( '', #175, 10.0644000000000 );
#124 = PRODUCT_CONTEXT( '', #23, 'mechanical' );
#125 = PRODUCT_DEFINITION_FORMATION_WITH_SPECIFIED_SOURCE( ' ', 'NONE', #62, .NOT_KNOWN. );
#126 = CLOSED_SHELL( '', ( #55, #45, #61, #47, #59, #51, #41, #43, #57, #53, #49, #39, #37 ) );
#127 = CARTESIAN_POINT( '', ( 0.000000000000000, 0.000000000000000, 0.000000000000000 ) );
#128 = DIRECTION( '', ( 0.000000000000000, 0.000000000000000, 1.00000000000000 ) );
#129 = DIRECTION( '', ( 1.00000000000000, 0.000000000000000, 0.000000000000000 ) );
#130 =  ( LENGTH_UNIT(  )NAMED_UNIT( #71 )SI_UNIT( .MILLI., .METRE. ) );
#131 = SURFACE_SIDE_STYLE( '', ( #177 ) );
#132 = EDGE_LOOP( '', ( #178, #179, #180, #181 ) );
#133 = AXIS2_PLACEMENT_3D( '', #182, #183, #184 );
#134 = SURFACE_SIDE_STYLE( '', ( #185 ) );
#135 = EDGE_LOOP( '', ( #186, #187 ) );
#136 = AXIS2_PLACEMENT_3D( '', #188, #189, #190 );
#137 = SURFACE_SIDE_STYLE( '', ( #191 ) );
#138 = EDGE_LOOP( '', ( #192 ) );
#139 = EDGE_LOOP( '', ( #193 ) );
#140 = AXIS2_PLACEMENT_3D( '', #194, #195, #196 );
#141 = SURFACE_SIDE_STYLE( '', ( #197 ) );
#142 = EDGE_LOOP( '', ( #198 ) );
#143 = EDGE_LOOP( '', ( #199, #200, #201, #202, #203, #204, #205, #206 ) );
#144 = AXIS2_PLACEMENT_3D( '', #207, #208, #209 );
#145 = SURFACE_SIDE_STYLE( '', ( #210 ) );
#146 = EDGE_LOOP( '', ( #211, #212, #213, #214, #215, #216 ) );
#147 = AXIS2_PLACEMENT_3D( '', #217, #218, #219 );
#148 = SURFACE_SIDE_STYLE( '', ( #220 ) );
#149 = EDGE_LOOP( '', ( #221 ) );
#150 = EDGE_LOOP( '', ( #222 ) );
#151 = AXIS2_PLACEMENT_3D( '', #223, #224, #225 );
#152 = SURFACE_SIDE_STYLE( '', ( #226 ) );
#153 = EDGE_LOOP( '', ( #227, #228, #229, #230 ) );
#154 = AXIS2_PLACEMENT_3D( '', #231, #232, #233 );
#155 = SURFACE_SIDE_STYLE( '', ( #234 ) );
#156 = EDGE_LOOP( '', ( #235 ) );
#157 = EDGE_LOOP( '', ( #236 ) );
#158 = AXIS2_PLACEMENT_3D( '', #237, #238, #239 );
#159 = SURFACE_SIDE_STYLE( '', ( #240 ) );
#160 = EDGE_LOOP( '', ( #241, #242 ) );
#161 = AXIS2_PLACEMENT_3D( '', #243, #244, #245 );
#162 = SURFACE_SIDE_STYLE( '', ( #246 ) );
#163 = EDGE_LOOP( '', ( #247, #248, #249, #250, #251, #252 ) );
#164 = AXIS2_PLACEMENT_3D( '', #253, #254, #255 );
#165 = SURFACE_SIDE_STYLE( '', ( #256 ) );
#166 = EDGE_LOOP( '', ( #257, #258, #259, #260 ) );
#167 = AXIS2_PLACEMENT_3D( '', #261, #262, #263 );
#168 = SURFACE_SIDE_STYLE( '', ( #264 ) );
#169 = EDGE_LOOP( '', ( #265 ) );
#170 = EDGE_LOOP( '', ( #266 ) );
#171 = AXIS2_PLACEMENT_3D( '', #267, #268, #269 );
#172 = SURFACE_SIDE_STYLE( '', ( #270 ) );
#173 = VERTEX_LOOP( '', #271 );
#174 = EDGE_LOOP( '', ( #272 ) );
#175 = AXIS2_PLACEMENT_3D( '', #273, #274, #275 );
#177 = SURFACE_STYLE_FILL_AREA( #276 );
#178 = ORIENTED_EDGE( '', *, *, #277, .T. );
#179 = ORIENTED_EDGE( '', *, *, #278, .T. );
#180 = ORIENTED_EDGE( '', *, *, #279, .T. );
#181 = ORIENTED_EDGE( '', *, *, #280, .T. );
#182 = CARTESIAN_POINT( '', ( 3.00000000000000, 0.000000000000000, 0.000000000000000 ) );
#183 = DIRECTION( '', ( -1.00000000000000, 0.000000000000000, 0.000000000000000 ) );
#184 = DIRECTION( '', ( 0.000000000000000, 0.000000000000000, 1.00000000000000 ) );
#185 = SURFACE_STYLE_FILL_AREA( #281 );
#186 = ORIENTED_EDGE( '', *, *, #282, .F. );
#187 = ORIENTED_EDGE( '', *, *, #283, .F. );
#188 = CARTESIAN_POINT( '', ( -2.07363319265626E-16, 1.32286613533378E-14, 0.000000000000000 ) );
#189 = DIRECTION( '', ( 1.00000000000000, -6.12323399573676E-17, -0.000000000000000 ) );
#190 = DIRECTION( '', ( 6.12323399573676E-17, 1.00000000000000, 0.000000000000000 ) );
#191 = SURFACE_STYLE_FILL_AREA( #284 );
#192 = ORIENTED_EDGE( '', *, *, #285, .F. );
#193 = ORIENTED_EDGE( '', *, *, #286, .T. );
#194 = CARTESIAN_POINT( '', ( 88.0000000000000, 7.84021543708941E-15, 0.000000000000000 ) );
#195 = DIRECTION( '', ( -1.00000000000000, 6.12323399573676E-17, -0.000000000000000 ) );
#196 = DIRECTION( '', ( -6.12323399573676E-17, -1.00000000000000, 0.000000000000000 ) );
#197 = SURFACE_STYLE_FILL_AREA( #287 );
#198 = ORIENTED_EDGE( '', *, *, #286, .F. );
#199 = ORIENTED_EDGE( '', *, *, #288, .T. );
#200 = ORIENTED_EDGE( '', *, *, #289, .T. );
#201 = ORIENTED_EDGE( '', *, *, #277, .F. );
#202 = ORIENTED_EDGE( '', *, *, #290, .T. );
#203 = ORIENTED_EDGE( '', *, *, #291, .T. );
#204 = ORIENTED_EDGE( '', *, *, #292, .T. );
#205 = ORIENTED_EDGE( '', *, *, #279, .F. );
#206 = ORIENTED_EDGE( '', *, *, #293, .T. );
#207 = CARTESIAN_POINT( '', ( 100.000000000000, 7.10542735760100E-15, 0.000000000000000 ) );
#208 = DIRECTION( '', ( -1.00000000000000, 6.12323399573676E-17, 0.000000000000000 ) );
#209 = DIRECTION( '', ( 6.12323399573676E-17, 1.00000000000000, 0.000000000000000 ) );
#210 = SURFACE_STYLE_FILL_AREA( #294 );
#211 = ORIENTED_EDGE( '', *, *, #295, .T. );
#212 = ORIENTED_EDGE( '', *, *, #296, .F. );
#213 = ORIENTED_EDGE( '', *, *, #293, .F. );
#214 = ORIENTED_EDGE( '', *, *, #278, .F. );
#215 = ORIENTED_EDGE( '', *, *, #289, .F. );
#216 = ORIENTED_EDGE( '', *, *, #297, .F. );
#217 = CARTESIAN_POINT( '', ( 3.00000000000000, -0.899999999999987, -10.5000000000000 ) );
#218 = DIRECTION( '', ( 0.000000000000000, -1.00000000000000, 0.000000000000000 ) );
#219 = DIRECTION( '', ( 0.000000000000000, 0.000000000000000, -1.00000000000000 ) );
#220 = SURFACE_STYLE_FILL_AREA( #298 );
#221 = ORIENTED_EDGE( '', *, *, #299, .F. );
#222 = ORIENTED_EDGE( '', *, *, #300, .T. );
#223 = CARTESIAN_POINT( '', ( 100.000000000000, 7.10542735760100E-15, 0.000000000000000 ) );
#224 = DIRECTION( '', ( -1.00000000000000, 6.12323399573677E-17, 0.000000000000000 ) );
#225 = DIRECTION( '', ( 6.12323399573677E-17, 1.00000000000000, 0.000000000000000 ) );
#226 = SURFACE_STYLE_FILL_AREA( #301 );
#227 = ORIENTED_EDGE( '', *, *, #288, .F. );
#228 = ORIENTED_EDGE( '', *, *, #296, .T. );
#229 = ORIENTED_EDGE( '', *, *, #302, .T. );
#230 = ORIENTED_EDGE( '', *, *, #297, .T. );
#231 = CARTESIAN_POINT( '', ( 0.000000000000000, 1.32286613533378E-14, 0.000000000000000 ) );
#232 = DIRECTION( '', ( 1.00000000000000, -6.12323399573676E-17, -0.000000000000000 ) );
#233 = DIRECTION( '', ( 6.12323399573676E-17, 1.00000000000000, 0.000000000000000 ) );
#234 = SURFACE_STYLE_FILL_AREA( #303 );
#235 = ORIENTED_EDGE( '', *, *, #304, .F. );
#236 = ORIENTED_EDGE( '', *, *, #285, .T. );
#237 = CARTESIAN_POINT( '', ( 100.000000000000, 7.10542735760100E-15, 0.000000000000000 ) );
#238 = DIRECTION( '', ( -1.00000000000000, 6.12323399573676E-17, 0.000000000000000 ) );
#239 = DIRECTION( '', ( 6.12323399573676E-17, 1.00000000000000, 0.000000000000000 ) );
#240 = SURFACE_STYLE_FILL_AREA( #305 );
#241 = ORIENTED_EDGE( '', *, *, #302, .F. );
#242 = ORIENTED_EDGE( '', *, *, #295, .F. );
#243 = CARTESIAN_POINT( '', ( -2.07363319265626E-16, 1.32286613533378E-14, 0.000000000000000 ) );
#244 = DIRECTION( '', ( 1.00000000000000, -6.12323399573676E-17, -0.000000000000000 ) );
#245 = DIRECTION( '', ( 6.12323399573676E-17, 1.00000000000000, 0.000000000000000 ) );
#246 = SURFACE_STYLE_FILL_AREA( #306 );
#247 = ORIENTED_EDGE( '', *, *, #307, .F. );
#248 = ORIENTED_EDGE( '', *, *, #283, .T. );
#249 = ORIENTED_EDGE( '', *, *, #308, .F. );
#250 = ORIENTED_EDGE( '', *, *, #290, .F. );
#251 = ORIENTED_EDGE( '', *, *, #280, .F. );
#252 = ORIENTED_EDGE( '', *, *, #292, .F. );
#253 = CARTESIAN_POINT( '', ( 3.00000000000000, 0.900000000000013, 10.5000000000000 ) );
#254 = DIRECTION( '', ( 0.000000000000000, 1.00000000000000, 0.000000000000000 ) );
#255 = DIRECTION( '', ( 0.000000000000000, -0.000000000000000, 1.00000000000000 ) );
#256 = SURFACE_STYLE_FILL_AREA( #309 );
#257 = ORIENTED_EDGE( '', *, *, #282, .T. );
#258 = ORIENTED_EDGE( '', *, *, #307, .T. );
#259 = ORIENTED_EDGE( '', *, *, #291, .F. );
#260 = ORIENTED_EDGE( '', *, *, #308, .T. );
#261 = CARTESIAN_POINT( '', ( 0.000000000000000, 1.32286613533378E-14, 0.000000000000000 ) );
#262 = DIRECTION( '', ( 1.00000000000000, -6.12323399573676E-17, -0.000000000000000 ) );
#263 = DIRECTION( '', ( 6.12323399573676E-17, 1.00000000000000, 0.000000000000000 ) );
#264 = SURFACE_STYLE_FILL_AREA( #310 );
#265 = ORIENTED_EDGE( '', *, *, #300, .F. );
#266 = ORIENTED_EDGE( '', *, *, #304, .T. );
#267 = CARTESIAN_POINT( '', ( 95.0000000000000, 5.50000000000001, 0.000000000000000 ) );
#268 = DIRECTION( '', ( 1.00000000000000, -6.12323399573676E-17, -0.000000000000000 ) );
#269 = DIRECTION( '', ( 6.12323399573676E-17, 1.00000000000000, 0.000000000000000 ) );
#270 = SURFACE_STYLE_FILL_AREA( #311 );
#271 = VERTEX_POINT( '', #312 );
#272 = ORIENTED_EDGE( '', *, *, #299, .T. );
#273 = CARTESIAN_POINT( '', ( 89.9356000000002, 5.81132364452230E-14, 0.000000000000000 ) );
#274 = DIRECTION( '', ( 1.00000000000000, 0.000000000000000, 0.000000000000000 ) );
#275 = DIRECTION( '', ( 0.000000000000000, -1.00000000000000, 0.000000000000000 ) );
#276 = FILL_AREA_STYLE( '', ( #313 ) );
#277 = EDGE_CURVE( '', #314, #315, #316, .T. );
#278 = EDGE_CURVE( '', #315, #317, #318, .T. );
#279 = EDGE_CURVE( '', #317, #319, #320, .T. );
#280 = EDGE_CURVE( '', #319, #314, #321, .T. );
#281 = FILL_AREA_STYLE( '', ( #322 ) );
#282 = EDGE_CURVE( '', #323, #324, #325, .T. );
#283 = EDGE_CURVE( '', #324, #323, #326, .T. );
#284 = FILL_AREA_STYLE( '', ( #327 ) );
#285 = EDGE_CURVE( '', #328, #328, #329, .T. );
#286 = EDGE_CURVE( '', #330, #330, #331, .T. );
#287 = FILL_AREA_STYLE( '', ( #332 ) );
#288 = EDGE_CURVE( '', #333, #334, #335, .T. );
#289 = EDGE_CURVE( '', #334, #315, #336, .T. );
#290 = EDGE_CURVE( '', #314, #337, #338, .F. );
#291 = EDGE_CURVE( '', #337, #339, #340, .T. );
#292 = EDGE_CURVE( '', #339, #319, #341, .T. );
#293 = EDGE_CURVE( '', #317, #333, #342, .F. );
#294 = FILL_AREA_STYLE( '', ( #343 ) );
#295 = EDGE_CURVE( '', #344, #345, #346, .T. );
#296 = EDGE_CURVE( '', #333, #345, #347, .T. );
#297 = EDGE_CURVE( '', #344, #334, #348, .T. );
#298 = FILL_AREA_STYLE( '', ( #349 ) );
#299 = EDGE_CURVE( '', #350, #350, #351, .T. );
#300 = EDGE_CURVE( '', #352, #352, #353, .T. );
#301 = FILL_AREA_STYLE( '', ( #354 ) );
#302 = EDGE_CURVE( '', #345, #344, #355, .T. );
#303 = FILL_AREA_STYLE( '', ( #356 ) );
#304 = EDGE_CURVE( '', #357, #357, #358, .T. );
#305 = FILL_AREA_STYLE( '', ( #359 ) );
#306 = FILL_AREA_STYLE( '', ( #360 ) );
#307 = EDGE_CURVE( '', #324, #339, #361, .T. );
#308 = EDGE_CURVE( '', #337, #323, #362, .T. );
#309 = FILL_AREA_STYLE( '', ( #363 ) );
#310 = FILL_AREA_STYLE( '', ( #364 ) );
#311 = FILL_AREA_STYLE( '', ( #365 ) );
#312 = CARTESIAN_POINT( '', ( 100.000000000000, 5.68807029206892E-14, 0.000000000000000 ) );
#313 = FILL_AREA_STYLE_COLOUR( '', #366 );
#314 = VERTEX_POINT( '', #367 );
#315 = VERTEX_POINT( '', #368 );
#316 = CIRCLE( '', #369, 8.00000000000000 );
#317 = VERTEX_POINT( '', #370 );
#318 = LINE( '', #371, #372 );
#319 = VERTEX_POINT( '', #373 );
#320 = CIRCLE( '', #374, 8.00000000000000 );
#321 = LINE( '', #375, #376 );
#322 = FILL_AREA_STYLE_COLOUR( '', #377 );
#323 = VERTEX_POINT( '', #378 );
#324 = VERTEX_POINT( '', #379 );
#325 = CIRCLE( '', #380, 6.77300000000000 );
#326 = LINE( '', #381, #382 );
#327 = FILL_AREA_STYLE_COLOUR( '', #383 );
#328 = VERTEX_POINT( '', #384 );
#329 = CIRCLE( '', #385, 5.50000000000000 );
#330 = VERTEX_POINT( '', #386 );
#331 = CIRCLE( '', #387, 8.00000000000000 );
#332 = FILL_AREA_STYLE_COLOUR( '', #388 );
#333 = VERTEX_POINT( '', #389 );
#334 = VERTEX_POINT( '', #390 );
#335 = CIRCLE( '', #391, 8.00000000000000 );
#336 = LINE( '', #392, #393 );
#337 = VERTEX_POINT( '', #394 );
#338 = LINE( '', #395, #396 );
#339 = VERTEX_POINT( '', #397 );
#340 = CIRCLE( '', #398, 8.00000000000000 );
#341 = LINE( '', #399, #400 );
#342 = LINE( '', #401, #402 );
#343 = FILL_AREA_STYLE_COLOUR( '', #403 );
#344 = VERTEX_POINT( '', #404 );
#345 = VERTEX_POINT( '', #405 );
#346 = LINE( '', #406, #407 );
#347 = B_SPLINE_CURVE_WITH_KNOTS( '', 3, ( #408, #409, #410, #411 ), .UNSPECIFIED., .F., .F., ( 4, 4 ), ( 0.0136362270213629, 0.0153780387903499 ), .UNSPECIFIED. );
#348 = B_SPLINE_CURVE_WITH_KNOTS( '', 3, ( #412, #413, #414, #415 ), .UNSPECIFIED., .F., .F., ( 4, 4 ), ( 0.0333752047769191, 0.0351188466568865 ), .UNSPECIFIED. );
#349 = FILL_AREA_STYLE_COLOUR( '', #416 );
#350 = VERTEX_POINT( '', #417 );
#351 = CIRCLE( '', #418, 6.00000000000000 );
#352 = VERTEX_POINT( '', #419 );
#353 = CIRCLE( '', #420, 6.00000000000000 );
#354 = FILL_AREA_STYLE_COLOUR( '', #421 );
#355 = CIRCLE( '', #422, 6.77300000000000 );
#356 = FILL_AREA_STYLE_COLOUR( '', #423 );
#357 = VERTEX_POINT( '', #424 );
#358 = CIRCLE( '', #425, 5.50000000000000 );
#359 = FILL_AREA_STYLE_COLOUR( '', #426 );
#360 = FILL_AREA_STYLE_COLOUR( '', #427 );
#361 = B_SPLINE_CURVE_WITH_KNOTS( '', 3, ( #428, #429, #430, #431 ), .UNSPECIFIED., .F., .F., ( 4, 4 ), ( 0.0333752047769191, 0.0351188466568865 ), .UNSPECIFIED. );
#362 = B_SPLINE_CURVE_WITH_KNOTS( '', 3, ( #432, #433, #434, #435 ), .UNSPECIFIED., .F., .F., ( 4, 4 ), ( 0.0136362270213629, 0.0153780387903499 ), .UNSPECIFIED. );
#363 = FILL_AREA_STYLE_COLOUR( '', #436 );
#364 = FILL_AREA_STYLE_COLOUR( '', #437 );
#365 = FILL_AREA_STYLE_COLOUR( '', #438 );
#366 = COLOUR_RGB( '', 0.689999997600000, 0.689999997600000, 0.689999997600000 );
#367 = CARTESIAN_POINT( '', ( 3.00000000000000, 0.900000000000013, -7.94921379760288 ) );
#368 = CARTESIAN_POINT( '', ( 3.00000000000000, -0.899999999999987, -7.94921379760288 ) );
#369 = AXIS2_PLACEMENT_3D( '', #439, #440, #441 );
#370 = CARTESIAN_POINT( '', ( 3.00000000000000, -0.899999999999987, 7.94921379760288 ) );
#371 = CARTESIAN_POINT( '', ( 3.00000000000000, -0.899999999999987, -10.5000000000000 ) );
#372 = VECTOR( '', #442, 1000.00000000000 );
#373 = CARTESIAN_POINT( '', ( 3.00000000000000, 0.900000000000013, 7.94921379760288 ) );
#374 = AXIS2_PLACEMENT_3D( '', #443, #444, #445 );
#375 = CARTESIAN_POINT( '', ( 3.00000000000000, 0.900000000000013, 10.5000000000000 ) );
#376 = VECTOR( '', #446, 1000.00000000000 );
#377 = COLOUR_RGB( '', 0.689999997600000, 0.689999997600000, 0.689999997600000 );
#378 = CARTESIAN_POINT( '', ( 0.000000000000000, 0.900000000000013, -6.71293743453639 ) );
#379 = CARTESIAN_POINT( '', ( 0.000000000000000, 0.900000000000013, 6.71293743453639 ) );
#380 = AXIS2_PLACEMENT_3D( '', #447, #448, #449 );
#381 = CARTESIAN_POINT( '', ( 0.000000000000000, 0.900000000000013, 10.5000000000000 ) );
#382 = VECTOR( '', #450, 1000.00000000000 );
#383 = COLOUR_RGB( '', 0.689999997600000, 0.689999997600000, 0.689999997600000 );
#384 = CARTESIAN_POINT( '', ( 89.1547600000000, 5.50000000000001, 0.000000000000000 ) );
#385 = AXIS2_PLACEMENT_3D( '', #451, #452, #453 );
#386 = CARTESIAN_POINT( '', ( 88.0000000000000, 8.00000000000001, 0.000000000000000 ) );
#387 = AXIS2_PLACEMENT_3D( '', #454, #455, #456 );
#388 = COLOUR_RGB( '', 0.689999997600000, 0.689999997600000, 0.689999997600000 );
#389 = CARTESIAN_POINT( '', ( 1.22700000000001, -0.899999999999981, 7.94921379760288 ) );
#390 = CARTESIAN_POINT( '', ( 1.22700000000001, -0.899999999999981, -7.94921379760288 ) );
#391 = AXIS2_PLACEMENT_3D( '', #457, #458, #459 );
#392 = CARTESIAN_POINT( '', ( 100.000000000000, -0.899999999999987, -7.94921379760288 ) );
#393 = VECTOR( '', #460, 1000.00000000000 );
#394 = CARTESIAN_POINT( '', ( 1.22700000000001, 0.900000000000019, -7.94921379760288 ) );
#395 = CARTESIAN_POINT( '', ( 100.000000000000, 0.900000000000013, -7.94921379760288 ) );
#396 = VECTOR( '', #461, 1000.00000000000 );
#397 = CARTESIAN_POINT( '', ( 1.22700000000001, 0.900000000000019, 7.94921379760288 ) );
#398 = AXIS2_PLACEMENT_3D( '', #462, #463, #464 );
#399 = CARTESIAN_POINT( '', ( 100.000000000000, 0.900000000000013, 7.94921379760288 ) );
#400 = VECTOR( '', #465, 1000.00000000000 );
#401 = CARTESIAN_POINT( '', ( 100.000000000000, -0.899999999999987, 7.94921379760288 ) );
#402 = VECTOR( '', #466, 1000.00000000000 );
#403 = COLOUR_RGB( '', 0.689999997600000, 0.689999997600000, 0.689999997600000 );
#404 = CARTESIAN_POINT( '', ( 0.000000000000000, -0.899999999999987, -6.71293743453639 ) );
#405 = CARTESIAN_POINT( '', ( 0.000000000000000, -0.899999999999987, 6.71293743453639 ) );
#406 = CARTESIAN_POINT( '', ( 0.000000000000000, -0.899999999999987, -10.5000000000000 ) );
#407 = VECTOR( '', #467, 1000.00000000000 );
#408 = CARTESIAN_POINT( '', ( 1.22700000000001, -0.899999999999987, 7.94921379760288 ) );
#409 = CARTESIAN_POINT( '', ( 0.817760310665018, -0.899999999999987, 7.53735954408323 ) );
#410 = CARTESIAN_POINT( '', ( 0.408716531538591, -0.899999999999987, 7.12531086943078 ) );
#411 = CARTESIAN_POINT( '', ( -4.23240815688017E-16, -0.899999999999987, 6.71293743453639 ) );
#412 = CARTESIAN_POINT( '', ( -1.07703154085691E-15, -0.899999999999987, -6.71293743453639 ) );
#413 = CARTESIAN_POINT( '', ( 0.408715634480827, -0.899999999999987, -7.12530996434678 ) );
#414 = CARTESIAN_POINT( '', ( 0.817759551175691, -0.899999999999987, -7.53735877974165 ) );
#415 = CARTESIAN_POINT( '', ( 1.22700000000001, -0.899999999999987, -7.94921379760288 ) );
#416 = COLOUR_RGB( '', 0.689999997600000, 0.689999997600000, 0.689999997600000 );
#417 = CARTESIAN_POINT( '', ( 98.0159556456384, 6.00000000000001, 0.000000000000000 ) );
#418 = AXIS2_PLACEMENT_3D( '', #468, #469, #470 );
#419 = CARTESIAN_POINT( '', ( 95.0000000000000, 6.00000000000001, 0.000000000000000 ) );
#420 = AXIS2_PLACEMENT_3D( '', #471, #472, #473 );
#421 = COLOUR_RGB( '', 0.689999997600000, 0.689999997600000, 0.689999997600000 );
#422 = AXIS2_PLACEMENT_3D( '', #474, #475, #476 );
#423 = COLOUR_RGB( '', 0.689999997600000, 0.689999997600000, 0.689999997600000 );
#424 = CARTESIAN_POINT( '', ( 95.0000000000000, 5.50000000000001, 0.000000000000000 ) );
#425 = AXIS2_PLACEMENT_3D( '', #477, #478, #479 );
#426 = COLOUR_RGB( '', 0.689999997600000, 0.689999997600000, 0.689999997600000 );
#427 = COLOUR_RGB( '', 0.689999997600000, 0.689999997600000, 0.689999997600000 );
#428 = CARTESIAN_POINT( '', ( 1.57996991932588E-15, 0.900000000000013, 6.71293743453639 ) );
#429 = CARTESIAN_POINT( '', ( 0.408715634480828, 0.900000000000013, 7.12530996434678 ) );
#430 = CARTESIAN_POINT( '', ( 0.817759551175691, 0.900000000000013, 7.53735877974164 ) );
#431 = CARTESIAN_POINT( '', ( 1.22700000000001, 0.900000000000013, 7.94921379760288 ) );
#432 = CARTESIAN_POINT( '', ( 1.22700000000001, 0.900000000000013, -7.94921379760288 ) );
#433 = CARTESIAN_POINT( '', ( 0.817760310665018, 0.900000000000013, -7.53735954408323 ) );
#434 = CARTESIAN_POINT( '', ( 0.408716531538592, 0.900000000000013, -7.12531086943078 ) );
#435 = CARTESIAN_POINT( '', ( -7.96123082478959E-16, 0.900000000000013, -6.71293743453639 ) );
#436 = COLOUR_RGB( '', 0.689999997600000, 0.689999997600000, 0.689999997600000 );
#437 = COLOUR_RGB( '', 0.689999997600000, 0.689999997600000, 0.689999997600000 );
#438 = COLOUR_RGB( '', 0.689999997600000, 0.689999997600000, 0.689999997600000 );
#439 = CARTESIAN_POINT( '', ( 3.00000000000000, 1.30449643334657E-14, 0.000000000000000 ) );
#440 = DIRECTION( '', ( -1.00000000000000, 0.000000000000000, 0.000000000000000 ) );
#441 = DIRECTION( '', ( 0.000000000000000, 0.000000000000000, 1.00000000000000 ) );
#442 = DIRECTION( '', ( 0.000000000000000, 0.000000000000000, 1.00000000000000 ) );
#443 = CARTESIAN_POINT( '', ( 3.00000000000000, 1.30449643334657E-14, 0.000000000000000 ) );
#444 = DIRECTION( '', ( -1.00000000000000, 0.000000000000000, 0.000000000000000 ) );
#445 = DIRECTION( '', ( 0.000000000000000, 0.000000000000000, 1.00000000000000 ) );
#446 = DIRECTION( '', ( 0.000000000000000, 0.000000000000000, -1.00000000000000 ) );
#447 = CARTESIAN_POINT( '', ( 0.000000000000000, 1.32286613533378E-14, 0.000000000000000 ) );
#448 = DIRECTION( '', ( 1.00000000000000, -6.12323399573676E-17, -0.000000000000000 ) );
#449 = DIRECTION( '', ( 6.12323399573676E-17, 1.00000000000000, 0.000000000000000 ) );
#450 = DIRECTION( '', ( 0.000000000000000, 0.000000000000000, -1.00000000000000 ) );
#451 = CARTESIAN_POINT( '', ( 89.1547600000000, 7.76950678020024E-15, 0.000000000000000 ) );
#452 = DIRECTION( '', ( 1.00000000000000, -6.12323399573676E-17, -0.000000000000000 ) );
#453 = DIRECTION( '', ( 6.12323399573676E-17, 1.00000000000000, 0.000000000000000 ) );
#454 = CARTESIAN_POINT( '', ( 88.0000000000000, 7.84021543708941E-15, 0.000000000000000 ) );
#455 = DIRECTION( '', ( 1.00000000000000, -6.12323399573676E-17, -0.000000000000000 ) );
#456 = DIRECTION( '', ( 6.12323399573676E-17, 1.00000000000000, 0.000000000000000 ) );
#457 = CARTESIAN_POINT( '', ( 1.22700000000001, 1.31535292722101E-14, 0.000000000000000 ) );
#458 = DIRECTION( '', ( 1.00000000000000, -6.12323399573676E-17, -0.000000000000000 ) );
#459 = DIRECTION( '', ( 6.12323399573676E-17, 1.00000000000000, 0.000000000000000 ) );
#460 = DIRECTION( '', ( 1.00000000000000, -6.12323399573676E-17, -0.000000000000000 ) );
#461 = DIRECTION( '', ( 1.00000000000000, -6.12323399573676E-17, -0.000000000000000 ) );
#462 = CARTESIAN_POINT( '', ( 1.22700000000001, 1.31535292722101E-14, 0.000000000000000 ) );
#463 = DIRECTION( '', ( 1.00000000000000, -6.12323399573676E-17, -0.000000000000000 ) );
#464 = DIRECTION( '', ( 6.12323399573676E-17, 1.00000000000000, 0.000000000000000 ) );
#465 = DIRECTION( '', ( 1.00000000000000, -6.12323399573676E-17, -0.000000000000000 ) );
#466 = DIRECTION( '', ( 1.00000000000000, -6.12323399573676E-17, -0.000000000000000 ) );
#467 = DIRECTION( '', ( 0.000000000000000, 0.000000000000000, 1.00000000000000 ) );
#468 = CARTESIAN_POINT( '', ( 98.0159556456384, 7.22691503599777E-15, 0.000000000000000 ) );
#469 = DIRECTION( '', ( 1.00000000000000, -6.12323399573677E-17, -0.000000000000000 ) );
#470 = DIRECTION( '', ( 6.12323399573677E-17, 1.00000000000000, 0.000000000000000 ) );
#471 = CARTESIAN_POINT( '', ( 95.0000000000000, 7.41158905738784E-15, 0.000000000000000 ) );
#472 = DIRECTION( '', ( 1.00000000000000, -6.12323399573677E-17, -0.000000000000000 ) );
#473 = DIRECTION( '', ( 6.12323399573677E-17, 1.00000000000000, 0.000000000000000 ) );
#474 = CARTESIAN_POINT( '', ( 0.000000000000000, 1.32286613533378E-14, 0.000000000000000 ) );
#475 = DIRECTION( '', ( 1.00000000000000, -6.12323399573676E-17, -0.000000000000000 ) );
#476 = DIRECTION( '', ( 6.12323399573676E-17, 1.00000000000000, 0.000000000000000 ) );
#477 = CARTESIAN_POINT( '', ( 95.0000000000000, 7.41158905738784E-15, 0.000000000000000 ) );
#478 = DIRECTION( '', ( 1.00000000000000, -6.12323399573676E-17, -0.000000000000000 ) );
#479 = DIRECTION( '', ( 6.12323399573676E-17, 1.00000000000000, 0.000000000000000 ) );
ENDSEC;
END-ISO-10303-21;
