ISO-10303-21;
HEADER;
FILE_DESCRIPTION( ( 'STEP AP214' ), '1' );
FILE_NAME( '//goodhand-server/Shared Folders/GoodHand Data/Kipp CAD/K0713/K0713.1914.stp', '2020-12-09T12:39:17', ( '' ), ( '' ), ' ', 'PARTsolutions', ' ' );
FILE_SCHEMA( ( 'AUTOMOTIVE_DESIGN { 1 0 10303 214 1 1 1 1 }' ) );
ENDSEC;
DATA;
#1 = MECHANICAL_DESIGN_GEOMETRIC_PRESENTATION_REPRESENTATION( ' ', ( #10, #11, #12, #13, #14, #15, #16, #17, #18, #19, #20 ), #6 );
#2 = PRODUCT_DEFINITION_CONTEXT( '', #21, 'design' );
#3 = APPLICATION_PROTOCOL_DEFINITION( 'international standard', 'automotive_design', 2001, #21 );
#4 = PRODUCT_CATEGORY_RELATIONSHIP( 'NONE', 'NONE', #22, #23 );
#5 = SHAPE_DEFINITION_REPRESENTATION( #24, #25 );
#6 =  ( GEOMETRIC_REPRESENTATION_CONTEXT( 3 )GLOBAL_UNCERTAINTY_ASSIGNED_CONTEXT( ( #28 ) )GLOBAL_UNIT_ASSIGNED_CONTEXT( ( #30, #31, #32 ) )REPRESENTATION_CONTEXT( 'NONE', 'WORKSPACE' ) );
#10 = STYLED_ITEM( '', ( #34 ), #35 );
#11 = STYLED_ITEM( '', ( #36 ), #37 );
#12 = STYLED_ITEM( '', ( #38 ), #39 );
#13 = STYLED_ITEM( '', ( #40 ), #41 );
#14 = STYLED_ITEM( '', ( #42 ), #43 );
#15 = STYLED_ITEM( '', ( #44 ), #45 );
#16 = STYLED_ITEM( '', ( #46 ), #47 );
#17 = STYLED_ITEM( '', ( #48 ), #49 );
#18 = STYLED_ITEM( '', ( #50 ), #51 );
#19 = STYLED_ITEM( '', ( #52 ), #53 );
#20 = STYLED_ITEM( '', ( #54 ), #55 );
#21 = APPLICATION_CONTEXT( 'core data for automotive mechanical design processes' );
#22 = PRODUCT_CATEGORY( 'part', 'NONE' );
#23 = PRODUCT_RELATED_PRODUCT_CATEGORY( 'detail', ' ', ( #56 ) );
#24 = PRODUCT_DEFINITION_SHAPE( 'NONE', 'NONE', #57 );
#25 = ADVANCED_BREP_SHAPE_REPRESENTATION( '_K0713.1914', ( #58, #59 ), #6 );
#28 = UNCERTAINTY_MEASURE_WITH_UNIT( LENGTH_MEASURE( 0.00100000000000000 ), #30, '', '' );
#30 =  ( CONVERSION_BASED_UNIT( 'MILLIMETRE', #62 )LENGTH_UNIT(  )NAMED_UNIT( #65 ) );
#31 =  ( NAMED_UNIT( #67 )PLANE_ANGLE_UNIT(  )SI_UNIT( $, .RADIAN. ) );
#32 =  ( NAMED_UNIT( #67 )SI_UNIT( $, .STERADIAN. )SOLID_ANGLE_UNIT(  ) );
#34 = PRESENTATION_STYLE_ASSIGNMENT( ( #73 ) );
#35 = ADVANCED_FACE( '', ( #74, #75 ), #76, .F. );
#36 = PRESENTATION_STYLE_ASSIGNMENT( ( #77 ) );
#37 = ADVANCED_FACE( '', ( #78 ), #79, .T. );
#38 = PRESENTATION_STYLE_ASSIGNMENT( ( #80 ) );
#39 = ADVANCED_FACE( '', ( #81 ), #82, .T. );
#40 = PRESENTATION_STYLE_ASSIGNMENT( ( #83 ) );
#41 = ADVANCED_FACE( '', ( #84 ), #85, .T. );
#42 = PRESENTATION_STYLE_ASSIGNMENT( ( #86 ) );
#43 = ADVANCED_FACE( '', ( #87 ), #88, .F. );
#44 = PRESENTATION_STYLE_ASSIGNMENT( ( #89 ) );
#45 = ADVANCED_FACE( '', ( #90, #91 ), #92, .F. );
#46 = PRESENTATION_STYLE_ASSIGNMENT( ( #93 ) );
#47 = ADVANCED_FACE( '', ( #94, #95 ), #96, .T. );
#48 = PRESENTATION_STYLE_ASSIGNMENT( ( #97 ) );
#49 = ADVANCED_FACE( '', ( #98, #99 ), #100, .T. );
#50 = PRESENTATION_STYLE_ASSIGNMENT( ( #101 ) );
#51 = ADVANCED_FACE( '', ( #102 ), #103, .T. );
#52 = PRESENTATION_STYLE_ASSIGNMENT( ( #104 ) );
#53 = ADVANCED_FACE( '', ( #105, #106 ), #107, .T. );
#54 = PRESENTATION_STYLE_ASSIGNMENT( ( #108 ) );
#55 = ADVANCED_FACE( '', ( #109, #110 ), #111, .T. );
#56 = PRODUCT( '_K0713.1914', '_K0713.1914', 'PART-_K0713.1914-DESC', ( #112 ) );
#57 = PRODUCT_DEFINITION( 'NONE', 'NONE', #113, #2 );
#58 = MANIFOLD_SOLID_BREP( '_K0713.1914', #114 );
#59 = AXIS2_PLACEMENT_3D( '', #115, #116, #117 );
#62 = LENGTH_MEASURE_WITH_UNIT( LENGTH_MEASURE( 1.00000000000000 ), #118 );
#65 = DIMENSIONAL_EXPONENTS( 1.00000000000000, 0.000000000000000, 0.000000000000000, 0.000000000000000, 0.000000000000000, 0.000000000000000, 0.000000000000000 );
#67 = DIMENSIONAL_EXPONENTS( 0.000000000000000, 0.000000000000000, 0.000000000000000, 0.000000000000000, 0.000000000000000, 0.000000000000000, 0.000000000000000 );
#73 = SURFACE_STYLE_USAGE( .BOTH., #119 );
#74 = FACE_OUTER_BOUND( '', #120, .T. );
#75 = FACE_BOUND( '', #121, .T. );
#76 = PLANE( '', #122 );
#77 = SURFACE_STYLE_USAGE( .BOTH., #123 );
#78 = FACE_OUTER_BOUND( '', #124, .T. );
#79 = PLANE( '', #125 );
#80 = SURFACE_STYLE_USAGE( .BOTH., #126 );
#81 = FACE_OUTER_BOUND( '', #127, .T. );
#82 = CYLINDRICAL_SURFACE( '', #128, 9.50000000000000 );
#83 = SURFACE_STYLE_USAGE( .BOTH., #129 );
#84 = FACE_OUTER_BOUND( '', #130, .T. );
#85 = PLANE( '', #131 );
#86 = SURFACE_STYLE_USAGE( .BOTH., #132 );
#87 = FACE_OUTER_BOUND( '', #133, .T. );
#88 = PLANE( '', #134 );
#89 = SURFACE_STYLE_USAGE( .BOTH., #135 );
#90 = FACE_BOUND( '', #136, .T. );
#91 = FACE_OUTER_BOUND( '', #137, .T. );
#92 = PLANE( '', #138 );
#93 = SURFACE_STYLE_USAGE( .BOTH., #139 );
#94 = FACE_OUTER_BOUND( '', #140, .T. );
#95 = FACE_OUTER_BOUND( '', #141, .T. );
#96 = SPHERICAL_SURFACE( '', #142, 9.50000000000000 );
#97 = SURFACE_STYLE_USAGE( .BOTH., #143 );
#98 = FACE_BOUND( '', #144, .T. );
#99 = FACE_OUTER_BOUND( '', #145, .T. );
#100 = SPHERICAL_SURFACE( '', #146, 10.1500000000000 );
#101 = SURFACE_STYLE_USAGE( .BOTH., #147 );
#102 = FACE_OUTER_BOUND( '', #148, .T. );
#103 = CYLINDRICAL_SURFACE( '', #149, 9.50000000000000 );
#104 = SURFACE_STYLE_USAGE( .BOTH., #150 );
#105 = FACE_OUTER_BOUND( '', #151, .T. );
#106 = FACE_OUTER_BOUND( '', #152, .T. );
#107 = CYLINDRICAL_SURFACE( '', #153, 7.00000000000000 );
#108 = SURFACE_STYLE_USAGE( .BOTH., #154 );
#109 = FACE_OUTER_BOUND( '', #155, .T. );
#110 = FACE_BOUND( '', #156, .T. );
#111 = CONICAL_SURFACE( '', #157, 4.14095399640000, 0.366432444000000 );
#112 = PRODUCT_CONTEXT( '', #21, 'mechanical' );
#113 = PRODUCT_DEFINITION_FORMATION_WITH_SPECIFIED_SOURCE( ' ', 'NONE', #56, .NOT_KNOWN. );
#114 = CLOSED_SHELL( '', ( #53, #45, #39, #51, #35, #55, #47, #43, #49, #41, #37 ) );
#115 = CARTESIAN_POINT( '', ( 0.000000000000000, 0.000000000000000, 0.000000000000000 ) );
#116 = DIRECTION( '', ( 0.000000000000000, 0.000000000000000, 1.00000000000000 ) );
#117 = DIRECTION( '', ( 1.00000000000000, 0.000000000000000, 0.000000000000000 ) );
#118 =  ( LENGTH_UNIT(  )NAMED_UNIT( #65 )SI_UNIT( .MILLI., .METRE. ) );
#119 = SURFACE_SIDE_STYLE( '', ( #159 ) );
#120 = EDGE_LOOP( '', ( #160, #161, #162, #163 ) );
#121 = EDGE_LOOP( '', ( #164 ) );
#122 = AXIS2_PLACEMENT_3D( '', #165, #166, #167 );
#123 = SURFACE_SIDE_STYLE( '', ( #168 ) );
#124 = EDGE_LOOP( '', ( #169, #170, #171, #172 ) );
#125 = AXIS2_PLACEMENT_3D( '', #173, #174, #175 );
#126 = SURFACE_SIDE_STYLE( '', ( #176 ) );
#127 = EDGE_LOOP( '', ( #177, #178, #179, #180 ) );
#128 = AXIS2_PLACEMENT_3D( '', #181, #182, #183 );
#129 = SURFACE_SIDE_STYLE( '', ( #184 ) );
#130 = EDGE_LOOP( '', ( #185, #186, #187, #188 ) );
#131 = AXIS2_PLACEMENT_3D( '', #189, #190, #191 );
#132 = SURFACE_SIDE_STYLE( '', ( #192 ) );
#133 = EDGE_LOOP( '', ( #193 ) );
#134 = AXIS2_PLACEMENT_3D( '', #194, #195, #196 );
#135 = SURFACE_SIDE_STYLE( '', ( #197 ) );
#136 = EDGE_LOOP( '', ( #198 ) );
#137 = EDGE_LOOP( '', ( #199, #200, #201, #202 ) );
#138 = AXIS2_PLACEMENT_3D( '', #203, #204, #205 );
#139 = SURFACE_SIDE_STYLE( '', ( #206 ) );
#140 = EDGE_LOOP( '', ( #207 ) );
#141 = EDGE_LOOP( '', ( #208 ) );
#142 = AXIS2_PLACEMENT_3D( '', #209, #210, #211 );
#143 = SURFACE_SIDE_STYLE( '', ( #212 ) );
#144 = VERTEX_LOOP( '', #213 );
#145 = EDGE_LOOP( '', ( #214 ) );
#146 = AXIS2_PLACEMENT_3D( '', #215, #216, #217 );
#147 = SURFACE_SIDE_STYLE( '', ( #218 ) );
#148 = EDGE_LOOP( '', ( #219, #220, #221, #222 ) );
#149 = AXIS2_PLACEMENT_3D( '', #223, #224, #225 );
#150 = SURFACE_SIDE_STYLE( '', ( #226 ) );
#151 = EDGE_LOOP( '', ( #227 ) );
#152 = EDGE_LOOP( '', ( #228 ) );
#153 = AXIS2_PLACEMENT_3D( '', #229, #230, #231 );
#154 = SURFACE_SIDE_STYLE( '', ( #232 ) );
#155 = EDGE_LOOP( '', ( #233 ) );
#156 = EDGE_LOOP( '', ( #234 ) );
#157 = AXIS2_PLACEMENT_3D( '', #235, #236, #237 );
#159 = SURFACE_STYLE_FILL_AREA( #238 );
#160 = ORIENTED_EDGE( '', *, *, #239, .F. );
#161 = ORIENTED_EDGE( '', *, *, #240, .F. );
#162 = ORIENTED_EDGE( '', *, *, #241, .F. );
#163 = ORIENTED_EDGE( '', *, *, #242, .F. );
#164 = ORIENTED_EDGE( '', *, *, #243, .T. );
#165 = CARTESIAN_POINT( '', ( 16.0000000000000, 6.99999999999999, 0.000000000000000 ) );
#166 = DIRECTION( '', ( 1.00000000000000, 0.000000000000000, -0.000000000000000 ) );
#167 = DIRECTION( '', ( -0.000000000000000, 0.000000000000000, -1.00000000000000 ) );
#168 = SURFACE_STYLE_FILL_AREA( #244 );
#169 = ORIENTED_EDGE( '', *, *, #240, .T. );
#170 = ORIENTED_EDGE( '', *, *, #245, .T. );
#171 = ORIENTED_EDGE( '', *, *, #246, .T. );
#172 = ORIENTED_EDGE( '', *, *, #247, .T. );
#173 = CARTESIAN_POINT( '', ( 5.20000000000001, -7.99999999999999, -8.00000000000000 ) );
#174 = DIRECTION( '', ( 0.000000000000000, 1.08420217248551E-16, -1.00000000000000 ) );
#175 = DIRECTION( '', ( 0.000000000000000, 1.00000000000000, 1.08420217248551E-16 ) );
#176 = SURFACE_STYLE_FILL_AREA( #248 );
#177 = ORIENTED_EDGE( '', *, *, #249, .F. );
#178 = ORIENTED_EDGE( '', *, *, #250, .F. );
#179 = ORIENTED_EDGE( '', *, *, #245, .F. );
#180 = ORIENTED_EDGE( '', *, *, #239, .T. );
#181 = CARTESIAN_POINT( '', ( 48.0000000000000, 0.000000000000000, 0.000000000000000 ) );
#182 = DIRECTION( '', ( -1.00000000000000, -0.000000000000000, 0.000000000000000 ) );
#183 = DIRECTION( '', ( -0.000000000000000, 0.000000000000000, -1.00000000000000 ) );
#184 = SURFACE_STYLE_FILL_AREA( #251 );
#185 = ORIENTED_EDGE( '', *, *, #242, .T. );
#186 = ORIENTED_EDGE( '', *, *, #252, .T. );
#187 = ORIENTED_EDGE( '', *, *, #253, .T. );
#188 = ORIENTED_EDGE( '', *, *, #249, .T. );
#189 = CARTESIAN_POINT( '', ( 5.20000000000001, 7.99999999999999, 8.00000000000000 ) );
#190 = DIRECTION( '', ( 0.000000000000000, 0.000000000000000, 1.00000000000000 ) );
#191 = DIRECTION( '', ( 1.00000000000000, 0.000000000000000, -0.000000000000000 ) );
#192 = SURFACE_STYLE_FILL_AREA( #254 );
#193 = ORIENTED_EDGE( '', *, *, #255, .F. );
#194 = CARTESIAN_POINT( '', ( -7.60000000000000, 0.000000000000000, 0.000000000000000 ) );
#195 = DIRECTION( '', ( 1.00000000000000, 0.000000000000000, -0.000000000000000 ) );
#196 = DIRECTION( '', ( -0.000000000000000, 0.000000000000000, -1.00000000000000 ) );
#197 = SURFACE_STYLE_FILL_AREA( #256 );
#198 = ORIENTED_EDGE( '', *, *, #257, .F. );
#199 = ORIENTED_EDGE( '', *, *, #246, .F. );
#200 = ORIENTED_EDGE( '', *, *, #250, .T. );
#201 = ORIENTED_EDGE( '', *, *, #253, .F. );
#202 = ORIENTED_EDGE( '', *, *, #258, .T. );
#203 = CARTESIAN_POINT( '', ( 20.0000000000000, 9.50000000000000, 0.000000000000000 ) );
#204 = DIRECTION( '', ( -1.00000000000000, 0.000000000000000, 0.000000000000000 ) );
#205 = DIRECTION( '', ( 0.000000000000000, 0.000000000000000, 1.00000000000000 ) );
#206 = SURFACE_STYLE_FILL_AREA( #259 );
#207 = ORIENTED_EDGE( '', *, *, #255, .T. );
#208 = ORIENTED_EDGE( '', *, *, #260, .F. );
#209 = CARTESIAN_POINT( '', ( -2.60208521396521E-15, -7.80625564189563E-15, 0.000000000000000 ) );
#210 = DIRECTION( '', ( 1.00000000000000, 0.000000000000000, 0.000000000000000 ) );
#211 = DIRECTION( '', ( 0.000000000000000, 1.00000000000000, 0.000000000000000 ) );
#212 = SURFACE_STYLE_FILL_AREA( #261 );
#213 = VERTEX_POINT( '', #262 );
#214 = ORIENTED_EDGE( '', *, *, #263, .T. );
#215 = CARTESIAN_POINT( '', ( 37.8499999999999, -5.72458747072346E-14, 0.000000000000000 ) );
#216 = DIRECTION( '', ( 1.00000000000000, 0.000000000000000, 0.000000000000000 ) );
#217 = DIRECTION( '', ( 0.000000000000000, 1.00000000000000, 0.000000000000000 ) );
#218 = SURFACE_STYLE_FILL_AREA( #264 );
#219 = ORIENTED_EDGE( '', *, *, #247, .F. );
#220 = ORIENTED_EDGE( '', *, *, #258, .F. );
#221 = ORIENTED_EDGE( '', *, *, #252, .F. );
#222 = ORIENTED_EDGE( '', *, *, #241, .T. );
#223 = CARTESIAN_POINT( '', ( 48.0000000000000, 0.000000000000000, 0.000000000000000 ) );
#224 = DIRECTION( '', ( -1.00000000000000, -0.000000000000000, 0.000000000000000 ) );
#225 = DIRECTION( '', ( -0.000000000000000, 0.000000000000000, -1.00000000000000 ) );
#226 = SURFACE_STYLE_FILL_AREA( #265 );
#227 = ORIENTED_EDGE( '', *, *, #263, .F. );
#228 = ORIENTED_EDGE( '', *, *, #257, .T. );
#229 = CARTESIAN_POINT( '', ( 48.0000000000000, 0.000000000000000, 0.000000000000000 ) );
#230 = DIRECTION( '', ( -1.00000000000000, -0.000000000000000, 0.000000000000000 ) );
#231 = DIRECTION( '', ( -0.000000000000000, 0.000000000000000, -1.00000000000000 ) );
#232 = SURFACE_STYLE_FILL_AREA( #266 );
#233 = ORIENTED_EDGE( '', *, *, #243, .F. );
#234 = ORIENTED_EDGE( '', *, *, #260, .T. );
#235 = CARTESIAN_POINT( '', ( 8.55000000000000, 0.000000000000000, 0.000000000000000 ) );
#236 = DIRECTION( '', ( 1.00000000000000, -0.000000000000000, -0.000000000000000 ) );
#237 = DIRECTION( '', ( -0.000000000000000, 0.000000000000000, -1.00000000000000 ) );
#238 = FILL_AREA_STYLE( '', ( #267 ) );
#239 = EDGE_CURVE( '', #268, #269, #270, .T. );
#240 = EDGE_CURVE( '', #271, #268, #272, .T. );
#241 = EDGE_CURVE( '', #273, #271, #274, .T. );
#242 = EDGE_CURVE( '', #269, #273, #275, .T. );
#243 = EDGE_CURVE( '', #276, #276, #277, .T. );
#244 = FILL_AREA_STYLE( '', ( #278 ) );
#245 = EDGE_CURVE( '', #268, #279, #280, .T. );
#246 = EDGE_CURVE( '', #279, #281, #282, .T. );
#247 = EDGE_CURVE( '', #281, #271, #283, .F. );
#248 = FILL_AREA_STYLE( '', ( #284 ) );
#249 = EDGE_CURVE( '', #285, #269, #286, .F. );
#250 = EDGE_CURVE( '', #279, #285, #287, .T. );
#251 = FILL_AREA_STYLE( '', ( #288 ) );
#252 = EDGE_CURVE( '', #273, #289, #290, .T. );
#253 = EDGE_CURVE( '', #289, #285, #291, .T. );
#254 = FILL_AREA_STYLE( '', ( #292 ) );
#255 = EDGE_CURVE( '', #293, #293, #294, .T. );
#256 = FILL_AREA_STYLE( '', ( #295 ) );
#257 = EDGE_CURVE( '', #296, #296, #297, .T. );
#258 = EDGE_CURVE( '', #289, #281, #298, .T. );
#259 = FILL_AREA_STYLE( '', ( #299 ) );
#260 = EDGE_CURVE( '', #300, #300, #301, .T. );
#261 = FILL_AREA_STYLE( '', ( #302 ) );
#262 = CARTESIAN_POINT( '', ( 48.0000000000000, -5.66243664566673E-14, 0.000000000000000 ) );
#263 = EDGE_CURVE( '', #303, #303, #304, .T. );
#264 = FILL_AREA_STYLE( '', ( #305 ) );
#265 = FILL_AREA_STYLE( '', ( #306 ) );
#266 = FILL_AREA_STYLE( '', ( #307 ) );
#267 = FILL_AREA_STYLE_COLOUR( '', #308 );
#268 = VERTEX_POINT( '', #309 );
#269 = VERTEX_POINT( '', #310 );
#270 = CIRCLE( '', #311, 9.50000000000000 );
#271 = VERTEX_POINT( '', #312 );
#272 = LINE( '', #313, #314 );
#273 = VERTEX_POINT( '', #315 );
#274 = CIRCLE( '', #316, 9.50000000000000 );
#275 = LINE( '', #317, #318 );
#276 = VERTEX_POINT( '', #319 );
#277 = CIRCLE( '', #320, 7.00000000000000 );
#278 = FILL_AREA_STYLE_COLOUR( '', #321 );
#279 = VERTEX_POINT( '', #322 );
#280 = LINE( '', #323, #324 );
#281 = VERTEX_POINT( '', #325 );
#282 = LINE( '', #326, #327 );
#283 = LINE( '', #328, #329 );
#284 = FILL_AREA_STYLE_COLOUR( '', #330 );
#285 = VERTEX_POINT( '', #331 );
#286 = LINE( '', #332, #333 );
#287 = CIRCLE( '', #334, 9.50000000000000 );
#288 = FILL_AREA_STYLE_COLOUR( '', #335 );
#289 = VERTEX_POINT( '', #336 );
#290 = LINE( '', #337, #338 );
#291 = LINE( '', #339, #340 );
#292 = FILL_AREA_STYLE_COLOUR( '', #341 );
#293 = VERTEX_POINT( '', #342 );
#294 = CIRCLE( '', #343, 5.70000000000000 );
#295 = FILL_AREA_STYLE_COLOUR( '', #344 );
#296 = VERTEX_POINT( '', #345 );
#297 = CIRCLE( '', #346, 7.00000000000000 );
#298 = CIRCLE( '', #347, 9.50000000000000 );
#299 = FILL_AREA_STYLE_COLOUR( '', #348 );
#300 = VERTEX_POINT( '', #349 );
#301 = CIRCLE( '', #350, 4.14095399640000 );
#302 = FILL_AREA_STYLE_COLOUR( '', #351 );
#303 = VERTEX_POINT( '', #352 );
#304 = CIRCLE( '', #353, 7.00000000000000 );
#305 = FILL_AREA_STYLE_COLOUR( '', #354 );
#306 = FILL_AREA_STYLE_COLOUR( '', #355 );
#307 = FILL_AREA_STYLE_COLOUR( '', #356 );
#308 = COLOUR_RGB( '', 0.689999997600000, 0.689999997600000, 0.689999997600000 );
#309 = CARTESIAN_POINT( '', ( 16.0000000000000, 5.12347538297980, -8.00000000000000 ) );
#310 = CARTESIAN_POINT( '', ( 16.0000000000000, 5.12347538297980, 8.00000000000000 ) );
#311 = AXIS2_PLACEMENT_3D( '', #357, #358, #359 );
#312 = CARTESIAN_POINT( '', ( 16.0000000000000, -5.12347538297980, -8.00000000000000 ) );
#313 = CARTESIAN_POINT( '', ( 16.0000000000000, 6.99999999999999, -8.00000000000000 ) );
#314 = VECTOR( '', #360, 1000.00000000000 );
#315 = CARTESIAN_POINT( '', ( 16.0000000000000, -5.12347538297980, 8.00000000000000 ) );
#316 = AXIS2_PLACEMENT_3D( '', #361, #362, #363 );
#317 = CARTESIAN_POINT( '', ( 16.0000000000000, 6.99999999999999, 8.00000000000000 ) );
#318 = VECTOR( '', #364, 1000.00000000000 );
#319 = CARTESIAN_POINT( '', ( 16.0000000000000, 0.000000000000000, -6.99999999999999 ) );
#320 = AXIS2_PLACEMENT_3D( '', #365, #366, #367 );
#321 = COLOUR_RGB( '', 0.689999997600000, 0.689999997600000, 0.689999997600000 );
#322 = CARTESIAN_POINT( '', ( 20.0000000000000, 5.12347538297980, -8.00000000000000 ) );
#323 = CARTESIAN_POINT( '', ( 48.0000000000000, 5.12347538297980, -8.00000000000000 ) );
#324 = VECTOR( '', #368, 1000.00000000000 );
#325 = CARTESIAN_POINT( '', ( 20.0000000000000, -5.12347538297980, -8.00000000000000 ) );
#326 = CARTESIAN_POINT( '', ( 20.0000000000000, 9.50000000000000, -8.00000000000000 ) );
#327 = VECTOR( '', #369, 1000.00000000000 );
#328 = CARTESIAN_POINT( '', ( 48.0000000000000, -5.12347538297980, -8.00000000000000 ) );
#329 = VECTOR( '', #370, 1000.00000000000 );
#330 = COLOUR_RGB( '', 0.689999997600000, 0.689999997600000, 0.689999997600000 );
#331 = CARTESIAN_POINT( '', ( 20.0000000000000, 5.12347538297980, 8.00000000000000 ) );
#332 = CARTESIAN_POINT( '', ( 48.0000000000000, 5.12347538297980, 8.00000000000000 ) );
#333 = VECTOR( '', #371, 1000.00000000000 );
#334 = AXIS2_PLACEMENT_3D( '', #372, #373, #374 );
#335 = COLOUR_RGB( '', 0.689999997600000, 0.689999997600000, 0.689999997600000 );
#336 = CARTESIAN_POINT( '', ( 20.0000000000000, -5.12347538297980, 8.00000000000000 ) );
#337 = CARTESIAN_POINT( '', ( 48.0000000000000, -5.12347538297980, 8.00000000000000 ) );
#338 = VECTOR( '', #375, 1000.00000000000 );
#339 = CARTESIAN_POINT( '', ( 20.0000000000000, 9.50000000000000, 8.00000000000000 ) );
#340 = VECTOR( '', #376, 1000.00000000000 );
#341 = COLOUR_RGB( '', 0.689999997600000, 0.689999997600000, 0.689999997600000 );
#342 = CARTESIAN_POINT( '', ( -7.60000000000000, 0.000000000000000, -5.70000000000000 ) );
#343 = AXIS2_PLACEMENT_3D( '', #377, #378, #379 );
#344 = COLOUR_RGB( '', 0.689999997600000, 0.689999997600000, 0.689999997600000 );
#345 = CARTESIAN_POINT( '', ( 20.0000000000000, 0.000000000000000, -7.00000000000000 ) );
#346 = AXIS2_PLACEMENT_3D( '', #380, #381, #382 );
#347 = AXIS2_PLACEMENT_3D( '', #383, #384, #385 );
#348 = COLOUR_RGB( '', 0.689999997600000, 0.689999997600000, 0.689999997600000 );
#349 = CARTESIAN_POINT( '', ( 8.55000000000000, 0.000000000000000, -4.14095399636364 ) );
#350 = AXIS2_PLACEMENT_3D( '', #386, #387, #388 );
#351 = COLOUR_RGB( '', 0.689999997600000, 0.689999997600000, 0.689999997600000 );
#352 = CARTESIAN_POINT( '', ( 45.2000000000000, 0.000000000000000, -7.00000000000000 ) );
#353 = AXIS2_PLACEMENT_3D( '', #389, #390, #391 );
#354 = COLOUR_RGB( '', 0.689999997600000, 0.689999997600000, 0.689999997600000 );
#355 = COLOUR_RGB( '', 0.689999997600000, 0.689999997600000, 0.689999997600000 );
#356 = COLOUR_RGB( '', 0.689999997600000, 0.689999997600000, 0.689999997600000 );
#357 = CARTESIAN_POINT( '', ( 16.0000000000000, 0.000000000000000, 0.000000000000000 ) );
#358 = DIRECTION( '', ( 1.00000000000000, 0.000000000000000, -0.000000000000000 ) );
#359 = DIRECTION( '', ( -0.000000000000000, 0.000000000000000, -1.00000000000000 ) );
#360 = DIRECTION( '', ( 0.000000000000000, 1.00000000000000, 1.08420217248551E-16 ) );
#361 = CARTESIAN_POINT( '', ( 16.0000000000000, 0.000000000000000, 0.000000000000000 ) );
#362 = DIRECTION( '', ( 1.00000000000000, 0.000000000000000, -0.000000000000000 ) );
#363 = DIRECTION( '', ( -0.000000000000000, 0.000000000000000, -1.00000000000000 ) );
#364 = DIRECTION( '', ( 0.000000000000000, -1.00000000000000, 0.000000000000000 ) );
#365 = CARTESIAN_POINT( '', ( 16.0000000000000, 0.000000000000000, 0.000000000000000 ) );
#366 = DIRECTION( '', ( 1.00000000000000, 0.000000000000000, -0.000000000000000 ) );
#367 = DIRECTION( '', ( -0.000000000000000, 0.000000000000000, -1.00000000000000 ) );
#368 = DIRECTION( '', ( 1.00000000000000, -0.000000000000000, -0.000000000000000 ) );
#369 = DIRECTION( '', ( 0.000000000000000, -1.00000000000000, -1.08420217248551E-16 ) );
#370 = DIRECTION( '', ( 1.00000000000000, -0.000000000000000, -0.000000000000000 ) );
#371 = DIRECTION( '', ( 1.00000000000000, -0.000000000000000, -0.000000000000000 ) );
#372 = CARTESIAN_POINT( '', ( 20.0000000000000, 0.000000000000000, 0.000000000000000 ) );
#373 = DIRECTION( '', ( 1.00000000000000, 0.000000000000000, -0.000000000000000 ) );
#374 = DIRECTION( '', ( -0.000000000000000, 0.000000000000000, -1.00000000000000 ) );
#375 = DIRECTION( '', ( 1.00000000000000, -0.000000000000000, -0.000000000000000 ) );
#376 = DIRECTION( '', ( 0.000000000000000, 1.00000000000000, -0.000000000000000 ) );
#377 = CARTESIAN_POINT( '', ( -7.60000000000000, 0.000000000000000, 0.000000000000000 ) );
#378 = DIRECTION( '', ( 1.00000000000000, 0.000000000000000, -0.000000000000000 ) );
#379 = DIRECTION( '', ( -0.000000000000000, 0.000000000000000, -1.00000000000000 ) );
#380 = CARTESIAN_POINT( '', ( 20.0000000000000, 0.000000000000000, 0.000000000000000 ) );
#381 = DIRECTION( '', ( 1.00000000000000, 0.000000000000000, -0.000000000000000 ) );
#382 = DIRECTION( '', ( -0.000000000000000, 0.000000000000000, -1.00000000000000 ) );
#383 = CARTESIAN_POINT( '', ( 20.0000000000000, 0.000000000000000, 0.000000000000000 ) );
#384 = DIRECTION( '', ( 1.00000000000000, 0.000000000000000, -0.000000000000000 ) );
#385 = DIRECTION( '', ( -0.000000000000000, 0.000000000000000, -1.00000000000000 ) );
#386 = CARTESIAN_POINT( '', ( 8.55000000000000, 0.000000000000000, 0.000000000000000 ) );
#387 = DIRECTION( '', ( 1.00000000000000, 0.000000000000000, -0.000000000000000 ) );
#388 = DIRECTION( '', ( -0.000000000000000, 0.000000000000000, -1.00000000000000 ) );
#389 = CARTESIAN_POINT( '', ( 45.2000000000000, 0.000000000000000, 0.000000000000000 ) );
#390 = DIRECTION( '', ( 1.00000000000000, 0.000000000000000, -0.000000000000000 ) );
#391 = DIRECTION( '', ( -0.000000000000000, 0.000000000000000, -1.00000000000000 ) );
ENDSEC;
END-ISO-10303-21;
