ISO-10303-21;
HEADER;
FILE_DESCRIPTION( ( 'STEP AP214' ), '1' );
FILE_NAME( '//goodhand-server/Shared Folders/GoodHand Data/Kipp CAD/K1153/K1153.171053.stp', '2020-12-10T10:26:17', ( '' ), ( '' ), ' ', 'PARTsolutions', ' ' );
FILE_SCHEMA( ( 'AUTOMOTIVE_DESIGN { 1 0 10303 214 1 1 1 1 }' ) );
ENDSEC;
DATA;
#1 = MECHANICAL_DESIGN_GEOMETRIC_PRESENTATION_REPRESENTATION( ' ', ( #10, #11, #12, #13, #14, #15, #16, #17, #18, #19, #20 ), #6 );
#2 = PRODUCT_DEFINITION_CONTEXT( '', #21, 'design' );
#3 = APPLICATION_PROTOCOL_DEFINITION( 'international standard', 'automotive_design', 2001, #21 );
#4 = PRODUCT_CATEGORY_RELATIONSHIP( 'NONE', 'NONE', #22, #23 );
#5 = SHAPE_DEFINITION_REPRESENTATION( #24, #25 );
#6 =  ( GEOMETRIC_REPRESENTATION_CONTEXT( 3 )GLOBAL_UNCERTAINTY_ASSIGNED_CONTEXT( ( #28 ) )GLOBAL_UNIT_ASSIGNED_CONTEXT( ( #30, #31, #32 ) )REPRESENTATION_CONTEXT( 'NONE', 'WORKSPACE' ) );
#10 = STYLED_ITEM( '', ( #34 ), #35 );
#11 = STYLED_ITEM( '', ( #36 ), #37 );
#12 = STYLED_ITEM( '', ( #38 ), #39 );
#13 = STYLED_ITEM( '', ( #40 ), #41 );
#14 = STYLED_ITEM( '', ( #42 ), #43 );
#15 = STYLED_ITEM( '', ( #44 ), #45 );
#16 = STYLED_ITEM( '', ( #46 ), #47 );
#17 = STYLED_ITEM( '', ( #48 ), #49 );
#18 = STYLED_ITEM( '', ( #50 ), #51 );
#19 = STYLED_ITEM( '', ( #52 ), #53 );
#20 = STYLED_ITEM( '', ( #54 ), #55 );
#21 = APPLICATION_CONTEXT( 'core data for automotive mechanical design processes' );
#22 = PRODUCT_CATEGORY( 'part', 'NONE' );
#23 = PRODUCT_RELATED_PRODUCT_CATEGORY( 'detail', ' ', ( #56 ) );
#24 = PRODUCT_DEFINITION_SHAPE( 'NONE', 'NONE', #57 );
#25 = ADVANCED_BREP_SHAPE_REPRESENTATION( '_K1153.171053', ( #58, #59 ), #6 );
#28 = UNCERTAINTY_MEASURE_WITH_UNIT( LENGTH_MEASURE( 0.00100000000000000 ), #30, '', '' );
#30 =  ( CONVERSION_BASED_UNIT( 'MILLIMETRE', #62 )LENGTH_UNIT(  )NAMED_UNIT( #65 ) );
#31 =  ( NAMED_UNIT( #67 )PLANE_ANGLE_UNIT(  )SI_UNIT( $, .RADIAN. ) );
#32 =  ( NAMED_UNIT( #67 )SI_UNIT( $, .STERADIAN. )SOLID_ANGLE_UNIT(  ) );
#34 = PRESENTATION_STYLE_ASSIGNMENT( ( #73 ) );
#35 = ADVANCED_FACE( '', ( #74, #75 ), #76, .T. );
#36 = PRESENTATION_STYLE_ASSIGNMENT( ( #77 ) );
#37 = ADVANCED_FACE( '', ( #78, #79 ), #80, .F. );
#38 = PRESENTATION_STYLE_ASSIGNMENT( ( #81 ) );
#39 = ADVANCED_FACE( '', ( #82, #83, #84, #85, #86 ), #87, .F. );
#40 = PRESENTATION_STYLE_ASSIGNMENT( ( #88 ) );
#41 = ADVANCED_FACE( '', ( #89, #90 ), #91, .F. );
#42 = PRESENTATION_STYLE_ASSIGNMENT( ( #92 ) );
#43 = ADVANCED_FACE( '', ( #93, #94 ), #95, .T. );
#44 = PRESENTATION_STYLE_ASSIGNMENT( ( #96 ) );
#45 = ADVANCED_FACE( '', ( #97, #98 ), #99, .F. );
#46 = PRESENTATION_STYLE_ASSIGNMENT( ( #100 ) );
#47 = ADVANCED_FACE( '', ( #101, #102 ), #103, .T. );
#48 = PRESENTATION_STYLE_ASSIGNMENT( ( #104 ) );
#49 = ADVANCED_FACE( '', ( #105, #106 ), #107, .F. );
#50 = PRESENTATION_STYLE_ASSIGNMENT( ( #108 ) );
#51 = ADVANCED_FACE( '', ( #109, #110, #111, #112 ), #113, .F. );
#52 = PRESENTATION_STYLE_ASSIGNMENT( ( #114 ) );
#53 = ADVANCED_FACE( '', ( #115, #116 ), #117, .T. );
#54 = PRESENTATION_STYLE_ASSIGNMENT( ( #118 ) );
#55 = ADVANCED_FACE( '', ( #119 ), #120, .T. );
#56 = PRODUCT( '_K1153.171053', '_K1153.171053', 'PART-_K1153.171053-DESC', ( #121 ) );
#57 = PRODUCT_DEFINITION( 'NONE', 'NONE', #122, #2 );
#58 = MANIFOLD_SOLID_BREP( '_K1153.171053', #123 );
#59 = AXIS2_PLACEMENT_3D( '', #124, #125, #126 );
#62 = LENGTH_MEASURE_WITH_UNIT( LENGTH_MEASURE( 1.00000000000000 ), #127 );
#65 = DIMENSIONAL_EXPONENTS( 1.00000000000000, 0.000000000000000, 0.000000000000000, 0.000000000000000, 0.000000000000000, 0.000000000000000, 0.000000000000000 );
#67 = DIMENSIONAL_EXPONENTS( 0.000000000000000, 0.000000000000000, 0.000000000000000, 0.000000000000000, 0.000000000000000, 0.000000000000000, 0.000000000000000 );
#73 = SURFACE_STYLE_USAGE( .BOTH., #128 );
#74 = FACE_OUTER_BOUND( '', #129, .T. );
#75 = FACE_OUTER_BOUND( '', #130, .T. );
#76 = CYLINDRICAL_SURFACE( '', #131, 8.50000000000000 );
#77 = SURFACE_STYLE_USAGE( .BOTH., #132 );
#78 = FACE_OUTER_BOUND( '', #133, .T. );
#79 = FACE_OUTER_BOUND( '', #134, .T. );
#80 = CYLINDRICAL_SURFACE( '', #135, 1.15000000000000 );
#81 = SURFACE_STYLE_USAGE( .BOTH., #136 );
#82 = FACE_OUTER_BOUND( '', #137, .T. );
#83 = FACE_BOUND( '', #138, .T. );
#84 = FACE_BOUND( '', #139, .T. );
#85 = FACE_BOUND( '', #140, .T. );
#86 = FACE_BOUND( '', #141, .T. );
#87 = PLANE( '', #142 );
#88 = SURFACE_STYLE_USAGE( .BOTH., #143 );
#89 = FACE_BOUND( '', #144, .T. );
#90 = FACE_OUTER_BOUND( '', #145, .T. );
#91 = CONICAL_SURFACE( '', #146, 5.87333333330000, 0.522314821800000 );
#92 = SURFACE_STYLE_USAGE( .BOTH., #147 );
#93 = FACE_OUTER_BOUND( '', #148, .T. );
#94 = FACE_OUTER_BOUND( '', #149, .T. );
#95 = CYLINDRICAL_SURFACE( '', #150, 13.0000000000000 );
#96 = SURFACE_STYLE_USAGE( .BOTH., #151 );
#97 = FACE_OUTER_BOUND( '', #152, .T. );
#98 = FACE_OUTER_BOUND( '', #153, .T. );
#99 = CYLINDRICAL_SURFACE( '', #154, 1.15000000000000 );
#100 = SURFACE_STYLE_USAGE( .BOTH., #155 );
#101 = FACE_OUTER_BOUND( '', #156, .T. );
#102 = FACE_OUTER_BOUND( '', #157, .T. );
#103 = TOROIDAL_SURFACE( '', #158, 7.00000000000000, 1.30000000000000 );
#104 = SURFACE_STYLE_USAGE( .BOTH., #159 );
#105 = FACE_OUTER_BOUND( '', #160, .T. );
#106 = FACE_OUTER_BOUND( '', #161, .T. );
#107 = CYLINDRICAL_SURFACE( '', #162, 1.15000000000000 );
#108 = SURFACE_STYLE_USAGE( .BOTH., #163 );
#109 = FACE_BOUND( '', #164, .T. );
#110 = FACE_BOUND( '', #165, .T. );
#111 = FACE_BOUND( '', #166, .T. );
#112 = FACE_OUTER_BOUND( '', #167, .T. );
#113 = PLANE( '', #168 );
#114 = SURFACE_STYLE_USAGE( .BOTH., #169 );
#115 = FACE_BOUND( '', #170, .T. );
#116 = FACE_OUTER_BOUND( '', #171, .T. );
#117 = CONICAL_SURFACE( '', #172, 8.50000000000000, 0.522314821800000 );
#118 = SURFACE_STYLE_USAGE( .BOTH., #173 );
#119 = FACE_OUTER_BOUND( '', #174, .T. );
#120 = PLANE( '', #175 );
#121 = PRODUCT_CONTEXT( '', #21, 'mechanical' );
#122 = PRODUCT_DEFINITION_FORMATION_WITH_SPECIFIED_SOURCE( ' ', 'NONE', #56, .NOT_KNOWN. );
#123 = CLOSED_SHELL( '', ( #39, #37, #51, #43, #35, #53, #41, #47, #55, #45, #49 ) );
#124 = CARTESIAN_POINT( '', ( 0.000000000000000, 0.000000000000000, 0.000000000000000 ) );
#125 = DIRECTION( '', ( 0.000000000000000, 0.000000000000000, 1.00000000000000 ) );
#126 = DIRECTION( '', ( 1.00000000000000, 0.000000000000000, 0.000000000000000 ) );
#127 =  ( LENGTH_UNIT(  )NAMED_UNIT( #65 )SI_UNIT( .MILLI., .METRE. ) );
#128 = SURFACE_SIDE_STYLE( '', ( #177 ) );
#129 = EDGE_LOOP( '', ( #178 ) );
#130 = EDGE_LOOP( '', ( #179 ) );
#131 = AXIS2_PLACEMENT_3D( '', #180, #181, #182 );
#132 = SURFACE_SIDE_STYLE( '', ( #183 ) );
#133 = EDGE_LOOP( '', ( #184 ) );
#134 = EDGE_LOOP( '', ( #185 ) );
#135 = AXIS2_PLACEMENT_3D( '', #186, #187, #188 );
#136 = SURFACE_SIDE_STYLE( '', ( #189 ) );
#137 = EDGE_LOOP( '', ( #190 ) );
#138 = EDGE_LOOP( '', ( #191 ) );
#139 = EDGE_LOOP( '', ( #192 ) );
#140 = EDGE_LOOP( '', ( #193 ) );
#141 = EDGE_LOOP( '', ( #194 ) );
#142 = AXIS2_PLACEMENT_3D( '', #195, #196, #197 );
#143 = SURFACE_SIDE_STYLE( '', ( #198 ) );
#144 = EDGE_LOOP( '', ( #199 ) );
#145 = EDGE_LOOP( '', ( #200 ) );
#146 = AXIS2_PLACEMENT_3D( '', #201, #202, #203 );
#147 = SURFACE_SIDE_STYLE( '', ( #204 ) );
#148 = EDGE_LOOP( '', ( #205 ) );
#149 = EDGE_LOOP( '', ( #206 ) );
#150 = AXIS2_PLACEMENT_3D( '', #207, #208, #209 );
#151 = SURFACE_SIDE_STYLE( '', ( #210 ) );
#152 = EDGE_LOOP( '', ( #211 ) );
#153 = EDGE_LOOP( '', ( #212 ) );
#154 = AXIS2_PLACEMENT_3D( '', #213, #214, #215 );
#155 = SURFACE_SIDE_STYLE( '', ( #216 ) );
#156 = EDGE_LOOP( '', ( #217 ) );
#157 = EDGE_LOOP( '', ( #218 ) );
#158 = AXIS2_PLACEMENT_3D( '', #219, #220, #221 );
#159 = SURFACE_SIDE_STYLE( '', ( #222 ) );
#160 = EDGE_LOOP( '', ( #223 ) );
#161 = EDGE_LOOP( '', ( #224 ) );
#162 = AXIS2_PLACEMENT_3D( '', #225, #226, #227 );
#163 = SURFACE_SIDE_STYLE( '', ( #228 ) );
#164 = EDGE_LOOP( '', ( #229 ) );
#165 = EDGE_LOOP( '', ( #230 ) );
#166 = EDGE_LOOP( '', ( #231 ) );
#167 = EDGE_LOOP( '', ( #232 ) );
#168 = AXIS2_PLACEMENT_3D( '', #233, #234, #235 );
#169 = SURFACE_SIDE_STYLE( '', ( #236 ) );
#170 = EDGE_LOOP( '', ( #237 ) );
#171 = EDGE_LOOP( '', ( #238 ) );
#172 = AXIS2_PLACEMENT_3D( '', #239, #240, #241 );
#173 = SURFACE_SIDE_STYLE( '', ( #242 ) );
#174 = EDGE_LOOP( '', ( #243 ) );
#175 = AXIS2_PLACEMENT_3D( '', #244, #245, #246 );
#177 = SURFACE_STYLE_FILL_AREA( #247 );
#178 = ORIENTED_EDGE( '', *, *, #248, .F. );
#179 = ORIENTED_EDGE( '', *, *, #249, .T. );
#180 = CARTESIAN_POINT( '', ( 0.000000000000000, 0.000000000000000, 0.000000000000000 ) );
#181 = DIRECTION( '', ( -0.000000000000000, 1.00000000000000, 0.000000000000000 ) );
#182 = DIRECTION( '', ( 0.000000000000000, 0.000000000000000, -1.00000000000000 ) );
#183 = SURFACE_STYLE_FILL_AREA( #250 );
#184 = ORIENTED_EDGE( '', *, *, #251, .T. );
#185 = ORIENTED_EDGE( '', *, *, #252, .F. );
#186 = CARTESIAN_POINT( '', ( -10.7500000000000, 3.00000000000000, 0.000000000000000 ) );
#187 = DIRECTION( '', ( -0.000000000000000, 1.00000000000000, 0.000000000000000 ) );
#188 = DIRECTION( '', ( 0.000000000000000, 0.000000000000000, -1.00000000000000 ) );
#189 = SURFACE_STYLE_FILL_AREA( #253 );
#190 = ORIENTED_EDGE( '', *, *, #254, .F. );
#191 = ORIENTED_EDGE( '', *, *, #255, .F. );
#192 = ORIENTED_EDGE( '', *, *, #256, .F. );
#193 = ORIENTED_EDGE( '', *, *, #251, .F. );
#194 = ORIENTED_EDGE( '', *, *, #248, .T. );
#195 = CARTESIAN_POINT( '', ( 8.50000000000000, 3.00000000000000, 0.000000000000000 ) );
#196 = DIRECTION( '', ( 0.000000000000000, -1.00000000000000, -0.000000000000000 ) );
#197 = DIRECTION( '', ( 0.000000000000000, 0.000000000000000, -1.00000000000000 ) );
#198 = SURFACE_STYLE_FILL_AREA( #257 );
#199 = ORIENTED_EDGE( '', *, *, #258, .T. );
#200 = ORIENTED_EDGE( '', *, *, #259, .F. );
#201 = CARTESIAN_POINT( '', ( 0.000000000000000, 9.34855394704081, 0.000000000000000 ) );
#202 = DIRECTION( '', ( -0.000000000000000, 1.00000000000000, 0.000000000000000 ) );
#203 = DIRECTION( '', ( 0.000000000000000, -0.000000000000000, 1.00000000000000 ) );
#204 = SURFACE_STYLE_FILL_AREA( #260 );
#205 = ORIENTED_EDGE( '', *, *, #261, .F. );
#206 = ORIENTED_EDGE( '', *, *, #254, .T. );
#207 = CARTESIAN_POINT( '', ( 0.000000000000000, 0.000000000000000, 0.000000000000000 ) );
#208 = DIRECTION( '', ( -0.000000000000000, 1.00000000000000, 0.000000000000000 ) );
#209 = DIRECTION( '', ( 0.000000000000000, 0.000000000000000, -1.00000000000000 ) );
#210 = SURFACE_STYLE_FILL_AREA( #262 );
#211 = ORIENTED_EDGE( '', *, *, #256, .T. );
#212 = ORIENTED_EDGE( '', *, *, #263, .F. );
#213 = CARTESIAN_POINT( '', ( 5.37500000000000, 3.00000000000000, 9.30977309068271 ) );
#214 = DIRECTION( '', ( -0.000000000000000, 1.00000000000000, -0.000000000000000 ) );
#215 = DIRECTION( '', ( -0.866025403784439, 0.000000000000000, 0.500000000000000 ) );
#216 = SURFACE_STYLE_FILL_AREA( #264 );
#217 = ORIENTED_EDGE( '', *, *, #259, .T. );
#218 = ORIENTED_EDGE( '', *, *, #265, .F. );
#219 = CARTESIAN_POINT( '', ( 0.000000000000000, 8.70000000000000, 0.000000000000000 ) );
#220 = DIRECTION( '', ( 0.000000000000000, -1.00000000000000, -0.000000000000000 ) );
#221 = DIRECTION( '', ( 0.000000000000000, 0.000000000000000, -1.00000000000000 ) );
#222 = SURFACE_STYLE_FILL_AREA( #266 );
#223 = ORIENTED_EDGE( '', *, *, #255, .T. );
#224 = ORIENTED_EDGE( '', *, *, #267, .F. );
#225 = CARTESIAN_POINT( '', ( 5.37500000000000, 3.00000000000000, -9.30977309068272 ) );
#226 = DIRECTION( '', ( -0.000000000000000, 1.00000000000000, -0.000000000000000 ) );
#227 = DIRECTION( '', ( 0.866025403784439, 0.000000000000000, 0.500000000000000 ) );
#228 = SURFACE_STYLE_FILL_AREA( #268 );
#229 = ORIENTED_EDGE( '', *, *, #267, .T. );
#230 = ORIENTED_EDGE( '', *, *, #263, .T. );
#231 = ORIENTED_EDGE( '', *, *, #252, .T. );
#232 = ORIENTED_EDGE( '', *, *, #261, .T. );
#233 = CARTESIAN_POINT( '', ( 13.0000000000000, 0.000000000000000, 0.000000000000000 ) );
#234 = DIRECTION( '', ( 0.000000000000000, 1.00000000000000, 0.000000000000000 ) );
#235 = DIRECTION( '', ( 0.000000000000000, -0.000000000000000, 1.00000000000000 ) );
#236 = SURFACE_STYLE_FILL_AREA( #269 );
#237 = ORIENTED_EDGE( '', *, *, #265, .T. );
#238 = ORIENTED_EDGE( '', *, *, #249, .F. );
#239 = CARTESIAN_POINT( '', ( 0.000000000000000, 8.70000000000000, 0.000000000000000 ) );
#240 = DIRECTION( '', ( -0.000000000000000, -1.00000000000000, -0.000000000000000 ) );
#241 = DIRECTION( '', ( 0.000000000000000, 0.000000000000000, -1.00000000000000 ) );
#242 = SURFACE_STYLE_FILL_AREA( #270 );
#243 = ORIENTED_EDGE( '', *, *, #258, .F. );
#244 = CARTESIAN_POINT( '', ( 5.50000000000001, 8.70000000000000, 0.000000000000000 ) );
#245 = DIRECTION( '', ( 0.000000000000000, 1.00000000000000, 0.000000000000000 ) );
#246 = DIRECTION( '', ( 0.000000000000000, -0.000000000000000, 1.00000000000000 ) );
#247 = FILL_AREA_STYLE( '', ( #271 ) );
#248 = EDGE_CURVE( '', #272, #272, #273, .T. );
#249 = EDGE_CURVE( '', #274, #274, #275, .T. );
#250 = FILL_AREA_STYLE( '', ( #276 ) );
#251 = EDGE_CURVE( '', #277, #277, #278, .T. );
#252 = EDGE_CURVE( '', #279, #279, #280, .T. );
#253 = FILL_AREA_STYLE( '', ( #281 ) );
#254 = EDGE_CURVE( '', #282, #282, #283, .T. );
#255 = EDGE_CURVE( '', #284, #284, #285, .T. );
#256 = EDGE_CURVE( '', #286, #286, #287, .T. );
#257 = FILL_AREA_STYLE( '', ( #288 ) );
#258 = EDGE_CURVE( '', #289, #289, #290, .T. );
#259 = EDGE_CURVE( '', #291, #291, #292, .T. );
#260 = FILL_AREA_STYLE( '', ( #293 ) );
#261 = EDGE_CURVE( '', #294, #294, #295, .T. );
#262 = FILL_AREA_STYLE( '', ( #296 ) );
#263 = EDGE_CURVE( '', #297, #297, #298, .T. );
#264 = FILL_AREA_STYLE( '', ( #299 ) );
#265 = EDGE_CURVE( '', #300, #300, #301, .T. );
#266 = FILL_AREA_STYLE( '', ( #302 ) );
#267 = EDGE_CURVE( '', #303, #303, #304, .T. );
#268 = FILL_AREA_STYLE( '', ( #305 ) );
#269 = FILL_AREA_STYLE( '', ( #306 ) );
#270 = FILL_AREA_STYLE( '', ( #307 ) );
#271 = FILL_AREA_STYLE_COLOUR( '', #308 );
#272 = VERTEX_POINT( '', #309 );
#273 = CIRCLE( '', #310, 8.50000000000000 );
#274 = VERTEX_POINT( '', #311 );
#275 = CIRCLE( '', #312, 8.50000000000000 );
#276 = FILL_AREA_STYLE_COLOUR( '', #313 );
#277 = VERTEX_POINT( '', #314 );
#278 = CIRCLE( '', #315, 1.15000000000000 );
#279 = VERTEX_POINT( '', #316 );
#280 = CIRCLE( '', #317, 1.15000000000000 );
#281 = FILL_AREA_STYLE_COLOUR( '', #318 );
#282 = VERTEX_POINT( '', #319 );
#283 = CIRCLE( '', #320, 13.0000000000000 );
#284 = VERTEX_POINT( '', #321 );
#285 = CIRCLE( '', #322, 1.15000000000000 );
#286 = VERTEX_POINT( '', #323 );
#287 = CIRCLE( '', #324, 1.15000000000000 );
#288 = FILL_AREA_STYLE_COLOUR( '', #325 );
#289 = VERTEX_POINT( '', #326 );
#290 = CIRCLE( '', #327, 5.50000000000000 );
#291 = VERTEX_POINT( '', #328 );
#292 = CIRCLE( '', #329, 5.87333333330000 );
#293 = FILL_AREA_STYLE_COLOUR( '', #330 );
#294 = VERTEX_POINT( '', #331 );
#295 = CIRCLE( '', #332, 13.0000000000000 );
#296 = FILL_AREA_STYLE_COLOUR( '', #333 );
#297 = VERTEX_POINT( '', #334 );
#298 = CIRCLE( '', #335, 1.15000000000000 );
#299 = FILL_AREA_STYLE_COLOUR( '', #336 );
#300 = VERTEX_POINT( '', #337 );
#301 = CIRCLE( '', #338, 8.12666666670000 );
#302 = FILL_AREA_STYLE_COLOUR( '', #339 );
#303 = VERTEX_POINT( '', #340 );
#304 = CIRCLE( '', #341, 1.15000000000000 );
#305 = FILL_AREA_STYLE_COLOUR( '', #342 );
#306 = FILL_AREA_STYLE_COLOUR( '', #343 );
#307 = FILL_AREA_STYLE_COLOUR( '', #344 );
#308 = COLOUR_RGB( '', 0.689999997600000, 0.689999997600000, 0.689999997600000 );
#309 = CARTESIAN_POINT( '', ( 0.000000000000000, 3.00000000000000, -8.50000000000000 ) );
#310 = AXIS2_PLACEMENT_3D( '', #345, #346, #347 );
#311 = CARTESIAN_POINT( '', ( 0.000000000000000, 8.70000000000000, -8.50000000000000 ) );
#312 = AXIS2_PLACEMENT_3D( '', #348, #349, #350 );
#313 = COLOUR_RGB( '', 0.689999997600000, 0.689999997600000, 0.689999997600000 );
#314 = CARTESIAN_POINT( '', ( -9.60000000000000, 3.00000000000000, 0.000000000000000 ) );
#315 = AXIS2_PLACEMENT_3D( '', #351, #352, #353 );
#316 = CARTESIAN_POINT( '', ( -9.60000000000000, 0.000000000000000, 0.000000000000000 ) );
#317 = AXIS2_PLACEMENT_3D( '', #354, #355, #356 );
#318 = COLOUR_RGB( '', 0.689999997600000, 0.689999997600000, 0.689999997600000 );
#319 = CARTESIAN_POINT( '', ( 0.000000000000000, 3.00000000000000, -13.0000000000000 ) );
#320 = AXIS2_PLACEMENT_3D( '', #357, #358, #359 );
#321 = CARTESIAN_POINT( '', ( 4.80000000000000, 3.00000000000000, -8.31384387633061 ) );
#322 = AXIS2_PLACEMENT_3D( '', #360, #361, #362 );
#323 = CARTESIAN_POINT( '', ( 4.80000000000000, 3.00000000000000, 8.31384387633061 ) );
#324 = AXIS2_PLACEMENT_3D( '', #363, #364, #365 );
#325 = COLOUR_RGB( '', 0.689999997600000, 0.689999997600000, 0.689999997600000 );
#326 = CARTESIAN_POINT( '', ( 0.000000000000000, 8.70000000000000, -5.50000000000001 ) );
#327 = AXIS2_PLACEMENT_3D( '', #366, #367, #368 );
#328 = CARTESIAN_POINT( '', ( 0.000000000000000, 9.34855394704081, -5.87333333333333 ) );
#329 = AXIS2_PLACEMENT_3D( '', #369, #370, #371 );
#330 = COLOUR_RGB( '', 0.689999997600000, 0.689999997600000, 0.689999997600000 );
#331 = CARTESIAN_POINT( '', ( 0.000000000000000, 0.000000000000000, -13.0000000000000 ) );
#332 = AXIS2_PLACEMENT_3D( '', #372, #373, #374 );
#333 = COLOUR_RGB( '', 0.689999997600000, 0.689999997600000, 0.689999997600000 );
#334 = CARTESIAN_POINT( '', ( 4.80000000000000, 0.000000000000000, 8.31384387633061 ) );
#335 = AXIS2_PLACEMENT_3D( '', #375, #376, #377 );
#336 = COLOUR_RGB( '', 0.689999997600000, 0.689999997600000, 0.689999997600000 );
#337 = CARTESIAN_POINT( '', ( 0.000000000000000, 9.34855394704081, -8.12666666666667 ) );
#338 = AXIS2_PLACEMENT_3D( '', #378, #379, #380 );
#339 = COLOUR_RGB( '', 0.689999997600000, 0.689999997600000, 0.689999997600000 );
#340 = CARTESIAN_POINT( '', ( 4.80000000000000, 0.000000000000000, -8.31384387633061 ) );
#341 = AXIS2_PLACEMENT_3D( '', #381, #382, #383 );
#342 = COLOUR_RGB( '', 0.689999997600000, 0.689999997600000, 0.689999997600000 );
#343 = COLOUR_RGB( '', 0.689999997600000, 0.689999997600000, 0.689999997600000 );
#344 = COLOUR_RGB( '', 0.689999997600000, 0.689999997600000, 0.689999997600000 );
#345 = CARTESIAN_POINT( '', ( 0.000000000000000, 3.00000000000000, 0.000000000000000 ) );
#346 = DIRECTION( '', ( 0.000000000000000, -1.00000000000000, -0.000000000000000 ) );
#347 = DIRECTION( '', ( 0.000000000000000, 0.000000000000000, -1.00000000000000 ) );
#348 = CARTESIAN_POINT( '', ( 0.000000000000000, 8.70000000000000, 0.000000000000000 ) );
#349 = DIRECTION( '', ( 0.000000000000000, -1.00000000000000, -0.000000000000000 ) );
#350 = DIRECTION( '', ( 0.000000000000000, 0.000000000000000, -1.00000000000000 ) );
#351 = CARTESIAN_POINT( '', ( -10.7500000000000, 3.00000000000000, 0.000000000000000 ) );
#352 = DIRECTION( '', ( -0.000000000000000, 1.00000000000000, 0.000000000000000 ) );
#353 = DIRECTION( '', ( 1.00000000000000, 0.000000000000000, 0.000000000000000 ) );
#354 = CARTESIAN_POINT( '', ( -10.7500000000000, 0.000000000000000, 0.000000000000000 ) );
#355 = DIRECTION( '', ( -0.000000000000000, 1.00000000000000, 0.000000000000000 ) );
#356 = DIRECTION( '', ( 1.00000000000000, 0.000000000000000, 0.000000000000000 ) );
#357 = CARTESIAN_POINT( '', ( 0.000000000000000, 3.00000000000000, 0.000000000000000 ) );
#358 = DIRECTION( '', ( 0.000000000000000, -1.00000000000000, -0.000000000000000 ) );
#359 = DIRECTION( '', ( 0.000000000000000, 0.000000000000000, -1.00000000000000 ) );
#360 = CARTESIAN_POINT( '', ( 5.37500000000000, 3.00000000000000, -9.30977309068272 ) );
#361 = DIRECTION( '', ( 0.000000000000000, 1.00000000000000, 0.000000000000000 ) );
#362 = DIRECTION( '', ( -0.500000000000000, 0.000000000000000, 0.866025403784439 ) );
#363 = CARTESIAN_POINT( '', ( 5.37500000000000, 3.00000000000000, 9.30977309068271 ) );
#364 = DIRECTION( '', ( 0.000000000000000, 1.00000000000000, 0.000000000000000 ) );
#365 = DIRECTION( '', ( -0.500000000000000, 0.000000000000000, -0.866025403784439 ) );
#366 = CARTESIAN_POINT( '', ( 0.000000000000000, 8.70000000000000, 0.000000000000000 ) );
#367 = DIRECTION( '', ( 0.000000000000000, -1.00000000000000, -0.000000000000000 ) );
#368 = DIRECTION( '', ( 0.000000000000000, 0.000000000000000, -1.00000000000000 ) );
#369 = CARTESIAN_POINT( '', ( 0.000000000000000, 9.34855394704081, 0.000000000000000 ) );
#370 = DIRECTION( '', ( 0.000000000000000, -1.00000000000000, -0.000000000000000 ) );
#371 = DIRECTION( '', ( 0.000000000000000, 0.000000000000000, -1.00000000000000 ) );
#372 = CARTESIAN_POINT( '', ( 0.000000000000000, 0.000000000000000, 0.000000000000000 ) );
#373 = DIRECTION( '', ( 0.000000000000000, -1.00000000000000, -0.000000000000000 ) );
#374 = DIRECTION( '', ( 0.000000000000000, 0.000000000000000, -1.00000000000000 ) );
#375 = CARTESIAN_POINT( '', ( 5.37500000000000, 0.000000000000000, 9.30977309068271 ) );
#376 = DIRECTION( '', ( 0.000000000000000, 1.00000000000000, 0.000000000000000 ) );
#377 = DIRECTION( '', ( -0.500000000000000, 0.000000000000000, -0.866025403784439 ) );
#378 = CARTESIAN_POINT( '', ( 0.000000000000000, 9.34855394704081, 0.000000000000000 ) );
#379 = DIRECTION( '', ( 0.000000000000000, -1.00000000000000, -0.000000000000000 ) );
#380 = DIRECTION( '', ( 0.000000000000000, 0.000000000000000, -1.00000000000000 ) );
#381 = CARTESIAN_POINT( '', ( 5.37500000000000, 0.000000000000000, -9.30977309068272 ) );
#382 = DIRECTION( '', ( 0.000000000000000, 1.00000000000000, 0.000000000000000 ) );
#383 = DIRECTION( '', ( -0.500000000000000, 0.000000000000000, 0.866025403784439 ) );
ENDSEC;
END-ISO-10303-21;
