ISO-10303-21;
HEADER;
FILE_DESCRIPTION( ( 'STEP AP214' ), '1' );
FILE_NAME( '//goodhand-server/Shared Folders/GoodHand Data/Kipp CAD/K0163/K0163.1100X12.stp', '2020-11-26T10:29:42', ( '' ), ( '' ), ' ', 'PARTsolutions', ' ' );
FILE_SCHEMA( ( 'AUTOMOTIVE_DESIGN { 1 0 10303 214 1 1 1 1 }' ) );
ENDSEC;
DATA;
#1 = MECHANICAL_DESIGN_GEOMETRIC_PRESENTATION_REPRESENTATION( ' ', ( #10, #11, #12, #13, #14, #15, #16, #17, #18, #19, #20, #21, #22, #23, #24 ), #6 );
#2 = PRODUCT_DEFINITION_CONTEXT( '', #25, 'design' );
#3 = APPLICATION_PROTOCOL_DEFINITION( 'international standard', 'automotive_design', 2001, #25 );
#4 = PRODUCT_CATEGORY_RELATIONSHIP( 'NONE', 'NONE', #26, #27 );
#5 = SHAPE_DEFINITION_REPRESENTATION( #28, #29 );
#6 =  ( GEOMETRIC_REPRESENTATION_CONTEXT( 3 )GLOBAL_UNCERTAINTY_ASSIGNED_CONTEXT( ( #32 ) )GLOBAL_UNIT_ASSIGNED_CONTEXT( ( #34, #35, #36 ) )REPRESENTATION_CONTEXT( 'NONE', 'WORKSPACE' ) );
#10 = STYLED_ITEM( '', ( #38 ), #39 );
#11 = STYLED_ITEM( '', ( #40 ), #41 );
#12 = STYLED_ITEM( '', ( #42 ), #43 );
#13 = STYLED_ITEM( '', ( #44 ), #45 );
#14 = STYLED_ITEM( '', ( #46 ), #47 );
#15 = STYLED_ITEM( '', ( #48 ), #49 );
#16 = STYLED_ITEM( '', ( #50 ), #51 );
#17 = STYLED_ITEM( '', ( #52 ), #53 );
#18 = STYLED_ITEM( '', ( #54 ), #55 );
#19 = STYLED_ITEM( '', ( #56 ), #57 );
#20 = STYLED_ITEM( '', ( #58 ), #59 );
#21 = STYLED_ITEM( '', ( #60 ), #61 );
#22 = STYLED_ITEM( '', ( #62 ), #63 );
#23 = STYLED_ITEM( '', ( #64 ), #65 );
#24 = STYLED_ITEM( '', ( #66 ), #67 );
#25 = APPLICATION_CONTEXT( 'core data for automotive mechanical design processes' );
#26 = PRODUCT_CATEGORY( 'part', 'NONE' );
#27 = PRODUCT_RELATED_PRODUCT_CATEGORY( 'detail', ' ', ( #68 ) );
#28 = PRODUCT_DEFINITION_SHAPE( 'NONE', 'NONE', #69 );
#29 = ADVANCED_BREP_SHAPE_REPRESENTATION( '_K0163.1100X12', ( #70, #71 ), #6 );
#32 = UNCERTAINTY_MEASURE_WITH_UNIT( LENGTH_MEASURE( 0.00100000000000000 ), #34, '', '' );
#34 =  ( CONVERSION_BASED_UNIT( 'MILLIMETRE', #74 )LENGTH_UNIT(  )NAMED_UNIT( #77 ) );
#35 =  ( NAMED_UNIT( #79 )PLANE_ANGLE_UNIT(  )SI_UNIT( $, .RADIAN. ) );
#36 =  ( NAMED_UNIT( #79 )SI_UNIT( $, .STERADIAN. )SOLID_ANGLE_UNIT(  ) );
#38 = PRESENTATION_STYLE_ASSIGNMENT( ( #85 ) );
#39 = ADVANCED_FACE( '', ( #86, #87 ), #88, .T. );
#40 = PRESENTATION_STYLE_ASSIGNMENT( ( #89 ) );
#41 = ADVANCED_FACE( '', ( #90 ), #91, .T. );
#42 = PRESENTATION_STYLE_ASSIGNMENT( ( #92 ) );
#43 = ADVANCED_FACE( '', ( #93, #94 ), #95, .F. );
#44 = PRESENTATION_STYLE_ASSIGNMENT( ( #96 ) );
#45 = ADVANCED_FACE( '', ( #97 ), #98, .F. );
#46 = PRESENTATION_STYLE_ASSIGNMENT( ( #99 ) );
#47 = ADVANCED_FACE( '', ( #100, #101 ), #102, .T. );
#48 = PRESENTATION_STYLE_ASSIGNMENT( ( #103 ) );
#49 = ADVANCED_FACE( '', ( #104, #105 ), #106, .F. );
#50 = PRESENTATION_STYLE_ASSIGNMENT( ( #107 ) );
#51 = ADVANCED_FACE( '', ( #108 ), #109, .T. );
#52 = PRESENTATION_STYLE_ASSIGNMENT( ( #110 ) );
#53 = ADVANCED_FACE( '', ( #111 ), #112, .T. );
#54 = PRESENTATION_STYLE_ASSIGNMENT( ( #113 ) );
#55 = ADVANCED_FACE( '', ( #114, #115 ), #116, .T. );
#56 = PRESENTATION_STYLE_ASSIGNMENT( ( #117 ) );
#57 = ADVANCED_FACE( '', ( #118, #119 ), #120, .F. );
#58 = PRESENTATION_STYLE_ASSIGNMENT( ( #121 ) );
#59 = ADVANCED_FACE( '', ( #122, #123 ), #124, .F. );
#60 = PRESENTATION_STYLE_ASSIGNMENT( ( #125 ) );
#61 = ADVANCED_FACE( '', ( #126, #127 ), #128, .T. );
#62 = PRESENTATION_STYLE_ASSIGNMENT( ( #129 ) );
#63 = ADVANCED_FACE( '', ( #130, #131 ), #132, .F. );
#64 = PRESENTATION_STYLE_ASSIGNMENT( ( #133 ) );
#65 = ADVANCED_FACE( '', ( #134, #135 ), #136, .F. );
#66 = PRESENTATION_STYLE_ASSIGNMENT( ( #137 ) );
#67 = ADVANCED_FACE( '', ( #138, #139, #140 ), #141, .T. );
#68 = PRODUCT( '_K0163.1100X12', '_K0163.1100X12', 'PART-_K0163.1100X12-DESC', ( #142 ) );
#69 = PRODUCT_DEFINITION( 'NONE', 'NONE', #143, #2 );
#70 = MANIFOLD_SOLID_BREP( '_K0163.1100X12', #144 );
#71 = AXIS2_PLACEMENT_3D( '', #145, #146, #147 );
#74 = LENGTH_MEASURE_WITH_UNIT( LENGTH_MEASURE( 1.00000000000000 ), #148 );
#77 = DIMENSIONAL_EXPONENTS( 1.00000000000000, 0.000000000000000, 0.000000000000000, 0.000000000000000, 0.000000000000000, 0.000000000000000, 0.000000000000000 );
#79 = DIMENSIONAL_EXPONENTS( 0.000000000000000, 0.000000000000000, 0.000000000000000, 0.000000000000000, 0.000000000000000, 0.000000000000000, 0.000000000000000 );
#85 = SURFACE_STYLE_USAGE( .BOTH., #149 );
#86 = FACE_OUTER_BOUND( '', #150, .T. );
#87 = FACE_OUTER_BOUND( '', #151, .T. );
#88 = TOROIDAL_SURFACE( '', #152, 40.7016896883000, 10.0000000000000 );
#89 = SURFACE_STYLE_USAGE( .BOTH., #153 );
#90 = FACE_OUTER_BOUND( '', #154, .T. );
#91 = PLANE( '', #155 );
#92 = SURFACE_STYLE_USAGE( .BOTH., #156 );
#93 = FACE_OUTER_BOUND( '', #157, .T. );
#94 = FACE_BOUND( '', #158, .T. );
#95 = CONICAL_SURFACE( '', #159, 14.0000000000000, 1.08517423350000 );
#96 = SURFACE_STYLE_USAGE( .BOTH., #160 );
#97 = FACE_OUTER_BOUND( '', #161, .T. );
#98 = CYLINDRICAL_SURFACE( '', #162, 6.00000000000000 );
#99 = SURFACE_STYLE_USAGE( .BOTH., #163 );
#100 = FACE_OUTER_BOUND( '', #164, .T. );
#101 = FACE_OUTER_BOUND( '', #165, .T. );
#102 = CYLINDRICAL_SURFACE( '', #166, 14.0000000000000 );
#103 = SURFACE_STYLE_USAGE( .BOTH., #167 );
#104 = FACE_BOUND( '', #168, .T. );
#105 = FACE_OUTER_BOUND( '', #169, .T. );
#106 = PLANE( '', #170 );
#107 = SURFACE_STYLE_USAGE( .BOTH., #171 );
#108 = FACE_OUTER_BOUND( '', #172, .T. );
#109 = PLANE( '', #173 );
#110 = SURFACE_STYLE_USAGE( .BOTH., #174 );
#111 = FACE_OUTER_BOUND( '', #175, .T. );
#112 = PLANE( '', #176 );
#113 = SURFACE_STYLE_USAGE( .BOTH., #177 );
#114 = FACE_BOUND( '', #178, .T. );
#115 = FACE_OUTER_BOUND( '', #179, .T. );
#116 = CONICAL_SURFACE( '', #180, 34.0000000000000, 1.06795311590000 );
#117 = SURFACE_STYLE_USAGE( .BOTH., #181 );
#118 = FACE_OUTER_BOUND( '', #182, .T. );
#119 = FACE_BOUND( '', #183, .T. );
#120 = PLANE( '', #184 );
#121 = SURFACE_STYLE_USAGE( .BOTH., #185 );
#122 = FACE_BOUND( '', #186, .T. );
#123 = FACE_OUTER_BOUND( '', #187, .T. );
#124 = CONICAL_SURFACE( '', #188, 41.0000000000000, 0.507793112000000 );
#125 = SURFACE_STYLE_USAGE( .BOTH., #189 );
#126 = FACE_OUTER_BOUND( '', #190, .T. );
#127 = FACE_OUTER_BOUND( '', #191, .T. );
#128 = CYLINDRICAL_SURFACE( '', #192, 14.0000000000000 );
#129 = SURFACE_STYLE_USAGE( .BOTH., #193 );
#130 = FACE_OUTER_BOUND( '', #194, .T. );
#131 = FACE_BOUND( '', #195, .T. );
#132 = CONICAL_SURFACE( '', #196, 39.5000000000000, 0.185379756300000 );
#133 = SURFACE_STYLE_USAGE( .BOTH., #197 );
#134 = FACE_BOUND( '', #198, .T. );
#135 = FACE_OUTER_BOUND( '', #199, .T. );
#136 = CONICAL_SURFACE( '', #200, 40.5000000000000, 1.07685495790000 );
#137 = SURFACE_STYLE_USAGE( .BOTH., #201 );
#138 = FACE_BOUND( '', #202, .T. );
#139 = FACE_OUTER_BOUND( '', #203, .T. );
#140 = FACE_OUTER_BOUND( '', #204, .T. );
#141 = TOROIDAL_SURFACE( '', #205, 42.2500000000000, 7.75000000000000 );
#142 = PRODUCT_CONTEXT( '', #25, 'mechanical' );
#143 = PRODUCT_DEFINITION_FORMATION_WITH_SPECIFIED_SOURCE( ' ', 'NONE', #68, .NOT_KNOWN. );
#144 = CLOSED_SHELL( '', ( #57, #41, #51, #45, #53, #49, #47, #55, #65, #59, #67, #63, #39, #43, #61 ) );
#145 = CARTESIAN_POINT( '', ( 0.000000000000000, 0.000000000000000, 0.000000000000000 ) );
#146 = DIRECTION( '', ( 0.000000000000000, 0.000000000000000, 1.00000000000000 ) );
#147 = DIRECTION( '', ( 1.00000000000000, 0.000000000000000, 0.000000000000000 ) );
#148 =  ( LENGTH_UNIT(  )NAMED_UNIT( #77 )SI_UNIT( .MILLI., .METRE. ) );
#149 = SURFACE_SIDE_STYLE( '', ( #207 ) );
#150 = EDGE_LOOP( '', ( #208 ) );
#151 = EDGE_LOOP( '', ( #209 ) );
#152 = AXIS2_PLACEMENT_3D( '', #210, #211, #212 );
#153 = SURFACE_SIDE_STYLE( '', ( #213 ) );
#154 = EDGE_LOOP( '', ( #214, #215, #216, #217 ) );
#155 = AXIS2_PLACEMENT_3D( '', #218, #219, #220 );
#156 = SURFACE_SIDE_STYLE( '', ( #221 ) );
#157 = EDGE_LOOP( '', ( #222 ) );
#158 = EDGE_LOOP( '', ( #223 ) );
#159 = AXIS2_PLACEMENT_3D( '', #224, #225, #226 );
#160 = SURFACE_SIDE_STYLE( '', ( #227 ) );
#161 = EDGE_LOOP( '', ( #228, #229, #230, #231 ) );
#162 = AXIS2_PLACEMENT_3D( '', #232, #233, #234 );
#163 = SURFACE_SIDE_STYLE( '', ( #235 ) );
#164 = EDGE_LOOP( '', ( #236 ) );
#165 = EDGE_LOOP( '', ( #237 ) );
#166 = AXIS2_PLACEMENT_3D( '', #238, #239, #240 );
#167 = SURFACE_SIDE_STYLE( '', ( #241 ) );
#168 = EDGE_LOOP( '', ( #242, #243, #244, #245 ) );
#169 = EDGE_LOOP( '', ( #246 ) );
#170 = AXIS2_PLACEMENT_3D( '', #247, #248, #249 );
#171 = SURFACE_SIDE_STYLE( '', ( #250 ) );
#172 = EDGE_LOOP( '', ( #251, #252, #253, #254 ) );
#173 = AXIS2_PLACEMENT_3D( '', #255, #256, #257 );
#174 = SURFACE_SIDE_STYLE( '', ( #258 ) );
#175 = EDGE_LOOP( '', ( #259, #260, #261, #262 ) );
#176 = AXIS2_PLACEMENT_3D( '', #263, #264, #265 );
#177 = SURFACE_SIDE_STYLE( '', ( #266 ) );
#178 = EDGE_LOOP( '', ( #267 ) );
#179 = EDGE_LOOP( '', ( #268 ) );
#180 = AXIS2_PLACEMENT_3D( '', #269, #270, #271 );
#181 = SURFACE_SIDE_STYLE( '', ( #272 ) );
#182 = EDGE_LOOP( '', ( #273 ) );
#183 = EDGE_LOOP( '', ( #274, #275, #276, #277 ) );
#184 = AXIS2_PLACEMENT_3D( '', #278, #279, #280 );
#185 = SURFACE_SIDE_STYLE( '', ( #281 ) );
#186 = EDGE_LOOP( '', ( #282 ) );
#187 = EDGE_LOOP( '', ( #283 ) );
#188 = AXIS2_PLACEMENT_3D( '', #284, #285, #286 );
#189 = SURFACE_SIDE_STYLE( '', ( #287 ) );
#190 = EDGE_LOOP( '', ( #288 ) );
#191 = EDGE_LOOP( '', ( #289 ) );
#192 = AXIS2_PLACEMENT_3D( '', #290, #291, #292 );
#193 = SURFACE_SIDE_STYLE( '', ( #293 ) );
#194 = EDGE_LOOP( '', ( #294 ) );
#195 = EDGE_LOOP( '', ( #295 ) );
#196 = AXIS2_PLACEMENT_3D( '', #296, #297, #298 );
#197 = SURFACE_SIDE_STYLE( '', ( #299 ) );
#198 = EDGE_LOOP( '', ( #300 ) );
#199 = EDGE_LOOP( '', ( #301 ) );
#200 = AXIS2_PLACEMENT_3D( '', #302, #303, #304 );
#201 = SURFACE_SIDE_STYLE( '', ( #305 ) );
#202 = VERTEX_LOOP( '', #306 );
#203 = EDGE_LOOP( '', ( #307 ) );
#204 = EDGE_LOOP( '', ( #308 ) );
#205 = AXIS2_PLACEMENT_3D( '', #309, #310, #311 );
#207 = SURFACE_STYLE_FILL_AREA( #312 );
#208 = ORIENTED_EDGE( '', *, *, #313, .T. );
#209 = ORIENTED_EDGE( '', *, *, #314, .F. );
#210 = CARTESIAN_POINT( '', ( 18.0724654675479, 0.000000000000000, 0.000000000000000 ) );
#211 = DIRECTION( '', ( -1.00000000000000, 0.000000000000000, 0.000000000000000 ) );
#212 = DIRECTION( '', ( 0.000000000000000, 0.000000000000000, 1.00000000000000 ) );
#213 = SURFACE_STYLE_FILL_AREA( #315 );
#214 = ORIENTED_EDGE( '', *, *, #316, .T. );
#215 = ORIENTED_EDGE( '', *, *, #317, .T. );
#216 = ORIENTED_EDGE( '', *, *, #318, .F. );
#217 = ORIENTED_EDGE( '', *, *, #319, .F. );
#218 = CARTESIAN_POINT( '', ( 25.5000000000000, 7.80000000000000, -2.00000000000000 ) );
#219 = DIRECTION( '', ( 0.000000000000000, -1.00000000000000, 0.000000000000000 ) );
#220 = DIRECTION( '', ( 0.000000000000000, 0.000000000000000, -1.00000000000000 ) );
#221 = SURFACE_STYLE_FILL_AREA( #320 );
#222 = ORIENTED_EDGE( '', *, *, #313, .F. );
#223 = ORIENTED_EDGE( '', *, *, #321, .T. );
#224 = CARTESIAN_POINT( '', ( 13.5000000000000, 0.000000000000000, 0.000000000000000 ) );
#225 = DIRECTION( '', ( 1.00000000000000, -0.000000000000000, 0.000000000000000 ) );
#226 = DIRECTION( '', ( 0.000000000000000, 0.000000000000000, -1.00000000000000 ) );
#227 = SURFACE_STYLE_FILL_AREA( #322 );
#228 = ORIENTED_EDGE( '', *, *, #323, .T. );
#229 = ORIENTED_EDGE( '', *, *, #324, .T. );
#230 = ORIENTED_EDGE( '', *, *, #325, .T. );
#231 = ORIENTED_EDGE( '', *, *, #326, .F. );
#232 = CARTESIAN_POINT( '', ( 25.5000000000000, 3.25260651745651E-16, 0.000000000000000 ) );
#233 = DIRECTION( '', ( 1.00000000000000, -0.000000000000000, -0.000000000000000 ) );
#234 = DIRECTION( '', ( 0.000000000000000, 0.000000000000000, 1.00000000000000 ) );
#235 = SURFACE_STYLE_FILL_AREA( #327 );
#236 = ORIENTED_EDGE( '', *, *, #328, .F. );
#237 = ORIENTED_EDGE( '', *, *, #329, .T. );
#238 = CARTESIAN_POINT( '', ( 0.000000000000000, 0.000000000000000, 0.000000000000000 ) );
#239 = DIRECTION( '', ( 1.00000000000000, -0.000000000000000, -0.000000000000000 ) );
#240 = DIRECTION( '', ( 0.000000000000000, 0.000000000000000, 1.00000000000000 ) );
#241 = SURFACE_STYLE_FILL_AREA( #330 );
#242 = ORIENTED_EDGE( '', *, *, #331, .T. );
#243 = ORIENTED_EDGE( '', *, *, #325, .F. );
#244 = ORIENTED_EDGE( '', *, *, #332, .T. );
#245 = ORIENTED_EDGE( '', *, *, #318, .T. );
#246 = ORIENTED_EDGE( '', *, *, #328, .T. );
#247 = CARTESIAN_POINT( '', ( 0.000000000000000, -14.0000000000000, 0.000000000000000 ) );
#248 = DIRECTION( '', ( 1.00000000000000, 0.000000000000000, 0.000000000000000 ) );
#249 = DIRECTION( '', ( 0.000000000000000, 0.000000000000000, -1.00000000000000 ) );
#250 = SURFACE_STYLE_FILL_AREA( #333 );
#251 = ORIENTED_EDGE( '', *, *, #334, .T. );
#252 = ORIENTED_EDGE( '', *, *, #319, .T. );
#253 = ORIENTED_EDGE( '', *, *, #332, .F. );
#254 = ORIENTED_EDGE( '', *, *, #324, .F. );
#255 = CARTESIAN_POINT( '', ( 25.5000000000000, 5.65685424949238, -2.00000000000000 ) );
#256 = DIRECTION( '', ( 0.000000000000000, 0.000000000000000, 1.00000000000000 ) );
#257 = DIRECTION( '', ( 1.00000000000000, 0.000000000000000, -0.000000000000000 ) );
#258 = SURFACE_STYLE_FILL_AREA( #335 );
#259 = ORIENTED_EDGE( '', *, *, #336, .T. );
#260 = ORIENTED_EDGE( '', *, *, #326, .T. );
#261 = ORIENTED_EDGE( '', *, *, #331, .F. );
#262 = ORIENTED_EDGE( '', *, *, #317, .F. );
#263 = CARTESIAN_POINT( '', ( 25.5000000000000, 7.80000000000000, 2.00000000000001 ) );
#264 = DIRECTION( '', ( 0.000000000000000, 3.23771442155238E-15, -1.00000000000000 ) );
#265 = DIRECTION( '', ( 0.000000000000000, 1.00000000000000, 3.23771442155238E-15 ) );
#266 = SURFACE_STYLE_FILL_AREA( #337 );
#267 = ORIENTED_EDGE( '', *, *, #329, .F. );
#268 = ORIENTED_EDGE( '', *, *, #338, .T. );
#269 = CARTESIAN_POINT( '', ( 20.0000000000000, 0.000000000000000, 0.000000000000000 ) );
#270 = DIRECTION( '', ( 1.00000000000000, -0.000000000000000, 0.000000000000000 ) );
#271 = DIRECTION( '', ( 0.000000000000000, 0.000000000000000, -1.00000000000000 ) );
#272 = SURFACE_STYLE_FILL_AREA( #339 );
#273 = ORIENTED_EDGE( '', *, *, #340, .F. );
#274 = ORIENTED_EDGE( '', *, *, #336, .F. );
#275 = ORIENTED_EDGE( '', *, *, #316, .F. );
#276 = ORIENTED_EDGE( '', *, *, #334, .F. );
#277 = ORIENTED_EDGE( '', *, *, #323, .F. );
#278 = CARTESIAN_POINT( '', ( 17.0000000000000, 0.000000000000000, 0.000000000000000 ) );
#279 = DIRECTION( '', ( -1.00000000000000, 0.000000000000000, 0.000000000000000 ) );
#280 = DIRECTION( '', ( 0.000000000000000, 0.000000000000000, 1.00000000000000 ) );
#281 = SURFACE_STYLE_FILL_AREA( #341 );
#282 = ORIENTED_EDGE( '', *, *, #342, .F. );
#283 = ORIENTED_EDGE( '', *, *, #343, .T. );
#284 = CARTESIAN_POINT( '', ( 15.6014707296108, 0.000000000000000, 0.000000000000000 ) );
#285 = DIRECTION( '', ( -1.00000000000000, -0.000000000000000, -0.000000000000000 ) );
#286 = DIRECTION( '', ( 0.000000000000000, 0.000000000000000, 1.00000000000000 ) );
#287 = SURFACE_STYLE_FILL_AREA( #344 );
#288 = ORIENTED_EDGE( '', *, *, #321, .F. );
#289 = ORIENTED_EDGE( '', *, *, #340, .T. );
#290 = CARTESIAN_POINT( '', ( 0.000000000000000, 0.000000000000000, 0.000000000000000 ) );
#291 = DIRECTION( '', ( 1.00000000000000, -0.000000000000000, -0.000000000000000 ) );
#292 = DIRECTION( '', ( 0.000000000000000, 0.000000000000000, 1.00000000000000 ) );
#293 = SURFACE_STYLE_FILL_AREA( #345 );
#294 = ORIENTED_EDGE( '', *, *, #346, .F. );
#295 = ORIENTED_EDGE( '', *, *, #314, .T. );
#296 = CARTESIAN_POINT( '', ( 28.0000000000000, 0.000000000000000, 0.000000000000000 ) );
#297 = DIRECTION( '', ( 1.00000000000000, -0.000000000000000, 0.000000000000000 ) );
#298 = DIRECTION( '', ( 0.000000000000000, 0.000000000000000, -1.00000000000000 ) );
#299 = SURFACE_STYLE_FILL_AREA( #347 );
#300 = ORIENTED_EDGE( '', *, *, #338, .F. );
#301 = ORIENTED_EDGE( '', *, *, #342, .T. );
#302 = CARTESIAN_POINT( '', ( 16.5000000000000, 0.000000000000000, 0.000000000000000 ) );
#303 = DIRECTION( '', ( -1.00000000000000, -0.000000000000000, -0.000000000000000 ) );
#304 = DIRECTION( '', ( 0.000000000000000, 0.000000000000000, 1.00000000000000 ) );
#305 = SURFACE_STYLE_FILL_AREA( #348 );
#306 = VERTEX_POINT( '', #349 );
#307 = ORIENTED_EDGE( '', *, *, #346, .T. );
#308 = ORIENTED_EDGE( '', *, *, #343, .F. );
#309 = CARTESIAN_POINT( '', ( 23.2500000000000, 0.000000000000000, 0.000000000000000 ) );
#310 = DIRECTION( '', ( -1.00000000000000, 0.000000000000000, 0.000000000000000 ) );
#311 = DIRECTION( '', ( 0.000000000000000, 0.000000000000000, 1.00000000000000 ) );
#312 = FILL_AREA_STYLE( '', ( #350 ) );
#313 = EDGE_CURVE( '', #351, #351, #352, .T. );
#314 = EDGE_CURVE( '', #353, #353, #354, .T. );
#315 = FILL_AREA_STYLE( '', ( #355 ) );
#316 = EDGE_CURVE( '', #356, #357, #358, .T. );
#317 = EDGE_CURVE( '', #357, #359, #360, .T. );
#318 = EDGE_CURVE( '', #361, #359, #362, .T. );
#319 = EDGE_CURVE( '', #356, #361, #363, .T. );
#320 = FILL_AREA_STYLE( '', ( #364 ) );
#321 = EDGE_CURVE( '', #365, #365, #366, .T. );
#322 = FILL_AREA_STYLE( '', ( #367 ) );
#323 = EDGE_CURVE( '', #368, #369, #370, .F. );
#324 = EDGE_CURVE( '', #369, #371, #372, .T. );
#325 = EDGE_CURVE( '', #371, #373, #374, .F. );
#326 = EDGE_CURVE( '', #368, #373, #375, .T. );
#327 = FILL_AREA_STYLE( '', ( #376 ) );
#328 = EDGE_CURVE( '', #377, #377, #378, .T. );
#329 = EDGE_CURVE( '', #379, #379, #380, .T. );
#330 = FILL_AREA_STYLE( '', ( #381 ) );
#331 = EDGE_CURVE( '', #359, #373, #382, .T. );
#332 = EDGE_CURVE( '', #371, #361, #383, .T. );
#333 = FILL_AREA_STYLE( '', ( #384 ) );
#334 = EDGE_CURVE( '', #369, #356, #385, .T. );
#335 = FILL_AREA_STYLE( '', ( #386 ) );
#336 = EDGE_CURVE( '', #357, #368, #387, .T. );
#337 = FILL_AREA_STYLE( '', ( #388 ) );
#338 = EDGE_CURVE( '', #389, #389, #390, .T. );
#339 = FILL_AREA_STYLE( '', ( #391 ) );
#340 = EDGE_CURVE( '', #392, #392, #393, .T. );
#341 = FILL_AREA_STYLE( '', ( #394 ) );
#342 = EDGE_CURVE( '', #395, #395, #396, .T. );
#343 = EDGE_CURVE( '', #397, #397, #398, .T. );
#344 = FILL_AREA_STYLE( '', ( #399 ) );
#345 = FILL_AREA_STYLE( '', ( #400 ) );
#346 = EDGE_CURVE( '', #401, #401, #402, .T. );
#347 = FILL_AREA_STYLE( '', ( #403 ) );
#348 = FILL_AREA_STYLE( '', ( #404 ) );
#349 = CARTESIAN_POINT( '', ( 23.2500000000000, 0.000000000000000, 50.0000000000000 ) );
#350 = FILL_AREA_STYLE_COLOUR( '', #405 );
#351 = VERTEX_POINT( '', #406 );
#352 = CIRCLE( '', #407, 32.0000000000000 );
#353 = VERTEX_POINT( '', #408 );
#354 = CIRCLE( '', #409, 39.5000000000000 );
#355 = FILL_AREA_STYLE_COLOUR( '', #410 );
#356 = VERTEX_POINT( '', #411 );
#357 = VERTEX_POINT( '', #412 );
#358 = LINE( '', #413, #414 );
#359 = VERTEX_POINT( '', #415 );
#360 = LINE( '', #416, #417 );
#361 = VERTEX_POINT( '', #418 );
#362 = LINE( '', #419, #420 );
#363 = LINE( '', #421, #422 );
#364 = FILL_AREA_STYLE_COLOUR( '', #423 );
#365 = VERTEX_POINT( '', #424 );
#366 = CIRCLE( '', #425, 14.0000000000000 );
#367 = FILL_AREA_STYLE_COLOUR( '', #426 );
#368 = VERTEX_POINT( '', #427 );
#369 = VERTEX_POINT( '', #428 );
#370 = CIRCLE( '', #429, 6.00000000000000 );
#371 = VERTEX_POINT( '', #430 );
#372 = LINE( '', #431, #432 );
#373 = VERTEX_POINT( '', #433 );
#374 = CIRCLE( '', #434, 6.00000000000000 );
#375 = LINE( '', #435, #436 );
#376 = FILL_AREA_STYLE_COLOUR( '', #437 );
#377 = VERTEX_POINT( '', #438 );
#378 = CIRCLE( '', #439, 14.0000000000000 );
#379 = VERTEX_POINT( '', #440 );
#380 = CIRCLE( '', #441, 14.0000000000000 );
#381 = FILL_AREA_STYLE_COLOUR( '', #442 );
#382 = LINE( '', #443, #444 );
#383 = LINE( '', #445, #446 );
#384 = FILL_AREA_STYLE_COLOUR( '', #447 );
#385 = LINE( '', #448, #449 );
#386 = FILL_AREA_STYLE_COLOUR( '', #450 );
#387 = LINE( '', #451, #452 );
#388 = FILL_AREA_STYLE_COLOUR( '', #453 );
#389 = VERTEX_POINT( '', #454 );
#390 = CIRCLE( '', #455, 34.0000000000000 );
#391 = FILL_AREA_STYLE_COLOUR( '', #456 );
#392 = VERTEX_POINT( '', #457 );
#393 = CIRCLE( '', #458, 14.0000000000000 );
#394 = FILL_AREA_STYLE_COLOUR( '', #459 );
#395 = VERTEX_POINT( '', #460 );
#396 = CIRCLE( '', #461, 40.5000000000000 );
#397 = VERTEX_POINT( '', #462 );
#398 = CIRCLE( '', #463, 41.0000000000000 );
#399 = FILL_AREA_STYLE_COLOUR( '', #464 );
#400 = FILL_AREA_STYLE_COLOUR( '', #465 );
#401 = VERTEX_POINT( '', #466 );
#402 = CIRCLE( '', #467, 40.0000000000000 );
#403 = FILL_AREA_STYLE_COLOUR( '', #468 );
#404 = FILL_AREA_STYLE_COLOUR( '', #469 );
#405 = COLOUR_RGB( '', 0.689999997600000, 0.689999997600000, 0.689999997600000 );
#406 = CARTESIAN_POINT( '', ( 23.0000000000000, 0.000000000000000, 32.0000000000000 ) );
#407 = AXIS2_PLACEMENT_3D( '', #470, #471, #472 );
#408 = CARTESIAN_POINT( '', ( 28.0000000000000, 0.000000000000000, 39.5000000000000 ) );
#409 = AXIS2_PLACEMENT_3D( '', #473, #474, #475 );
#410 = COLOUR_RGB( '', 0.689999997600000, 0.689999997600000, 0.689999997600000 );
#411 = CARTESIAN_POINT( '', ( 17.0000000000000, 7.80000000000000, -2.00000000000000 ) );
#412 = CARTESIAN_POINT( '', ( 17.0000000000000, 7.80000000000000, 2.00000000000001 ) );
#413 = CARTESIAN_POINT( '', ( 17.0000000000000, 7.80000000000000, 0.000000000000000 ) );
#414 = VECTOR( '', #476, 1000.00000000000 );
#415 = CARTESIAN_POINT( '', ( 0.000000000000000, 7.80000000000000, 2.00000000000001 ) );
#416 = CARTESIAN_POINT( '', ( 25.5000000000000, 7.80000000000000, 2.00000000000001 ) );
#417 = VECTOR( '', #477, 1000.00000000000 );
#418 = CARTESIAN_POINT( '', ( 0.000000000000000, 7.80000000000000, -2.00000000000000 ) );
#419 = CARTESIAN_POINT( '', ( 0.000000000000000, 7.80000000000000, -2.00000000000000 ) );
#420 = VECTOR( '', #478, 1000.00000000000 );
#421 = CARTESIAN_POINT( '', ( 25.5000000000000, 7.80000000000000, -2.00000000000000 ) );
#422 = VECTOR( '', #479, 1000.00000000000 );
#423 = COLOUR_RGB( '', 0.689999997600000, 0.689999997600000, 0.689999997600000 );
#424 = CARTESIAN_POINT( '', ( 13.5000000000000, 0.000000000000000, 14.0000000000000 ) );
#425 = AXIS2_PLACEMENT_3D( '', #480, #481, #482 );
#426 = COLOUR_RGB( '', 0.689999997600000, 0.689999997600000, 0.689999997600000 );
#427 = CARTESIAN_POINT( '', ( 17.0000000000000, 5.65685424949238, 2.00000000000000 ) );
#428 = CARTESIAN_POINT( '', ( 17.0000000000000, 5.65685424949238, -1.99999999999999 ) );
#429 = AXIS2_PLACEMENT_3D( '', #483, #484, #485 );
#430 = CARTESIAN_POINT( '', ( 0.000000000000000, 5.65685424949238, -1.99999999999999 ) );
#431 = CARTESIAN_POINT( '', ( 25.5000000000000, 5.65685424949238, -1.99999999999999 ) );
#432 = VECTOR( '', #486, 1000.00000000000 );
#433 = CARTESIAN_POINT( '', ( 0.000000000000000, 5.65685424949238, 2.00000000000000 ) );
#434 = AXIS2_PLACEMENT_3D( '', #487, #488, #489 );
#435 = CARTESIAN_POINT( '', ( 25.5000000000000, 5.65685424949238, 2.00000000000000 ) );
#436 = VECTOR( '', #490, 1000.00000000000 );
#437 = COLOUR_RGB( '', 0.689999997600000, 0.689999997600000, 0.689999997600000 );
#438 = CARTESIAN_POINT( '', ( 0.000000000000000, 0.000000000000000, 14.0000000000000 ) );
#439 = AXIS2_PLACEMENT_3D( '', #491, #492, #493 );
#440 = CARTESIAN_POINT( '', ( 9.00000000000000, 0.000000000000000, 14.0000000000000 ) );
#441 = AXIS2_PLACEMENT_3D( '', #494, #495, #496 );
#442 = COLOUR_RGB( '', 0.689999997600000, 0.689999997600000, 0.689999997600000 );
#443 = CARTESIAN_POINT( '', ( 0.000000000000000, 7.80000000000000, 2.00000000000001 ) );
#444 = VECTOR( '', #497, 1000.00000000000 );
#445 = CARTESIAN_POINT( '', ( 0.000000000000000, 5.65685424949238, -2.00000000000000 ) );
#446 = VECTOR( '', #498, 1000.00000000000 );
#447 = COLOUR_RGB( '', 0.689999997600000, 0.689999997600000, 0.689999997600000 );
#448 = CARTESIAN_POINT( '', ( 17.0000000000000, 0.000000000000000, -2.00000000000000 ) );
#449 = VECTOR( '', #499, 1000.00000000000 );
#450 = COLOUR_RGB( '', 0.689999997600000, 0.689999997600000, 0.689999997600000 );
#451 = CARTESIAN_POINT( '', ( 17.0000000000000, -6.47542884310471E-15, 1.99999999999998 ) );
#452 = VECTOR( '', #500, 1000.00000000000 );
#453 = COLOUR_RGB( '', 0.689999997600000, 0.689999997600000, 0.689999997600000 );
#454 = CARTESIAN_POINT( '', ( 20.0000000000000, 0.000000000000000, 34.0000000000000 ) );
#455 = AXIS2_PLACEMENT_3D( '', #501, #502, #503 );
#456 = COLOUR_RGB( '', 0.689999997600000, 0.689999997600000, 0.689999997600000 );
#457 = CARTESIAN_POINT( '', ( 17.0000000000000, 0.000000000000000, 14.0000000000000 ) );
#458 = AXIS2_PLACEMENT_3D( '', #504, #505, #506 );
#459 = COLOUR_RGB( '', 0.689999997600000, 0.689999997600000, 0.689999997600000 );
#460 = CARTESIAN_POINT( '', ( 16.5000000000000, 0.000000000000000, 40.5000000000000 ) );
#461 = AXIS2_PLACEMENT_3D( '', #507, #508, #509 );
#462 = CARTESIAN_POINT( '', ( 15.6014707296108, 0.000000000000000, 41.0000000000000 ) );
#463 = AXIS2_PLACEMENT_3D( '', #510, #511, #512 );
#464 = COLOUR_RGB( '', 0.689999997600000, 0.689999997600000, 0.689999997600000 );
#465 = COLOUR_RGB( '', 0.689999997600000, 0.689999997600000, 0.689999997600000 );
#466 = CARTESIAN_POINT( '', ( 30.6661984870957, 0.000000000000000, 40.0000000000000 ) );
#467 = AXIS2_PLACEMENT_3D( '', #513, #514, #515 );
#468 = COLOUR_RGB( '', 0.689999997600000, 0.689999997600000, 0.689999997600000 );
#469 = COLOUR_RGB( '', 0.689999997600000, 0.689999997600000, 0.689999997600000 );
#470 = CARTESIAN_POINT( '', ( 23.0000000000000, 0.000000000000000, 0.000000000000000 ) );
#471 = DIRECTION( '', ( -1.00000000000000, 0.000000000000000, 0.000000000000000 ) );
#472 = DIRECTION( '', ( 0.000000000000000, 0.000000000000000, 1.00000000000000 ) );
#473 = CARTESIAN_POINT( '', ( 28.0000000000000, 0.000000000000000, 0.000000000000000 ) );
#474 = DIRECTION( '', ( -1.00000000000000, 0.000000000000000, 0.000000000000000 ) );
#475 = DIRECTION( '', ( 0.000000000000000, 0.000000000000000, 1.00000000000000 ) );
#476 = DIRECTION( '', ( 0.000000000000000, 0.000000000000000, 1.00000000000000 ) );
#477 = DIRECTION( '', ( -1.00000000000000, -0.000000000000000, -0.000000000000000 ) );
#478 = DIRECTION( '', ( 0.000000000000000, 0.000000000000000, 1.00000000000000 ) );
#479 = DIRECTION( '', ( -1.00000000000000, -0.000000000000000, -0.000000000000000 ) );
#480 = CARTESIAN_POINT( '', ( 13.5000000000000, 0.000000000000000, 0.000000000000000 ) );
#481 = DIRECTION( '', ( -1.00000000000000, 0.000000000000000, 0.000000000000000 ) );
#482 = DIRECTION( '', ( 0.000000000000000, 0.000000000000000, 1.00000000000000 ) );
#483 = CARTESIAN_POINT( '', ( 17.0000000000000, 3.25260651745651E-16, 0.000000000000000 ) );
#484 = DIRECTION( '', ( -1.00000000000000, 0.000000000000000, 0.000000000000000 ) );
#485 = DIRECTION( '', ( 0.000000000000000, 0.000000000000000, 1.00000000000000 ) );
#486 = DIRECTION( '', ( -1.00000000000000, -0.000000000000000, -0.000000000000000 ) );
#487 = CARTESIAN_POINT( '', ( 0.000000000000000, 3.25260651745651E-16, 0.000000000000000 ) );
#488 = DIRECTION( '', ( 1.00000000000000, 0.000000000000000, 0.000000000000000 ) );
#489 = DIRECTION( '', ( 0.000000000000000, 0.000000000000000, -1.00000000000000 ) );
#490 = DIRECTION( '', ( -1.00000000000000, -0.000000000000000, -0.000000000000000 ) );
#491 = CARTESIAN_POINT( '', ( 0.000000000000000, 0.000000000000000, 0.000000000000000 ) );
#492 = DIRECTION( '', ( -1.00000000000000, 0.000000000000000, 0.000000000000000 ) );
#493 = DIRECTION( '', ( 0.000000000000000, 0.000000000000000, 1.00000000000000 ) );
#494 = CARTESIAN_POINT( '', ( 9.00000000000000, 0.000000000000000, 0.000000000000000 ) );
#495 = DIRECTION( '', ( -1.00000000000000, 0.000000000000000, 0.000000000000000 ) );
#496 = DIRECTION( '', ( 0.000000000000000, 0.000000000000000, 1.00000000000000 ) );
#497 = DIRECTION( '', ( 0.000000000000000, -1.00000000000000, -3.23771442155238E-15 ) );
#498 = DIRECTION( '', ( 0.000000000000000, 1.00000000000000, 0.000000000000000 ) );
#499 = DIRECTION( '', ( 0.000000000000000, 1.00000000000000, 0.000000000000000 ) );
#500 = DIRECTION( '', ( 0.000000000000000, -1.00000000000000, -3.23771442155238E-15 ) );
#501 = CARTESIAN_POINT( '', ( 20.0000000000000, 0.000000000000000, 0.000000000000000 ) );
#502 = DIRECTION( '', ( -1.00000000000000, 0.000000000000000, 0.000000000000000 ) );
#503 = DIRECTION( '', ( 0.000000000000000, 0.000000000000000, 1.00000000000000 ) );
#504 = CARTESIAN_POINT( '', ( 17.0000000000000, 0.000000000000000, 0.000000000000000 ) );
#505 = DIRECTION( '', ( -1.00000000000000, 0.000000000000000, 0.000000000000000 ) );
#506 = DIRECTION( '', ( 0.000000000000000, 0.000000000000000, 1.00000000000000 ) );
#507 = CARTESIAN_POINT( '', ( 16.5000000000000, 0.000000000000000, 0.000000000000000 ) );
#508 = DIRECTION( '', ( -1.00000000000000, 0.000000000000000, 0.000000000000000 ) );
#509 = DIRECTION( '', ( 0.000000000000000, 0.000000000000000, 1.00000000000000 ) );
#510 = CARTESIAN_POINT( '', ( 15.6014707296108, 0.000000000000000, 0.000000000000000 ) );
#511 = DIRECTION( '', ( -1.00000000000000, 0.000000000000000, 0.000000000000000 ) );
#512 = DIRECTION( '', ( 0.000000000000000, 0.000000000000000, 1.00000000000000 ) );
#513 = CARTESIAN_POINT( '', ( 30.6661984870957, 0.000000000000000, 0.000000000000000 ) );
#514 = DIRECTION( '', ( -1.00000000000000, 0.000000000000000, 0.000000000000000 ) );
#515 = DIRECTION( '', ( 0.000000000000000, 0.000000000000000, 1.00000000000000 ) );
ENDSEC;
END-ISO-10303-21;
