ISO-10303-21;
HEADER;
FILE_DESCRIPTION( ( 'STEP AP214' ), '1' );
FILE_NAME( '//goodhand-server/Shared Folders/GoodHand Data/Kipp CAD/K1129/K1129.104815.stp', '2020-12-10T10:16:15', ( '' ), ( '' ), ' ', 'PARTsolutions', ' ' );
FILE_SCHEMA( ( 'AUTOMOTIVE_DESIGN { 1 0 10303 214 1 1 1 1 }' ) );
ENDSEC;
DATA;
#1 = MECHANICAL_DESIGN_GEOMETRIC_PRESENTATION_REPRESENTATION( ' ', ( #10, #11, #12, #13, #14, #15, #16, #17, #18, #19, #20, #21 ), #6 );
#2 = PRODUCT_DEFINITION_CONTEXT( '', #22, 'design' );
#3 = APPLICATION_PROTOCOL_DEFINITION( 'international standard', 'automotive_design', 2001, #22 );
#4 = PRODUCT_CATEGORY_RELATIONSHIP( 'NONE', 'NONE', #23, #24 );
#5 = SHAPE_DEFINITION_REPRESENTATION( #25, #26 );
#6 =  ( GEOMETRIC_REPRESENTATION_CONTEXT( 3 )GLOBAL_UNCERTAINTY_ASSIGNED_CONTEXT( ( #29 ) )GLOBAL_UNIT_ASSIGNED_CONTEXT( ( #31, #32, #33 ) )REPRESENTATION_CONTEXT( 'NONE', 'WORKSPACE' ) );
#10 = STYLED_ITEM( '', ( #35 ), #36 );
#11 = STYLED_ITEM( '', ( #37 ), #38 );
#12 = STYLED_ITEM( '', ( #39 ), #40 );
#13 = STYLED_ITEM( '', ( #41 ), #42 );
#14 = STYLED_ITEM( '', ( #43 ), #44 );
#15 = STYLED_ITEM( '', ( #45 ), #46 );
#16 = STYLED_ITEM( '', ( #47 ), #48 );
#17 = STYLED_ITEM( '', ( #49 ), #50 );
#18 = STYLED_ITEM( '', ( #51 ), #52 );
#19 = STYLED_ITEM( '', ( #53 ), #54 );
#20 = STYLED_ITEM( '', ( #55 ), #56 );
#21 = STYLED_ITEM( '', ( #57 ), #58 );
#22 = APPLICATION_CONTEXT( 'core data for automotive mechanical design processes' );
#23 = PRODUCT_CATEGORY( 'part', 'NONE' );
#24 = PRODUCT_RELATED_PRODUCT_CATEGORY( 'detail', ' ', ( #59 ) );
#25 = PRODUCT_DEFINITION_SHAPE( 'NONE', 'NONE', #60 );
#26 = ADVANCED_BREP_SHAPE_REPRESENTATION( '_K1129.104815', ( #61, #62 ), #6 );
#29 = UNCERTAINTY_MEASURE_WITH_UNIT( LENGTH_MEASURE( 0.00100000000000000 ), #31, '', '' );
#31 =  ( CONVERSION_BASED_UNIT( 'MILLIMETRE', #65 )LENGTH_UNIT(  )NAMED_UNIT( #68 ) );
#32 =  ( NAMED_UNIT( #70 )PLANE_ANGLE_UNIT(  )SI_UNIT( $, .RADIAN. ) );
#33 =  ( NAMED_UNIT( #70 )SI_UNIT( $, .STERADIAN. )SOLID_ANGLE_UNIT(  ) );
#35 = PRESENTATION_STYLE_ASSIGNMENT( ( #76 ) );
#36 = ADVANCED_FACE( '', ( #77, #78 ), #79, .T. );
#37 = PRESENTATION_STYLE_ASSIGNMENT( ( #80 ) );
#38 = ADVANCED_FACE( '', ( #81 ), #82, .T. );
#39 = PRESENTATION_STYLE_ASSIGNMENT( ( #83 ) );
#40 = ADVANCED_FACE( '', ( #84 ), #85, .T. );
#41 = PRESENTATION_STYLE_ASSIGNMENT( ( #86 ) );
#42 = ADVANCED_FACE( '', ( #87 ), #88, .T. );
#43 = PRESENTATION_STYLE_ASSIGNMENT( ( #89 ) );
#44 = ADVANCED_FACE( '', ( #90, #91 ), #92, .T. );
#45 = PRESENTATION_STYLE_ASSIGNMENT( ( #93 ) );
#46 = ADVANCED_FACE( '', ( #94, #95 ), #96, .F. );
#47 = PRESENTATION_STYLE_ASSIGNMENT( ( #97 ) );
#48 = ADVANCED_FACE( '', ( #98 ), #99, .T. );
#49 = PRESENTATION_STYLE_ASSIGNMENT( ( #100 ) );
#50 = ADVANCED_FACE( '', ( #101 ), #102, .T. );
#51 = PRESENTATION_STYLE_ASSIGNMENT( ( #103 ) );
#52 = ADVANCED_FACE( '', ( #104, #105 ), #106, .T. );
#53 = PRESENTATION_STYLE_ASSIGNMENT( ( #107 ) );
#54 = ADVANCED_FACE( '', ( #108 ), #109, .T. );
#55 = PRESENTATION_STYLE_ASSIGNMENT( ( #110 ) );
#56 = ADVANCED_FACE( '', ( #111 ), #112, .F. );
#57 = PRESENTATION_STYLE_ASSIGNMENT( ( #113 ) );
#58 = ADVANCED_FACE( '', ( #114 ), #115, .F. );
#59 = PRODUCT( '_K1129.104815', '_K1129.104815', 'PART-_K1129.104815-DESC', ( #116 ) );
#60 = PRODUCT_DEFINITION( 'NONE', 'NONE', #117, #2 );
#61 = MANIFOLD_SOLID_BREP( '_K1129.104815', #118 );
#62 = AXIS2_PLACEMENT_3D( '', #119, #120, #121 );
#65 = LENGTH_MEASURE_WITH_UNIT( LENGTH_MEASURE( 1.00000000000000 ), #122 );
#68 = DIMENSIONAL_EXPONENTS( 1.00000000000000, 0.000000000000000, 0.000000000000000, 0.000000000000000, 0.000000000000000, 0.000000000000000, 0.000000000000000 );
#70 = DIMENSIONAL_EXPONENTS( 0.000000000000000, 0.000000000000000, 0.000000000000000, 0.000000000000000, 0.000000000000000, 0.000000000000000, 0.000000000000000 );
#76 = SURFACE_STYLE_USAGE( .BOTH., #123 );
#77 = FACE_OUTER_BOUND( '', #124, .T. );
#78 = FACE_BOUND( '', #125, .T. );
#79 = CONICAL_SURFACE( '', #126, 23.8142626604000, 0.769690200100000 );
#80 = SURFACE_STYLE_USAGE( .BOTH., #127 );
#81 = FACE_OUTER_BOUND( '', #128, .T. );
#82 = PLANE( '', #129 );
#83 = SURFACE_STYLE_USAGE( .BOTH., #130 );
#84 = FACE_OUTER_BOUND( '', #131, .T. );
#85 = PLANE( '', #132 );
#86 = SURFACE_STYLE_USAGE( .BOTH., #133 );
#87 = FACE_OUTER_BOUND( '', #134, .T. );
#88 = PLANE( '', #135 );
#89 = SURFACE_STYLE_USAGE( .BOTH., #136 );
#90 = FACE_BOUND( '', #137, .T. );
#91 = FACE_OUTER_BOUND( '', #138, .T. );
#92 = CONICAL_SURFACE( '', #139, 24.2985572809000, 0.0314159265000000 );
#93 = SURFACE_STYLE_USAGE( .BOTH., #140 );
#94 = FACE_OUTER_BOUND( '', #141, .T. );
#95 = FACE_BOUND( '', #142, .T. );
#96 = PLANE( '', #143 );
#97 = SURFACE_STYLE_USAGE( .BOTH., #144 );
#98 = FACE_OUTER_BOUND( '', #145, .T. );
#99 = PLANE( '', #146 );
#100 = SURFACE_STYLE_USAGE( .BOTH., #147 );
#101 = FACE_OUTER_BOUND( '', #148, .T. );
#102 = PLANE( '', #149 );
#103 = SURFACE_STYLE_USAGE( .BOTH., #150 );
#104 = FACE_BOUND( '', #151, .T. );
#105 = FACE_OUTER_BOUND( '', #152, .T. );
#106 = CONICAL_SURFACE( '', #153, 23.7014427191000, 0.801106126700000 );
#107 = SURFACE_STYLE_USAGE( .BOTH., #154 );
#108 = FACE_OUTER_BOUND( '', #155, .T. );
#109 = PLANE( '', #156 );
#110 = SURFACE_STYLE_USAGE( .BOTH., #157 );
#111 = FACE_OUTER_BOUND( '', #158, .T. );
#112 = PLANE( '', #159 );
#113 = SURFACE_STYLE_USAGE( .BOTH., #160 );
#114 = FACE_OUTER_BOUND( '', #161, .T. );
#115 = PLANE( '', #162 );
#116 = PRODUCT_CONTEXT( '', #22, 'mechanical' );
#117 = PRODUCT_DEFINITION_FORMATION_WITH_SPECIFIED_SOURCE( ' ', 'NONE', #59, .NOT_KNOWN. );
#118 = CLOSED_SHELL( '', ( #36, #46, #48, #40, #38, #56, #52, #44, #50, #42, #54, #58 ) );
#119 = CARTESIAN_POINT( '', ( 0.000000000000000, 0.000000000000000, 0.000000000000000 ) );
#120 = DIRECTION( '', ( 0.000000000000000, 0.000000000000000, 1.00000000000000 ) );
#121 = DIRECTION( '', ( 1.00000000000000, 0.000000000000000, 0.000000000000000 ) );
#122 =  ( LENGTH_UNIT(  )NAMED_UNIT( #68 )SI_UNIT( .MILLI., .METRE. ) );
#123 = SURFACE_SIDE_STYLE( '', ( #164 ) );
#124 = EDGE_LOOP( '', ( #165 ) );
#125 = EDGE_LOOP( '', ( #166 ) );
#126 = AXIS2_PLACEMENT_3D( '', #167, #168, #169 );
#127 = SURFACE_SIDE_STYLE( '', ( #170 ) );
#128 = EDGE_LOOP( '', ( #171, #172, #173, #174 ) );
#129 = AXIS2_PLACEMENT_3D( '', #175, #176, #177 );
#130 = SURFACE_SIDE_STYLE( '', ( #178 ) );
#131 = EDGE_LOOP( '', ( #179, #180, #181, #182 ) );
#132 = AXIS2_PLACEMENT_3D( '', #183, #184, #185 );
#133 = SURFACE_SIDE_STYLE( '', ( #186 ) );
#134 = EDGE_LOOP( '', ( #187, #188, #189, #190 ) );
#135 = AXIS2_PLACEMENT_3D( '', #191, #192, #193 );
#136 = SURFACE_SIDE_STYLE( '', ( #194 ) );
#137 = EDGE_LOOP( '', ( #195 ) );
#138 = EDGE_LOOP( '', ( #196 ) );
#139 = AXIS2_PLACEMENT_3D( '', #197, #198, #199 );
#140 = SURFACE_SIDE_STYLE( '', ( #200 ) );
#141 = EDGE_LOOP( '', ( #201 ) );
#142 = EDGE_LOOP( '', ( #202, #203, #204, #205, #206, #207 ) );
#143 = AXIS2_PLACEMENT_3D( '', #208, #209, #210 );
#144 = SURFACE_SIDE_STYLE( '', ( #211 ) );
#145 = EDGE_LOOP( '', ( #212, #213, #214, #215 ) );
#146 = AXIS2_PLACEMENT_3D( '', #216, #217, #218 );
#147 = SURFACE_SIDE_STYLE( '', ( #219 ) );
#148 = EDGE_LOOP( '', ( #220, #221, #222, #223 ) );
#149 = AXIS2_PLACEMENT_3D( '', #224, #225, #226 );
#150 = SURFACE_SIDE_STYLE( '', ( #227 ) );
#151 = EDGE_LOOP( '', ( #228 ) );
#152 = EDGE_LOOP( '', ( #229 ) );
#153 = AXIS2_PLACEMENT_3D( '', #230, #231, #232 );
#154 = SURFACE_SIDE_STYLE( '', ( #233 ) );
#155 = EDGE_LOOP( '', ( #234, #235, #236, #237 ) );
#156 = AXIS2_PLACEMENT_3D( '', #238, #239, #240 );
#157 = SURFACE_SIDE_STYLE( '', ( #241 ) );
#158 = EDGE_LOOP( '', ( #242 ) );
#159 = AXIS2_PLACEMENT_3D( '', #243, #244, #245 );
#160 = SURFACE_SIDE_STYLE( '', ( #246 ) );
#161 = EDGE_LOOP( '', ( #247, #248, #249, #250, #251, #252 ) );
#162 = AXIS2_PLACEMENT_3D( '', #253, #254, #255 );
#164 = SURFACE_STYLE_FILL_AREA( #256 );
#165 = ORIENTED_EDGE( '', *, *, #257, .F. );
#166 = ORIENTED_EDGE( '', *, *, #258, .T. );
#167 = CARTESIAN_POINT( '', ( 0.000000000000000, 0.000000000000000, 0.000000000000000 ) );
#168 = DIRECTION( '', ( 1.00000000000000, -0.000000000000000, -0.000000000000000 ) );
#169 = DIRECTION( '', ( -0.000000000000000, 0.000000000000000, -1.00000000000000 ) );
#170 = SURFACE_STYLE_FILL_AREA( #259 );
#171 = ORIENTED_EDGE( '', *, *, #260, .F. );
#172 = ORIENTED_EDGE( '', *, *, #261, .F. );
#173 = ORIENTED_EDGE( '', *, *, #262, .T. );
#174 = ORIENTED_EDGE( '', *, *, #263, .T. );
#175 = CARTESIAN_POINT( '', ( 11.5000000000000, 6.92820323027551, 12.0000000000000 ) );
#176 = DIRECTION( '', ( 0.000000000000000, 0.000000000000000, -1.00000000000000 ) );
#177 = DIRECTION( '', ( -1.00000000000000, 0.000000000000000, 0.000000000000000 ) );
#178 = SURFACE_STYLE_FILL_AREA( #264 );
#179 = ORIENTED_EDGE( '', *, *, #265, .F. );
#180 = ORIENTED_EDGE( '', *, *, #266, .F. );
#181 = ORIENTED_EDGE( '', *, *, #267, .T. );
#182 = ORIENTED_EDGE( '', *, *, #268, .T. );
#183 = CARTESIAN_POINT( '', ( 11.5000000000000, -13.8564064605510, 0.000000000000000 ) );
#184 = DIRECTION( '', ( -0.000000000000000, 0.866025403784439, 0.500000000000000 ) );
#185 = DIRECTION( '', ( 0.000000000000000, -0.500000000000000, 0.866025403784439 ) );
#186 = SURFACE_STYLE_FILL_AREA( #269 );
#187 = ORIENTED_EDGE( '', *, *, #270, .F. );
#188 = ORIENTED_EDGE( '', *, *, #271, .F. );
#189 = ORIENTED_EDGE( '', *, *, #272, .T. );
#190 = ORIENTED_EDGE( '', *, *, #273, .T. );
#191 = CARTESIAN_POINT( '', ( 11.5000000000000, 6.92820323027551, -12.0000000000000 ) );
#192 = DIRECTION( '', ( 0.000000000000000, -0.866025403784439, 0.500000000000000 ) );
#193 = DIRECTION( '', ( 0.000000000000000, -0.500000000000000, -0.866025403784439 ) );
#194 = SURFACE_STYLE_FILL_AREA( #274 );
#195 = ORIENTED_EDGE( '', *, *, #275, .F. );
#196 = ORIENTED_EDGE( '', *, *, #257, .T. );
#197 = CARTESIAN_POINT( '', ( 0.499753280182865, 0.000000000000000, 0.000000000000000 ) );
#198 = DIRECTION( '', ( -1.00000000000000, 0.000000000000000, -0.000000000000000 ) );
#199 = DIRECTION( '', ( 0.000000000000000, 0.000000000000000, 1.00000000000000 ) );
#200 = SURFACE_STYLE_FILL_AREA( #276 );
#201 = ORIENTED_EDGE( '', *, *, #258, .F. );
#202 = ORIENTED_EDGE( '', *, *, #260, .T. );
#203 = ORIENTED_EDGE( '', *, *, #277, .T. );
#204 = ORIENTED_EDGE( '', *, *, #265, .T. );
#205 = ORIENTED_EDGE( '', *, *, #278, .T. );
#206 = ORIENTED_EDGE( '', *, *, #270, .T. );
#207 = ORIENTED_EDGE( '', *, *, #279, .T. );
#208 = CARTESIAN_POINT( '', ( 0.000000000000000, 0.000000000000000, 0.000000000000000 ) );
#209 = DIRECTION( '', ( 1.00000000000000, 0.000000000000000, -0.000000000000000 ) );
#210 = DIRECTION( '', ( -0.000000000000000, 0.000000000000000, -1.00000000000000 ) );
#211 = SURFACE_STYLE_FILL_AREA( #280 );
#212 = ORIENTED_EDGE( '', *, *, #277, .F. );
#213 = ORIENTED_EDGE( '', *, *, #263, .F. );
#214 = ORIENTED_EDGE( '', *, *, #281, .T. );
#215 = ORIENTED_EDGE( '', *, *, #266, .T. );
#216 = CARTESIAN_POINT( '', ( 11.5000000000000, -6.92820323027551, 12.0000000000000 ) );
#217 = DIRECTION( '', ( 0.000000000000000, 0.866025403784439, -0.500000000000000 ) );
#218 = DIRECTION( '', ( 0.000000000000000, 0.500000000000000, 0.866025403784439 ) );
#219 = SURFACE_STYLE_FILL_AREA( #282 );
#220 = ORIENTED_EDGE( '', *, *, #278, .F. );
#221 = ORIENTED_EDGE( '', *, *, #268, .F. );
#222 = ORIENTED_EDGE( '', *, *, #283, .T. );
#223 = ORIENTED_EDGE( '', *, *, #271, .T. );
#224 = CARTESIAN_POINT( '', ( 11.5000000000000, -6.92820323027551, -12.0000000000000 ) );
#225 = DIRECTION( '', ( 0.000000000000000, 0.000000000000000, 1.00000000000000 ) );
#226 = DIRECTION( '', ( 1.00000000000000, 0.000000000000000, -0.000000000000000 ) );
#227 = SURFACE_STYLE_FILL_AREA( #284 );
#228 = ORIENTED_EDGE( '', *, *, #285, .F. );
#229 = ORIENTED_EDGE( '', *, *, #275, .T. );
#230 = CARTESIAN_POINT( '', ( 19.5002467198171, 0.000000000000000, 0.000000000000000 ) );
#231 = DIRECTION( '', ( -1.00000000000000, 0.000000000000000, -0.000000000000000 ) );
#232 = DIRECTION( '', ( 0.000000000000000, 0.000000000000000, 1.00000000000000 ) );
#233 = SURFACE_STYLE_FILL_AREA( #286 );
#234 = ORIENTED_EDGE( '', *, *, #279, .F. );
#235 = ORIENTED_EDGE( '', *, *, #273, .F. );
#236 = ORIENTED_EDGE( '', *, *, #287, .T. );
#237 = ORIENTED_EDGE( '', *, *, #261, .T. );
#238 = CARTESIAN_POINT( '', ( 11.5000000000000, 13.8564064605510, 0.000000000000000 ) );
#239 = DIRECTION( '', ( 0.000000000000000, -0.866025403784439, -0.500000000000000 ) );
#240 = DIRECTION( '', ( 0.000000000000000, 0.500000000000000, -0.866025403784439 ) );
#241 = SURFACE_STYLE_FILL_AREA( #288 );
#242 = ORIENTED_EDGE( '', *, *, #285, .T. );
#243 = CARTESIAN_POINT( '', ( 20.0000000000000, 23.1857373395665, 0.000000000000000 ) );
#244 = DIRECTION( '', ( -1.00000000000000, 0.000000000000000, 0.000000000000000 ) );
#245 = DIRECTION( '', ( 0.000000000000000, 0.000000000000000, 1.00000000000000 ) );
#246 = SURFACE_STYLE_FILL_AREA( #289 );
#247 = ORIENTED_EDGE( '', *, *, #262, .F. );
#248 = ORIENTED_EDGE( '', *, *, #287, .F. );
#249 = ORIENTED_EDGE( '', *, *, #272, .F. );
#250 = ORIENTED_EDGE( '', *, *, #283, .F. );
#251 = ORIENTED_EDGE( '', *, *, #267, .F. );
#252 = ORIENTED_EDGE( '', *, *, #281, .F. );
#253 = CARTESIAN_POINT( '', ( 11.5000000000000, 0.000000000000000, 0.000000000000000 ) );
#254 = DIRECTION( '', ( 1.00000000000000, 0.000000000000000, 0.000000000000000 ) );
#255 = DIRECTION( '', ( 0.000000000000000, 0.000000000000000, -1.00000000000000 ) );
#256 = FILL_AREA_STYLE( '', ( #290 ) );
#257 = EDGE_CURVE( '', #291, #291, #292, .T. );
#258 = EDGE_CURVE( '', #293, #293, #294, .T. );
#259 = FILL_AREA_STYLE( '', ( #295 ) );
#260 = EDGE_CURVE( '', #296, #297, #298, .T. );
#261 = EDGE_CURVE( '', #299, #296, #300, .T. );
#262 = EDGE_CURVE( '', #299, #301, #302, .T. );
#263 = EDGE_CURVE( '', #301, #297, #303, .T. );
#264 = FILL_AREA_STYLE( '', ( #304 ) );
#265 = EDGE_CURVE( '', #305, #306, #307, .T. );
#266 = EDGE_CURVE( '', #308, #305, #309, .T. );
#267 = EDGE_CURVE( '', #308, #310, #311, .T. );
#268 = EDGE_CURVE( '', #310, #306, #312, .T. );
#269 = FILL_AREA_STYLE( '', ( #313 ) );
#270 = EDGE_CURVE( '', #314, #315, #316, .T. );
#271 = EDGE_CURVE( '', #317, #314, #318, .T. );
#272 = EDGE_CURVE( '', #317, #319, #320, .T. );
#273 = EDGE_CURVE( '', #319, #315, #321, .T. );
#274 = FILL_AREA_STYLE( '', ( #322 ) );
#275 = EDGE_CURVE( '', #323, #323, #324, .T. );
#276 = FILL_AREA_STYLE( '', ( #325 ) );
#277 = EDGE_CURVE( '', #297, #305, #326, .T. );
#278 = EDGE_CURVE( '', #306, #314, #327, .T. );
#279 = EDGE_CURVE( '', #315, #296, #328, .T. );
#280 = FILL_AREA_STYLE( '', ( #329 ) );
#281 = EDGE_CURVE( '', #301, #308, #330, .T. );
#282 = FILL_AREA_STYLE( '', ( #331 ) );
#283 = EDGE_CURVE( '', #310, #317, #332, .T. );
#284 = FILL_AREA_STYLE( '', ( #333 ) );
#285 = EDGE_CURVE( '', #334, #334, #335, .T. );
#286 = FILL_AREA_STYLE( '', ( #336 ) );
#287 = EDGE_CURVE( '', #319, #299, #337, .T. );
#288 = FILL_AREA_STYLE( '', ( #338 ) );
#289 = FILL_AREA_STYLE( '', ( #339 ) );
#290 = FILL_AREA_STYLE_COLOUR( '', #340 );
#291 = VERTEX_POINT( '', #341 );
#292 = CIRCLE( '', #342, 24.2985572809000 );
#293 = VERTEX_POINT( '', #343 );
#294 = CIRCLE( '', #344, 23.8142626604000 );
#295 = FILL_AREA_STYLE_COLOUR( '', #345 );
#296 = VERTEX_POINT( '', #346 );
#297 = VERTEX_POINT( '', #347 );
#298 = LINE( '', #348, #349 );
#299 = VERTEX_POINT( '', #350 );
#300 = LINE( '', #351, #352 );
#301 = VERTEX_POINT( '', #353 );
#302 = LINE( '', #354, #355 );
#303 = LINE( '', #356, #357 );
#304 = FILL_AREA_STYLE_COLOUR( '', #358 );
#305 = VERTEX_POINT( '', #359 );
#306 = VERTEX_POINT( '', #360 );
#307 = LINE( '', #361, #362 );
#308 = VERTEX_POINT( '', #363 );
#309 = LINE( '', #364, #365 );
#310 = VERTEX_POINT( '', #366 );
#311 = LINE( '', #367, #368 );
#312 = LINE( '', #369, #370 );
#313 = FILL_AREA_STYLE_COLOUR( '', #371 );
#314 = VERTEX_POINT( '', #372 );
#315 = VERTEX_POINT( '', #373 );
#316 = LINE( '', #374, #375 );
#317 = VERTEX_POINT( '', #376 );
#318 = LINE( '', #377, #378 );
#319 = VERTEX_POINT( '', #379 );
#320 = LINE( '', #380, #381 );
#321 = LINE( '', #382, #383 );
#322 = FILL_AREA_STYLE_COLOUR( '', #384 );
#323 = VERTEX_POINT( '', #385 );
#324 = CIRCLE( '', #386, 23.7014427191000 );
#325 = FILL_AREA_STYLE_COLOUR( '', #387 );
#326 = LINE( '', #388, #389 );
#327 = LINE( '', #390, #391 );
#328 = LINE( '', #392, #393 );
#329 = FILL_AREA_STYLE_COLOUR( '', #394 );
#330 = LINE( '', #395, #396 );
#331 = FILL_AREA_STYLE_COLOUR( '', #397 );
#332 = LINE( '', #398, #399 );
#333 = FILL_AREA_STYLE_COLOUR( '', #400 );
#334 = VERTEX_POINT( '', #401 );
#335 = CIRCLE( '', #402, 23.1857373396000 );
#336 = FILL_AREA_STYLE_COLOUR( '', #403 );
#337 = LINE( '', #404, #405 );
#338 = FILL_AREA_STYLE_COLOUR( '', #406 );
#339 = FILL_AREA_STYLE_COLOUR( '', #407 );
#340 = COLOUR_RGB( '', 0.689999997600000, 0.689999997600000, 0.689999997600000 );
#341 = CARTESIAN_POINT( '', ( 0.499753280182865, 0.000000000000000, -24.2985572808944 ) );
#342 = AXIS2_PLACEMENT_3D( '', #408, #409, #410 );
#343 = CARTESIAN_POINT( '', ( 0.000000000000000, 0.000000000000000, -23.8142626604335 ) );
#344 = AXIS2_PLACEMENT_3D( '', #411, #412, #413 );
#345 = COLOUR_RGB( '', 0.689999997600000, 0.689999997600000, 0.689999997600000 );
#346 = CARTESIAN_POINT( '', ( 0.000000000000000, 6.92820323027551, 12.0000000000000 ) );
#347 = CARTESIAN_POINT( '', ( 0.000000000000000, -6.92820323027551, 12.0000000000000 ) );
#348 = CARTESIAN_POINT( '', ( 0.000000000000000, 6.92820323027551, 12.0000000000000 ) );
#349 = VECTOR( '', #414, 1000.00000000000 );
#350 = CARTESIAN_POINT( '', ( 11.5000000000000, 6.92820323027551, 12.0000000000000 ) );
#351 = CARTESIAN_POINT( '', ( 11.5000000000000, 6.92820323027551, 12.0000000000000 ) );
#352 = VECTOR( '', #415, 1000.00000000000 );
#353 = CARTESIAN_POINT( '', ( 11.5000000000000, -6.92820323027551, 12.0000000000000 ) );
#354 = CARTESIAN_POINT( '', ( 11.5000000000000, 6.92820323027551, 12.0000000000000 ) );
#355 = VECTOR( '', #416, 1000.00000000000 );
#356 = CARTESIAN_POINT( '', ( 11.5000000000000, -6.92820323027551, 12.0000000000000 ) );
#357 = VECTOR( '', #417, 1000.00000000000 );
#358 = COLOUR_RGB( '', 0.689999997600000, 0.689999997600000, 0.689999997600000 );
#359 = CARTESIAN_POINT( '', ( 0.000000000000000, -13.8564064605510, 0.000000000000000 ) );
#360 = CARTESIAN_POINT( '', ( 0.000000000000000, -6.92820323027551, -12.0000000000000 ) );
#361 = CARTESIAN_POINT( '', ( 0.000000000000000, -13.8564064605510, 0.000000000000000 ) );
#362 = VECTOR( '', #418, 1000.00000000000 );
#363 = CARTESIAN_POINT( '', ( 11.5000000000000, -13.8564064605510, 0.000000000000000 ) );
#364 = CARTESIAN_POINT( '', ( 11.5000000000000, -13.8564064605510, 0.000000000000000 ) );
#365 = VECTOR( '', #419, 1000.00000000000 );
#366 = CARTESIAN_POINT( '', ( 11.5000000000000, -6.92820323027551, -12.0000000000000 ) );
#367 = CARTESIAN_POINT( '', ( 11.5000000000000, -13.8564064605510, 0.000000000000000 ) );
#368 = VECTOR( '', #420, 1000.00000000000 );
#369 = CARTESIAN_POINT( '', ( 11.5000000000000, -6.92820323027551, -12.0000000000000 ) );
#370 = VECTOR( '', #421, 1000.00000000000 );
#371 = COLOUR_RGB( '', 0.689999997600000, 0.689999997600000, 0.689999997600000 );
#372 = CARTESIAN_POINT( '', ( 0.000000000000000, 6.92820323027551, -12.0000000000000 ) );
#373 = CARTESIAN_POINT( '', ( 0.000000000000000, 13.8564064605510, 0.000000000000000 ) );
#374 = CARTESIAN_POINT( '', ( 0.000000000000000, 6.92820323027551, -12.0000000000000 ) );
#375 = VECTOR( '', #422, 1000.00000000000 );
#376 = CARTESIAN_POINT( '', ( 11.5000000000000, 6.92820323027551, -12.0000000000000 ) );
#377 = CARTESIAN_POINT( '', ( 11.5000000000000, 6.92820323027551, -12.0000000000000 ) );
#378 = VECTOR( '', #423, 1000.00000000000 );
#379 = CARTESIAN_POINT( '', ( 11.5000000000000, 13.8564064605510, 0.000000000000000 ) );
#380 = CARTESIAN_POINT( '', ( 11.5000000000000, 6.92820323027551, -12.0000000000000 ) );
#381 = VECTOR( '', #424, 1000.00000000000 );
#382 = CARTESIAN_POINT( '', ( 11.5000000000000, 13.8564064605510, 0.000000000000000 ) );
#383 = VECTOR( '', #425, 1000.00000000000 );
#384 = COLOUR_RGB( '', 0.689999997600000, 0.689999997600000, 0.689999997600000 );
#385 = CARTESIAN_POINT( '', ( 19.5002467198171, 0.000000000000000, -23.7014427191056 ) );
#386 = AXIS2_PLACEMENT_3D( '', #426, #427, #428 );
#387 = COLOUR_RGB( '', 0.689999997600000, 0.689999997600000, 0.689999997600000 );
#388 = CARTESIAN_POINT( '', ( 0.000000000000000, -6.92820323027551, 12.0000000000000 ) );
#389 = VECTOR( '', #429, 1000.00000000000 );
#390 = CARTESIAN_POINT( '', ( 0.000000000000000, -6.92820323027551, -12.0000000000000 ) );
#391 = VECTOR( '', #430, 1000.00000000000 );
#392 = CARTESIAN_POINT( '', ( 0.000000000000000, 13.8564064605510, 0.000000000000000 ) );
#393 = VECTOR( '', #431, 1000.00000000000 );
#394 = COLOUR_RGB( '', 0.689999997600000, 0.689999997600000, 0.689999997600000 );
#395 = CARTESIAN_POINT( '', ( 11.5000000000000, -6.92820323027551, 12.0000000000000 ) );
#396 = VECTOR( '', #432, 1000.00000000000 );
#397 = COLOUR_RGB( '', 0.689999997600000, 0.689999997600000, 0.689999997600000 );
#398 = CARTESIAN_POINT( '', ( 11.5000000000000, -6.92820323027551, -12.0000000000000 ) );
#399 = VECTOR( '', #433, 1000.00000000000 );
#400 = COLOUR_RGB( '', 0.689999997600000, 0.689999997600000, 0.689999997600000 );
#401 = CARTESIAN_POINT( '', ( 20.0000000000000, 0.000000000000000, -23.1857373395665 ) );
#402 = AXIS2_PLACEMENT_3D( '', #434, #435, #436 );
#403 = COLOUR_RGB( '', 0.689999997600000, 0.689999997600000, 0.689999997600000 );
#404 = CARTESIAN_POINT( '', ( 11.5000000000000, 13.8564064605510, 0.000000000000000 ) );
#405 = VECTOR( '', #437, 1000.00000000000 );
#406 = COLOUR_RGB( '', 0.689999997600000, 0.689999997600000, 0.689999997600000 );
#407 = COLOUR_RGB( '', 0.689999997600000, 0.689999997600000, 0.689999997600000 );
#408 = CARTESIAN_POINT( '', ( 0.499753280182865, 0.000000000000000, 0.000000000000000 ) );
#409 = DIRECTION( '', ( 1.00000000000000, 0.000000000000000, -0.000000000000000 ) );
#410 = DIRECTION( '', ( -0.000000000000000, 0.000000000000000, -1.00000000000000 ) );
#411 = CARTESIAN_POINT( '', ( 0.000000000000000, 0.000000000000000, 0.000000000000000 ) );
#412 = DIRECTION( '', ( 1.00000000000000, 0.000000000000000, -0.000000000000000 ) );
#413 = DIRECTION( '', ( -0.000000000000000, 0.000000000000000, -1.00000000000000 ) );
#414 = DIRECTION( '', ( 0.000000000000000, -1.00000000000000, 0.000000000000000 ) );
#415 = DIRECTION( '', ( -1.00000000000000, -0.000000000000000, -0.000000000000000 ) );
#416 = DIRECTION( '', ( 0.000000000000000, -1.00000000000000, 0.000000000000000 ) );
#417 = DIRECTION( '', ( -1.00000000000000, -0.000000000000000, -0.000000000000000 ) );
#418 = DIRECTION( '', ( 0.000000000000000, 0.500000000000000, -0.866025403784439 ) );
#419 = DIRECTION( '', ( -1.00000000000000, -0.000000000000000, -0.000000000000000 ) );
#420 = DIRECTION( '', ( 0.000000000000000, 0.500000000000000, -0.866025403784439 ) );
#421 = DIRECTION( '', ( -1.00000000000000, -0.000000000000000, -0.000000000000000 ) );
#422 = DIRECTION( '', ( 0.000000000000000, 0.500000000000000, 0.866025403784439 ) );
#423 = DIRECTION( '', ( -1.00000000000000, -0.000000000000000, -0.000000000000000 ) );
#424 = DIRECTION( '', ( 0.000000000000000, 0.500000000000000, 0.866025403784439 ) );
#425 = DIRECTION( '', ( -1.00000000000000, -0.000000000000000, -0.000000000000000 ) );
#426 = CARTESIAN_POINT( '', ( 19.5002467198171, 0.000000000000000, 0.000000000000000 ) );
#427 = DIRECTION( '', ( 1.00000000000000, 0.000000000000000, -0.000000000000000 ) );
#428 = DIRECTION( '', ( -0.000000000000000, 0.000000000000000, -1.00000000000000 ) );
#429 = DIRECTION( '', ( 0.000000000000000, -0.500000000000000, -0.866025403784439 ) );
#430 = DIRECTION( '', ( 0.000000000000000, 1.00000000000000, 0.000000000000000 ) );
#431 = DIRECTION( '', ( 0.000000000000000, -0.500000000000000, 0.866025403784439 ) );
#432 = DIRECTION( '', ( 0.000000000000000, -0.500000000000000, -0.866025403784439 ) );
#433 = DIRECTION( '', ( 0.000000000000000, 1.00000000000000, 0.000000000000000 ) );
#434 = CARTESIAN_POINT( '', ( 20.0000000000000, 0.000000000000000, 0.000000000000000 ) );
#435 = DIRECTION( '', ( 1.00000000000000, 0.000000000000000, -0.000000000000000 ) );
#436 = DIRECTION( '', ( -0.000000000000000, 0.000000000000000, -1.00000000000000 ) );
#437 = DIRECTION( '', ( 0.000000000000000, -0.500000000000000, 0.866025403784439 ) );
ENDSEC;
END-ISO-10303-21;
