ISO-10303-21;
HEADER;
FILE_DESCRIPTION( ( 'STEP AP214' ), '1' );
FILE_NAME( '//goodhand-server/Shared Folders/GoodHand Data/Kipp CAD/K0393/K0393.12.stp', '2020-12-07T10:24:11', ( '' ), ( '' ), ' ', 'PARTsolutions', ' ' );
FILE_SCHEMA( ( 'AUTOMOTIVE_DESIGN { 1 0 10303 214 1 1 1 1 }' ) );
ENDSEC;
DATA;
#1 = MECHANICAL_DESIGN_GEOMETRIC_PRESENTATION_REPRESENTATION( ' ', ( #10, #11, #12, #13, #14, #15, #16, #17, #18, #19, #20, #21, #22, #23, #24 ), #6 );
#2 = PRODUCT_DEFINITION_CONTEXT( '', #25, 'design' );
#3 = APPLICATION_PROTOCOL_DEFINITION( 'international standard', 'automotive_design', 2001, #25 );
#4 = PRODUCT_CATEGORY_RELATIONSHIP( 'NONE', 'NONE', #26, #27 );
#5 = SHAPE_DEFINITION_REPRESENTATION( #28, #29 );
#6 =  ( GEOMETRIC_REPRESENTATION_CONTEXT( 3 )GLOBAL_UNCERTAINTY_ASSIGNED_CONTEXT( ( #32 ) )GLOBAL_UNIT_ASSIGNED_CONTEXT( ( #34, #35, #36 ) )REPRESENTATION_CONTEXT( 'NONE', 'WORKSPACE' ) );
#10 = STYLED_ITEM( '', ( #38 ), #39 );
#11 = STYLED_ITEM( '', ( #40 ), #41 );
#12 = STYLED_ITEM( '', ( #42 ), #43 );
#13 = STYLED_ITEM( '', ( #44 ), #45 );
#14 = STYLED_ITEM( '', ( #46 ), #47 );
#15 = STYLED_ITEM( '', ( #48 ), #49 );
#16 = STYLED_ITEM( '', ( #50 ), #51 );
#17 = STYLED_ITEM( '', ( #52 ), #53 );
#18 = STYLED_ITEM( '', ( #54 ), #55 );
#19 = STYLED_ITEM( '', ( #56 ), #57 );
#20 = STYLED_ITEM( '', ( #58 ), #59 );
#21 = STYLED_ITEM( '', ( #60 ), #61 );
#22 = STYLED_ITEM( '', ( #62 ), #63 );
#23 = STYLED_ITEM( '', ( #64 ), #65 );
#24 = STYLED_ITEM( '', ( #66 ), #67 );
#25 = APPLICATION_CONTEXT( 'core data for automotive mechanical design processes' );
#26 = PRODUCT_CATEGORY( 'part', 'NONE' );
#27 = PRODUCT_RELATED_PRODUCT_CATEGORY( 'detail', ' ', ( #68 ) );
#28 = PRODUCT_DEFINITION_SHAPE( 'NONE', 'NONE', #69 );
#29 = ADVANCED_BREP_SHAPE_REPRESENTATION( '_K0393.12', ( #70, #71 ), #6 );
#32 = UNCERTAINTY_MEASURE_WITH_UNIT( LENGTH_MEASURE( 0.00100000000000000 ), #34, '', '' );
#34 =  ( CONVERSION_BASED_UNIT( 'MILLIMETRE', #74 )LENGTH_UNIT(  )NAMED_UNIT( #77 ) );
#35 =  ( NAMED_UNIT( #79 )PLANE_ANGLE_UNIT(  )SI_UNIT( $, .RADIAN. ) );
#36 =  ( NAMED_UNIT( #79 )SI_UNIT( $, .STERADIAN. )SOLID_ANGLE_UNIT(  ) );
#38 = PRESENTATION_STYLE_ASSIGNMENT( ( #85 ) );
#39 = ADVANCED_FACE( '', ( #86, #87 ), #88, .F. );
#40 = PRESENTATION_STYLE_ASSIGNMENT( ( #89 ) );
#41 = ADVANCED_FACE( '', ( #90, #91 ), #92, .F. );
#42 = PRESENTATION_STYLE_ASSIGNMENT( ( #93 ) );
#43 = ADVANCED_FACE( '', ( #94, #95 ), #96, .T. );
#44 = PRESENTATION_STYLE_ASSIGNMENT( ( #97 ) );
#45 = ADVANCED_FACE( '', ( #98, #99 ), #100, .T. );
#46 = PRESENTATION_STYLE_ASSIGNMENT( ( #101 ) );
#47 = ADVANCED_FACE( '', ( #102, #103 ), #104, .F. );
#48 = PRESENTATION_STYLE_ASSIGNMENT( ( #105 ) );
#49 = ADVANCED_FACE( '', ( #106 ), #107, .F. );
#50 = PRESENTATION_STYLE_ASSIGNMENT( ( #108 ) );
#51 = ADVANCED_FACE( '', ( #109, #110 ), #111, .F. );
#52 = PRESENTATION_STYLE_ASSIGNMENT( ( #112 ) );
#53 = ADVANCED_FACE( '', ( #113, #114 ), #115, .F. );
#54 = PRESENTATION_STYLE_ASSIGNMENT( ( #116 ) );
#55 = ADVANCED_FACE( '', ( #117, #118 ), #119, .F. );
#56 = PRESENTATION_STYLE_ASSIGNMENT( ( #120 ) );
#57 = ADVANCED_FACE( '', ( #121, #122 ), #123, .T. );
#58 = PRESENTATION_STYLE_ASSIGNMENT( ( #124 ) );
#59 = ADVANCED_FACE( '', ( #125, #126 ), #127, .T. );
#60 = PRESENTATION_STYLE_ASSIGNMENT( ( #128 ) );
#61 = ADVANCED_FACE( '', ( #129, #130 ), #131, .T. );
#62 = PRESENTATION_STYLE_ASSIGNMENT( ( #132 ) );
#63 = ADVANCED_FACE( '', ( #133, #134 ), #135, .F. );
#64 = PRESENTATION_STYLE_ASSIGNMENT( ( #136 ) );
#65 = ADVANCED_FACE( '', ( #137, #138 ), #139, .T. );
#66 = PRESENTATION_STYLE_ASSIGNMENT( ( #140 ) );
#67 = ADVANCED_FACE( '', ( #141, #142 ), #143, .F. );
#68 = PRODUCT( '_K0393.12', '_K0393.12', 'PART-_K0393.12-DESC', ( #144 ) );
#69 = PRODUCT_DEFINITION( 'NONE', 'NONE', #145, #2 );
#70 = MANIFOLD_SOLID_BREP( '_K0393.12', #146 );
#71 = AXIS2_PLACEMENT_3D( '', #147, #148, #149 );
#74 = LENGTH_MEASURE_WITH_UNIT( LENGTH_MEASURE( 1.00000000000000 ), #150 );
#77 = DIMENSIONAL_EXPONENTS( 1.00000000000000, 0.000000000000000, 0.000000000000000, 0.000000000000000, 0.000000000000000, 0.000000000000000, 0.000000000000000 );
#79 = DIMENSIONAL_EXPONENTS( 0.000000000000000, 0.000000000000000, 0.000000000000000, 0.000000000000000, 0.000000000000000, 0.000000000000000, 0.000000000000000 );
#85 = SURFACE_STYLE_USAGE( .BOTH., #151 );
#86 = FACE_BOUND( '', #152, .T. );
#87 = FACE_OUTER_BOUND( '', #153, .T. );
#88 = PLANE( '', #154 );
#89 = SURFACE_STYLE_USAGE( .BOTH., #155 );
#90 = FACE_OUTER_BOUND( '', #156, .T. );
#91 = FACE_OUTER_BOUND( '', #157, .T. );
#92 = CYLINDRICAL_SURFACE( '', #158, 3.95000000000000 );
#93 = SURFACE_STYLE_USAGE( .BOTH., #159 );
#94 = FACE_OUTER_BOUND( '', #160, .T. );
#95 = FACE_BOUND( '', #161, .T. );
#96 = CONICAL_SURFACE( '', #162, 8.29289321880000, 0.785398163400000 );
#97 = SURFACE_STYLE_USAGE( .BOTH., #163 );
#98 = FACE_BOUND( '', #164, .T. );
#99 = FACE_OUTER_BOUND( '', #165, .T. );
#100 = CONICAL_SURFACE( '', #166, 12.5000000000000, 0.785398163400000 );
#101 = SURFACE_STYLE_USAGE( .BOTH., #167 );
#102 = FACE_OUTER_BOUND( '', #168, .T. );
#103 = FACE_OUTER_BOUND( '', #169, .T. );
#104 = CYLINDRICAL_SURFACE( '', #170, 4.15000000000000 );
#105 = SURFACE_STYLE_USAGE( .BOTH., #171 );
#106 = FACE_OUTER_BOUND( '', #172, .T. );
#107 = PLANE( '', #173 );
#108 = SURFACE_STYLE_USAGE( .BOTH., #174 );
#109 = FACE_OUTER_BOUND( '', #175, .T. );
#110 = FACE_BOUND( '', #176, .T. );
#111 = CONICAL_SURFACE( '', #177, 3.95000000000000, 0.785398163400000 );
#112 = SURFACE_STYLE_USAGE( .BOTH., #178 );
#113 = FACE_OUTER_BOUND( '', #179, .T. );
#114 = FACE_OUTER_BOUND( '', #180, .T. );
#115 = CYLINDRICAL_SURFACE( '', #181, 5.00000000000000 );
#116 = SURFACE_STYLE_USAGE( .BOTH., #182 );
#117 = FACE_OUTER_BOUND( '', #183, .T. );
#118 = FACE_BOUND( '', #184, .T. );
#119 = PLANE( '', #185 );
#120 = SURFACE_STYLE_USAGE( .BOTH., #186 );
#121 = FACE_OUTER_BOUND( '', #187, .T. );
#122 = FACE_OUTER_BOUND( '', #188, .T. );
#123 = CYLINDRICAL_SURFACE( '', #189, 12.5000000000000 );
#124 = SURFACE_STYLE_USAGE( .BOTH., #190 );
#125 = FACE_BOUND( '', #191, .T. );
#126 = FACE_OUTER_BOUND( '', #192, .T. );
#127 = PLANE( '', #193 );
#128 = SURFACE_STYLE_USAGE( .BOTH., #194 );
#129 = FACE_OUTER_BOUND( '', #195, .T. );
#130 = FACE_OUTER_BOUND( '', #196, .T. );
#131 = CYLINDRICAL_SURFACE( '', #197, 9.00000000000000 );
#132 = SURFACE_STYLE_USAGE( .BOTH., #198 );
#133 = FACE_BOUND( '', #199, .T. );
#134 = FACE_OUTER_BOUND( '', #200, .T. );
#135 = CONICAL_SURFACE( '', #201, 3.95000000000000, 1.22173047640000 );
#136 = SURFACE_STYLE_USAGE( .BOTH., #202 );
#137 = FACE_OUTER_BOUND( '', #203, .T. );
#138 = FACE_BOUND( '', #204, .T. );
#139 = CONICAL_SURFACE( '', #205, 9.00000000000000, 1.09578557050000 );
#140 = SURFACE_STYLE_USAGE( .BOTH., #206 );
#141 = FACE_BOUND( '', #207, .T. );
#142 = FACE_OUTER_BOUND( '', #208, .T. );
#143 = CONICAL_SURFACE( '', #209, 4.75000000000000, 0.785398163400000 );
#144 = PRODUCT_CONTEXT( '', #25, 'mechanical' );
#145 = PRODUCT_DEFINITION_FORMATION_WITH_SPECIFIED_SOURCE( ' ', 'NONE', #68, .NOT_KNOWN. );
#146 = CLOSED_SHELL( '', ( #63, #43, #55, #67, #41, #49, #53, #39, #45, #57, #65, #61, #51, #47, #59 ) );
#147 = CARTESIAN_POINT( '', ( 0.000000000000000, 0.000000000000000, 0.000000000000000 ) );
#148 = DIRECTION( '', ( 0.000000000000000, 0.000000000000000, 1.00000000000000 ) );
#149 = DIRECTION( '', ( 1.00000000000000, 0.000000000000000, 0.000000000000000 ) );
#150 =  ( LENGTH_UNIT(  )NAMED_UNIT( #77 )SI_UNIT( .MILLI., .METRE. ) );
#151 = SURFACE_SIDE_STYLE( '', ( #211 ) );
#152 = EDGE_LOOP( '', ( #212 ) );
#153 = EDGE_LOOP( '', ( #213 ) );
#154 = AXIS2_PLACEMENT_3D( '', #214, #215, #216 );
#155 = SURFACE_SIDE_STYLE( '', ( #217 ) );
#156 = EDGE_LOOP( '', ( #218 ) );
#157 = EDGE_LOOP( '', ( #219 ) );
#158 = AXIS2_PLACEMENT_3D( '', #220, #221, #222 );
#159 = SURFACE_SIDE_STYLE( '', ( #223 ) );
#160 = EDGE_LOOP( '', ( #224 ) );
#161 = EDGE_LOOP( '', ( #225 ) );
#162 = AXIS2_PLACEMENT_3D( '', #226, #227, #228 );
#163 = SURFACE_SIDE_STYLE( '', ( #229 ) );
#164 = EDGE_LOOP( '', ( #230 ) );
#165 = EDGE_LOOP( '', ( #231 ) );
#166 = AXIS2_PLACEMENT_3D( '', #232, #233, #234 );
#167 = SURFACE_SIDE_STYLE( '', ( #235 ) );
#168 = EDGE_LOOP( '', ( #236 ) );
#169 = EDGE_LOOP( '', ( #237 ) );
#170 = AXIS2_PLACEMENT_3D( '', #238, #239, #240 );
#171 = SURFACE_SIDE_STYLE( '', ( #241 ) );
#172 = EDGE_LOOP( '', ( #242 ) );
#173 = AXIS2_PLACEMENT_3D( '', #243, #244, #245 );
#174 = SURFACE_SIDE_STYLE( '', ( #246 ) );
#175 = EDGE_LOOP( '', ( #247 ) );
#176 = EDGE_LOOP( '', ( #248 ) );
#177 = AXIS2_PLACEMENT_3D( '', #249, #250, #251 );
#178 = SURFACE_SIDE_STYLE( '', ( #252 ) );
#179 = EDGE_LOOP( '', ( #253 ) );
#180 = EDGE_LOOP( '', ( #254 ) );
#181 = AXIS2_PLACEMENT_3D( '', #255, #256, #257 );
#182 = SURFACE_SIDE_STYLE( '', ( #258 ) );
#183 = EDGE_LOOP( '', ( #259 ) );
#184 = EDGE_LOOP( '', ( #260 ) );
#185 = AXIS2_PLACEMENT_3D( '', #261, #262, #263 );
#186 = SURFACE_SIDE_STYLE( '', ( #264 ) );
#187 = EDGE_LOOP( '', ( #265 ) );
#188 = EDGE_LOOP( '', ( #266 ) );
#189 = AXIS2_PLACEMENT_3D( '', #267, #268, #269 );
#190 = SURFACE_SIDE_STYLE( '', ( #270 ) );
#191 = EDGE_LOOP( '', ( #271 ) );
#192 = EDGE_LOOP( '', ( #272 ) );
#193 = AXIS2_PLACEMENT_3D( '', #273, #274, #275 );
#194 = SURFACE_SIDE_STYLE( '', ( #276 ) );
#195 = EDGE_LOOP( '', ( #277 ) );
#196 = EDGE_LOOP( '', ( #278 ) );
#197 = AXIS2_PLACEMENT_3D( '', #279, #280, #281 );
#198 = SURFACE_SIDE_STYLE( '', ( #282 ) );
#199 = VERTEX_LOOP( '', #283 );
#200 = EDGE_LOOP( '', ( #284 ) );
#201 = AXIS2_PLACEMENT_3D( '', #285, #286, #287 );
#202 = SURFACE_SIDE_STYLE( '', ( #288 ) );
#203 = EDGE_LOOP( '', ( #289 ) );
#204 = EDGE_LOOP( '', ( #290 ) );
#205 = AXIS2_PLACEMENT_3D( '', #291, #292, #293 );
#206 = SURFACE_SIDE_STYLE( '', ( #294 ) );
#207 = EDGE_LOOP( '', ( #295 ) );
#208 = EDGE_LOOP( '', ( #296 ) );
#209 = AXIS2_PLACEMENT_3D( '', #297, #298, #299 );
#211 = SURFACE_STYLE_FILL_AREA( #300 );
#212 = ORIENTED_EDGE( '', *, *, #301, .F. );
#213 = ORIENTED_EDGE( '', *, *, #302, .T. );
#214 = CARTESIAN_POINT( '', ( 11.7928932188135, -13.0000000000000, 0.000000000000000 ) );
#215 = DIRECTION( '', ( 1.42108547152020E-16, 1.00000000000000, 0.000000000000000 ) );
#216 = DIRECTION( '', ( -1.00000000000000, 1.42108547152020E-16, 0.000000000000000 ) );
#217 = SURFACE_STYLE_FILL_AREA( #303 );
#218 = ORIENTED_EDGE( '', *, *, #304, .T. );
#219 = ORIENTED_EDGE( '', *, *, #305, .F. );
#220 = CARTESIAN_POINT( '', ( 4.44089209850063E-16, -6.33768242535150, 0.000000000000000 ) );
#221 = DIRECTION( '', ( -7.00712310976094E-17, 1.00000000000000, 0.000000000000000 ) );
#222 = DIRECTION( '', ( 1.00000000000000, 7.00712310976094E-17, 0.000000000000000 ) );
#223 = SURFACE_STYLE_FILL_AREA( #306 );
#224 = ORIENTED_EDGE( '', *, *, #307, .F. );
#225 = ORIENTED_EDGE( '', *, *, #308, .T. );
#226 = CARTESIAN_POINT( '', ( 7.10542735760100E-15, 1.73472347597681E-15, 0.000000000000000 ) );
#227 = DIRECTION( '', ( -1.42108547152020E-16, -1.00000000000000, -0.000000000000000 ) );
#228 = DIRECTION( '', ( 1.00000000000000, -1.42108547152020E-16, 0.000000000000000 ) );
#229 = SURFACE_STYLE_FILL_AREA( #309 );
#230 = ORIENTED_EDGE( '', *, *, #302, .F. );
#231 = ORIENTED_EDGE( '', *, *, #310, .T. );
#232 = CARTESIAN_POINT( '', ( 5.35850216198050E-15, -12.2928932188135, 0.000000000000000 ) );
#233 = DIRECTION( '', ( 1.42108547152020E-16, 1.00000000000000, -0.000000000000000 ) );
#234 = DIRECTION( '', ( -1.00000000000000, 1.42108547152020E-16, 0.000000000000000 ) );
#235 = SURFACE_STYLE_FILL_AREA( #311 );
#236 = ORIENTED_EDGE( '', *, *, #312, .T. );
#237 = ORIENTED_EDGE( '', *, *, #313, .F. );
#238 = CARTESIAN_POINT( '', ( 4.44089209850063E-16, -6.33768242535150, 0.000000000000000 ) );
#239 = DIRECTION( '', ( -7.00712310976094E-17, 1.00000000000000, 0.000000000000000 ) );
#240 = DIRECTION( '', ( 1.00000000000000, 7.00712310976094E-17, 0.000000000000000 ) );
#241 = SURFACE_STYLE_FILL_AREA( #314 );
#242 = ORIENTED_EDGE( '', *, *, #315, .T. );
#243 = CARTESIAN_POINT( '', ( 5.00000000000000, -12.5000000000000, 0.000000000000000 ) );
#244 = DIRECTION( '', ( 1.42108547152020E-16, 1.00000000000000, 0.000000000000000 ) );
#245 = DIRECTION( '', ( -1.00000000000000, 1.42108547152020E-16, 0.000000000000000 ) );
#246 = SURFACE_STYLE_FILL_AREA( #316 );
#247 = ORIENTED_EDGE( '', *, *, #313, .T. );
#248 = ORIENTED_EDGE( '', *, *, #304, .F. );
#249 = CARTESIAN_POINT( '', ( 7.70783542073707E-17, -1.10000000000000, 0.000000000000000 ) );
#250 = DIRECTION( '', ( 7.00712310976094E-17, -1.00000000000000, -0.000000000000000 ) );
#251 = DIRECTION( '', ( 1.00000000000000, 7.00712310976094E-17, 0.000000000000000 ) );
#252 = SURFACE_STYLE_FILL_AREA( #317 );
#253 = ORIENTED_EDGE( '', *, *, #315, .F. );
#254 = ORIENTED_EDGE( '', *, *, #301, .T. );
#255 = CARTESIAN_POINT( '', ( 5.32907051820075E-15, -12.5000000000000, 0.000000000000000 ) );
#256 = DIRECTION( '', ( 1.42108547152020E-16, 1.00000000000000, -0.000000000000000 ) );
#257 = DIRECTION( '', ( 1.00000000000000, -1.42108547152020E-16, 0.000000000000000 ) );
#258 = SURFACE_STYLE_FILL_AREA( #318 );
#259 = ORIENTED_EDGE( '', *, *, #308, .F. );
#260 = ORIENTED_EDGE( '', *, *, #319, .T. );
#261 = CARTESIAN_POINT( '', ( 7.10542735760100E-15, 5.89245503506209E-16, 0.000000000000000 ) );
#262 = DIRECTION( '', ( -1.42108547152020E-16, -1.00000000000000, 0.000000000000000 ) );
#263 = DIRECTION( '', ( 1.00000000000000, -1.42108547152020E-16, 0.000000000000000 ) );
#264 = SURFACE_STYLE_FILL_AREA( #320 );
#265 = ORIENTED_EDGE( '', *, *, #310, .F. );
#266 = ORIENTED_EDGE( '', *, *, #321, .T. );
#267 = CARTESIAN_POINT( '', ( 5.32907051820075E-15, -12.5000000000000, 0.000000000000000 ) );
#268 = DIRECTION( '', ( 1.42108547152020E-16, 1.00000000000000, -0.000000000000000 ) );
#269 = DIRECTION( '', ( 1.00000000000000, -1.42108547152020E-16, 0.000000000000000 ) );
#270 = SURFACE_STYLE_FILL_AREA( #322 );
#271 = ORIENTED_EDGE( '', *, *, #323, .T. );
#272 = ORIENTED_EDGE( '', *, *, #312, .F. );
#273 = CARTESIAN_POINT( '', ( 4.15000000000000, -4.90000000000000, 0.000000000000000 ) );
#274 = DIRECTION( '', ( -7.00712310976094E-17, 1.00000000000000, 0.000000000000000 ) );
#275 = DIRECTION( '', ( -1.00000000000000, -7.00712310976094E-17, 0.000000000000000 ) );
#276 = SURFACE_STYLE_FILL_AREA( #324 );
#277 = ORIENTED_EDGE( '', *, *, #325, .F. );
#278 = ORIENTED_EDGE( '', *, *, #307, .T. );
#279 = CARTESIAN_POINT( '', ( 5.32907051820075E-15, -12.5000000000000, 0.000000000000000 ) );
#280 = DIRECTION( '', ( 1.42108547152020E-16, 1.00000000000000, -0.000000000000000 ) );
#281 = DIRECTION( '', ( 1.00000000000000, -1.42108547152020E-16, 0.000000000000000 ) );
#282 = SURFACE_STYLE_FILL_AREA( #326 );
#283 = VERTEX_POINT( '', #327 );
#284 = ORIENTED_EDGE( '', *, *, #323, .F. );
#285 = CARTESIAN_POINT( '', ( 3.43349032378286E-16, -4.90000000000000, 0.000000000000000 ) );
#286 = DIRECTION( '', ( -7.00712310976094E-17, 1.00000000000000, -0.000000000000000 ) );
#287 = DIRECTION( '', ( -1.00000000000000, -7.00712310976094E-17, 0.000000000000000 ) );
#288 = SURFACE_STYLE_FILL_AREA( #328 );
#289 = ORIENTED_EDGE( '', *, *, #321, .F. );
#290 = ORIENTED_EDGE( '', *, *, #325, .T. );
#291 = CARTESIAN_POINT( '', ( 6.22435436525848E-15, -6.20000000000000, 0.000000000000000 ) );
#292 = DIRECTION( '', ( -1.42108547152020E-16, -1.00000000000000, -0.000000000000000 ) );
#293 = DIRECTION( '', ( 1.00000000000000, -1.42108547152020E-16, 0.000000000000000 ) );
#294 = SURFACE_STYLE_FILL_AREA( #329 );
#295 = ORIENTED_EDGE( '', *, *, #305, .T. );
#296 = ORIENTED_EDGE( '', *, *, #319, .F. );
#297 = CARTESIAN_POINT( '', ( 9.62964972193618E-32, 0.000000000000000, 0.000000000000000 ) );
#298 = DIRECTION( '', ( -7.00712310976094E-17, 1.00000000000000, -0.000000000000000 ) );
#299 = DIRECTION( '', ( -1.00000000000000, -7.00712310976094E-17, 0.000000000000000 ) );
#300 = FILL_AREA_STYLE( '', ( #330 ) );
#301 = EDGE_CURVE( '', #331, #331, #332, .T. );
#302 = EDGE_CURVE( '', #333, #333, #334, .T. );
#303 = FILL_AREA_STYLE( '', ( #335 ) );
#304 = EDGE_CURVE( '', #336, #336, #337, .T. );
#305 = EDGE_CURVE( '', #338, #338, #339, .T. );
#306 = FILL_AREA_STYLE( '', ( #340 ) );
#307 = EDGE_CURVE( '', #341, #341, #342, .T. );
#308 = EDGE_CURVE( '', #343, #343, #344, .T. );
#309 = FILL_AREA_STYLE( '', ( #345 ) );
#310 = EDGE_CURVE( '', #346, #346, #347, .T. );
#311 = FILL_AREA_STYLE( '', ( #348 ) );
#312 = EDGE_CURVE( '', #349, #349, #350, .T. );
#313 = EDGE_CURVE( '', #351, #351, #352, .T. );
#314 = FILL_AREA_STYLE( '', ( #353 ) );
#315 = EDGE_CURVE( '', #354, #354, #355, .T. );
#316 = FILL_AREA_STYLE( '', ( #356 ) );
#317 = FILL_AREA_STYLE( '', ( #357 ) );
#318 = FILL_AREA_STYLE( '', ( #358 ) );
#319 = EDGE_CURVE( '', #359, #359, #360, .T. );
#320 = FILL_AREA_STYLE( '', ( #361 ) );
#321 = EDGE_CURVE( '', #362, #362, #363, .T. );
#322 = FILL_AREA_STYLE( '', ( #364 ) );
#323 = EDGE_CURVE( '', #365, #365, #366, .T. );
#324 = FILL_AREA_STYLE( '', ( #367 ) );
#325 = EDGE_CURVE( '', #368, #368, #369, .T. );
#326 = FILL_AREA_STYLE( '', ( #370 ) );
#327 = CARTESIAN_POINT( '', ( 8.67361737988404E-16, -6.33768242535150, 0.000000000000000 ) );
#328 = FILL_AREA_STYLE( '', ( #371 ) );
#329 = FILL_AREA_STYLE( '', ( #372 ) );
#330 = FILL_AREA_STYLE_COLOUR( '', #373 );
#331 = VERTEX_POINT( '', #374 );
#332 = CIRCLE( '', #375, 5.00000000000000 );
#333 = VERTEX_POINT( '', #376 );
#334 = CIRCLE( '', #377, 11.7928932188000 );
#335 = FILL_AREA_STYLE_COLOUR( '', #378 );
#336 = VERTEX_POINT( '', #379 );
#337 = CIRCLE( '', #380, 3.95000000000000 );
#338 = VERTEX_POINT( '', #381 );
#339 = CIRCLE( '', #382, 3.95000000000000 );
#340 = FILL_AREA_STYLE_COLOUR( '', #383 );
#341 = VERTEX_POINT( '', #384 );
#342 = CIRCLE( '', #385, 9.00000000000000 );
#343 = VERTEX_POINT( '', #386 );
#344 = CIRCLE( '', #387, 8.29289321880000 );
#345 = FILL_AREA_STYLE_COLOUR( '', #388 );
#346 = VERTEX_POINT( '', #389 );
#347 = CIRCLE( '', #390, 12.5000000000000 );
#348 = FILL_AREA_STYLE_COLOUR( '', #391 );
#349 = VERTEX_POINT( '', #392 );
#350 = CIRCLE( '', #393, 4.15000000000000 );
#351 = VERTEX_POINT( '', #394 );
#352 = CIRCLE( '', #395, 4.15000000000000 );
#353 = FILL_AREA_STYLE_COLOUR( '', #396 );
#354 = VERTEX_POINT( '', #397 );
#355 = CIRCLE( '', #398, 5.00000000000000 );
#356 = FILL_AREA_STYLE_COLOUR( '', #399 );
#357 = FILL_AREA_STYLE_COLOUR( '', #400 );
#358 = FILL_AREA_STYLE_COLOUR( '', #401 );
#359 = VERTEX_POINT( '', #402 );
#360 = CIRCLE( '', #403, 4.75000000000000 );
#361 = FILL_AREA_STYLE_COLOUR( '', #404 );
#362 = VERTEX_POINT( '', #405 );
#363 = CIRCLE( '', #406, 12.5000000000000 );
#364 = FILL_AREA_STYLE_COLOUR( '', #407 );
#365 = VERTEX_POINT( '', #408 );
#366 = CIRCLE( '', #409, 3.95000000000000 );
#367 = FILL_AREA_STYLE_COLOUR( '', #410 );
#368 = VERTEX_POINT( '', #411 );
#369 = CIRCLE( '', #412, 9.00000000000000 );
#370 = FILL_AREA_STYLE_COLOUR( '', #413 );
#371 = FILL_AREA_STYLE_COLOUR( '', #414 );
#372 = FILL_AREA_STYLE_COLOUR( '', #415 );
#373 = COLOUR_RGB( '', 0.689999997600000, 0.689999997600000, 0.689999997600000 );
#374 = CARTESIAN_POINT( '', ( 5.00000000000000, -13.0000000000000, 0.000000000000000 ) );
#375 = AXIS2_PLACEMENT_3D( '', #416, #417, #418 );
#376 = CARTESIAN_POINT( '', ( 11.7928932188135, -13.0000000000000, 0.000000000000000 ) );
#377 = AXIS2_PLACEMENT_3D( '', #419, #420, #421 );
#378 = COLOUR_RGB( '', 0.689999997600000, 0.689999997600000, 0.689999997600000 );
#379 = CARTESIAN_POINT( '', ( 3.95000000000000, -1.10000000000000, 0.000000000000000 ) );
#380 = AXIS2_PLACEMENT_3D( '', #422, #423, #424 );
#381 = CARTESIAN_POINT( '', ( 3.95000000000000, -0.800000000000000, 0.000000000000000 ) );
#382 = AXIS2_PLACEMENT_3D( '', #425, #426, #427 );
#383 = COLOUR_RGB( '', 0.689999997600000, 0.689999997600000, 0.689999997600000 );
#384 = CARTESIAN_POINT( '', ( 9.00000000000000, -0.707106781186546, 0.000000000000000 ) );
#385 = AXIS2_PLACEMENT_3D( '', #428, #429, #430 );
#386 = CARTESIAN_POINT( '', ( 8.29289321881345, 5.56232468964389E-16, 0.000000000000000 ) );
#387 = AXIS2_PLACEMENT_3D( '', #431, #432, #433 );
#388 = COLOUR_RGB( '', 0.689999997600000, 0.689999997600000, 0.689999997600000 );
#389 = CARTESIAN_POINT( '', ( 12.5000000000000, -12.2928932188135, 0.000000000000000 ) );
#390 = AXIS2_PLACEMENT_3D( '', #434, #435, #436 );
#391 = COLOUR_RGB( '', 0.689999997600000, 0.689999997600000, 0.689999997600000 );
#392 = CARTESIAN_POINT( '', ( 4.15000000000000, -4.90000000000000, 0.000000000000000 ) );
#393 = AXIS2_PLACEMENT_3D( '', #437, #438, #439 );
#394 = CARTESIAN_POINT( '', ( 4.15000000000000, -1.30000000000000, 0.000000000000000 ) );
#395 = AXIS2_PLACEMENT_3D( '', #440, #441, #442 );
#396 = COLOUR_RGB( '', 0.689999997600000, 0.689999997600000, 0.689999997600000 );
#397 = CARTESIAN_POINT( '', ( 5.00000000000000, -12.5000000000000, 0.000000000000000 ) );
#398 = AXIS2_PLACEMENT_3D( '', #443, #444, #445 );
#399 = COLOUR_RGB( '', 0.689999997600000, 0.689999997600000, 0.689999997600000 );
#400 = COLOUR_RGB( '', 0.689999997600000, 0.689999997600000, 0.689999997600000 );
#401 = COLOUR_RGB( '', 0.689999997600000, 0.689999997600000, 0.689999997600000 );
#402 = CARTESIAN_POINT( '', ( 4.75000000000000, 3.32838347713645E-16, 0.000000000000000 ) );
#403 = AXIS2_PLACEMENT_3D( '', #446, #447, #448 );
#404 = COLOUR_RGB( '', 0.689999997600000, 0.689999997600000, 0.689999997600000 );
#405 = CARTESIAN_POINT( '', ( 12.5000000000000, -8.00000000000000, 0.000000000000000 ) );
#406 = AXIS2_PLACEMENT_3D( '', #449, #450, #451 );
#407 = COLOUR_RGB( '', 0.689999997600000, 0.689999997600000, 0.689999997600000 );
#408 = CARTESIAN_POINT( '', ( 3.95000000000000, -4.90000000000000, 0.000000000000000 ) );
#409 = AXIS2_PLACEMENT_3D( '', #452, #453, #454 );
#410 = COLOUR_RGB( '', 0.689999997600000, 0.689999997600000, 0.689999997600000 );
#411 = CARTESIAN_POINT( '', ( 9.00000000000000, -6.20000000000000, 0.000000000000000 ) );
#412 = AXIS2_PLACEMENT_3D( '', #455, #456, #457 );
#413 = COLOUR_RGB( '', 0.689999997600000, 0.689999997600000, 0.689999997600000 );
#414 = COLOUR_RGB( '', 0.689999997600000, 0.689999997600000, 0.689999997600000 );
#415 = COLOUR_RGB( '', 0.689999997600000, 0.689999997600000, 0.689999997600000 );
#416 = CARTESIAN_POINT( '', ( 5.25801624462474E-15, -13.0000000000000, 0.000000000000000 ) );
#417 = DIRECTION( '', ( -1.42108547152020E-16, -1.00000000000000, 0.000000000000000 ) );
#418 = DIRECTION( '', ( 1.00000000000000, -1.42108547152020E-16, 0.000000000000000 ) );
#419 = CARTESIAN_POINT( '', ( 5.25801624462474E-15, -13.0000000000000, 0.000000000000000 ) );
#420 = DIRECTION( '', ( -1.42108547152020E-16, -1.00000000000000, 0.000000000000000 ) );
#421 = DIRECTION( '', ( 1.00000000000000, -1.42108547152020E-16, 0.000000000000000 ) );
#422 = CARTESIAN_POINT( '', ( 7.70783542073707E-17, -1.10000000000000, 0.000000000000000 ) );
#423 = DIRECTION( '', ( 7.00712310976094E-17, -1.00000000000000, -0.000000000000000 ) );
#424 = DIRECTION( '', ( 1.00000000000000, 7.00712310976094E-17, 0.000000000000000 ) );
#425 = CARTESIAN_POINT( '', ( 5.60569848780876E-17, -0.800000000000000, 0.000000000000000 ) );
#426 = DIRECTION( '', ( 7.00712310976094E-17, -1.00000000000000, -0.000000000000000 ) );
#427 = DIRECTION( '', ( 1.00000000000000, 7.00712310976094E-17, 0.000000000000000 ) );
#428 = CARTESIAN_POINT( '', ( 7.00494144024524E-15, -0.707106781186545, 0.000000000000000 ) );
#429 = DIRECTION( '', ( -1.42108547152020E-16, -1.00000000000000, 0.000000000000000 ) );
#430 = DIRECTION( '', ( 1.00000000000000, -1.42108547152020E-16, 0.000000000000000 ) );
#431 = CARTESIAN_POINT( '', ( 7.10542735760100E-15, 1.73472347597681E-15, 0.000000000000000 ) );
#432 = DIRECTION( '', ( -1.42108547152020E-16, -1.00000000000000, 0.000000000000000 ) );
#433 = DIRECTION( '', ( 1.00000000000000, -1.42108547152020E-16, 0.000000000000000 ) );
#434 = CARTESIAN_POINT( '', ( 5.35850216198050E-15, -12.2928932188135, 0.000000000000000 ) );
#435 = DIRECTION( '', ( -1.42108547152020E-16, -1.00000000000000, 0.000000000000000 ) );
#436 = DIRECTION( '', ( 1.00000000000000, -1.42108547152020E-16, 0.000000000000000 ) );
#437 = CARTESIAN_POINT( '', ( 3.43349032378286E-16, -4.90000000000000, 0.000000000000000 ) );
#438 = DIRECTION( '', ( 7.00712310976094E-17, -1.00000000000000, -0.000000000000000 ) );
#439 = DIRECTION( '', ( 1.00000000000000, 7.00712310976094E-17, 0.000000000000000 ) );
#440 = CARTESIAN_POINT( '', ( 9.10926004268926E-17, -1.30000000000000, 0.000000000000000 ) );
#441 = DIRECTION( '', ( 7.00712310976094E-17, -1.00000000000000, -0.000000000000000 ) );
#442 = DIRECTION( '', ( 1.00000000000000, 7.00712310976094E-17, 0.000000000000000 ) );
#443 = CARTESIAN_POINT( '', ( 5.32907051820075E-15, -12.5000000000000, 0.000000000000000 ) );
#444 = DIRECTION( '', ( -1.42108547152020E-16, -1.00000000000000, 0.000000000000000 ) );
#445 = DIRECTION( '', ( 1.00000000000000, -1.42108547152020E-16, 0.000000000000000 ) );
#446 = CARTESIAN_POINT( '', ( 9.62964972193618E-32, 0.000000000000000, 0.000000000000000 ) );
#447 = DIRECTION( '', ( 7.00712310976094E-17, -1.00000000000000, -0.000000000000000 ) );
#448 = DIRECTION( '', ( 1.00000000000000, 7.00712310976094E-17, 0.000000000000000 ) );
#449 = CARTESIAN_POINT( '', ( 5.96855898038484E-15, -8.00000000000000, 0.000000000000000 ) );
#450 = DIRECTION( '', ( -1.42108547152020E-16, -1.00000000000000, 0.000000000000000 ) );
#451 = DIRECTION( '', ( 1.00000000000000, -1.42108547152020E-16, 0.000000000000000 ) );
#452 = CARTESIAN_POINT( '', ( 3.43349032378286E-16, -4.90000000000000, 0.000000000000000 ) );
#453 = DIRECTION( '', ( 7.00712310976094E-17, -1.00000000000000, -0.000000000000000 ) );
#454 = DIRECTION( '', ( 1.00000000000000, 7.00712310976094E-17, 0.000000000000000 ) );
#455 = CARTESIAN_POINT( '', ( 6.22435436525848E-15, -6.20000000000000, 0.000000000000000 ) );
#456 = DIRECTION( '', ( -1.42108547152020E-16, -1.00000000000000, 0.000000000000000 ) );
#457 = DIRECTION( '', ( 1.00000000000000, -1.42108547152020E-16, 0.000000000000000 ) );
ENDSEC;
END-ISO-10303-21;
