ISO-10303-21;
HEADER;
FILE_DESCRIPTION( ( 'STEP AP214' ), '1' );
FILE_NAME( '//goodhand-server/Shared Folders/GoodHand Data/Kipp CAD/K0758/K0758.100010X0500.stp', '2020-12-10T08:50:30', ( '' ), ( '' ), ' ', 'PARTsolutions', ' ' );
FILE_SCHEMA( ( 'AUTOMOTIVE_DESIGN { 1 0 10303 214 1 1 1 1 }' ) );
ENDSEC;
DATA;
#1 = MECHANICAL_DESIGN_GEOMETRIC_PRESENTATION_REPRESENTATION( ' ', ( #10, #11, #12, #13, #14, #15, #16, #17, #18, #19 ), #6 );
#2 = PRODUCT_DEFINITION_CONTEXT( '', #20, 'design' );
#3 = APPLICATION_PROTOCOL_DEFINITION( 'international standard', 'automotive_design', 2001, #20 );
#4 = PRODUCT_CATEGORY_RELATIONSHIP( 'NONE', 'NONE', #21, #22 );
#5 = SHAPE_DEFINITION_REPRESENTATION( #23, #24 );
#6 =  ( GEOMETRIC_REPRESENTATION_CONTEXT( 3 )GLOBAL_UNCERTAINTY_ASSIGNED_CONTEXT( ( #27 ) )GLOBAL_UNIT_ASSIGNED_CONTEXT( ( #29, #30, #31 ) )REPRESENTATION_CONTEXT( 'NONE', 'WORKSPACE' ) );
#10 = STYLED_ITEM( '', ( #33 ), #34 );
#11 = STYLED_ITEM( '', ( #35 ), #36 );
#12 = STYLED_ITEM( '', ( #37 ), #38 );
#13 = STYLED_ITEM( '', ( #39 ), #40 );
#14 = STYLED_ITEM( '', ( #41 ), #42 );
#15 = STYLED_ITEM( '', ( #43 ), #44 );
#16 = STYLED_ITEM( '', ( #45 ), #46 );
#17 = STYLED_ITEM( '', ( #47 ), #48 );
#18 = STYLED_ITEM( '', ( #49 ), #50 );
#19 = STYLED_ITEM( '', ( #51 ), #52 );
#20 = APPLICATION_CONTEXT( 'core data for automotive mechanical design processes' );
#21 = PRODUCT_CATEGORY( 'part', 'NONE' );
#22 = PRODUCT_RELATED_PRODUCT_CATEGORY( 'detail', ' ', ( #53 ) );
#23 = PRODUCT_DEFINITION_SHAPE( 'NONE', 'NONE', #54 );
#24 = ADVANCED_BREP_SHAPE_REPRESENTATION( '_K0758.100010X0500', ( #55, #56 ), #6 );
#27 = UNCERTAINTY_MEASURE_WITH_UNIT( LENGTH_MEASURE( 0.00100000000000000 ), #29, '', '' );
#29 =  ( CONVERSION_BASED_UNIT( 'MILLIMETRE', #59 )LENGTH_UNIT(  )NAMED_UNIT( #62 ) );
#30 =  ( NAMED_UNIT( #64 )PLANE_ANGLE_UNIT(  )SI_UNIT( $, .RADIAN. ) );
#31 =  ( NAMED_UNIT( #64 )SI_UNIT( $, .STERADIAN. )SOLID_ANGLE_UNIT(  ) );
#33 = PRESENTATION_STYLE_ASSIGNMENT( ( #70 ) );
#34 = ADVANCED_FACE( '', ( #71, #72, #73 ), #74, .T. );
#35 = PRESENTATION_STYLE_ASSIGNMENT( ( #75 ) );
#36 = ADVANCED_FACE( '', ( #76, #77, #78 ), #79, .F. );
#37 = PRESENTATION_STYLE_ASSIGNMENT( ( #80 ) );
#38 = ADVANCED_FACE( '', ( #81, #82 ), #83, .F. );
#39 = PRESENTATION_STYLE_ASSIGNMENT( ( #84 ) );
#40 = ADVANCED_FACE( '', ( #85, #86 ), #87, .F. );
#41 = PRESENTATION_STYLE_ASSIGNMENT( ( #88 ) );
#42 = ADVANCED_FACE( '', ( #89 ), #90, .F. );
#43 = PRESENTATION_STYLE_ASSIGNMENT( ( #91 ) );
#44 = ADVANCED_FACE( '', ( #92, #93 ), #94, .F. );
#45 = PRESENTATION_STYLE_ASSIGNMENT( ( #95 ) );
#46 = ADVANCED_FACE( '', ( #96 ), #97, .F. );
#47 = PRESENTATION_STYLE_ASSIGNMENT( ( #98 ) );
#48 = ADVANCED_FACE( '', ( #99, #100 ), #101, .F. );
#49 = PRESENTATION_STYLE_ASSIGNMENT( ( #102 ) );
#50 = ADVANCED_FACE( '', ( #103 ), #104, .F. );
#51 = PRESENTATION_STYLE_ASSIGNMENT( ( #105 ) );
#52 = ADVANCED_FACE( '', ( #106 ), #107, .F. );
#53 = PRODUCT( '_K0758.100010X0500', '_K0758.100010X0500', 'PART-_K0758.100010X0500-DESC', ( #108 ) );
#54 = PRODUCT_DEFINITION( 'NONE', 'NONE', #109, #2 );
#55 = MANIFOLD_SOLID_BREP( '_K0758.100010X0500', #110 );
#56 = AXIS2_PLACEMENT_3D( '', #111, #112, #113 );
#59 = LENGTH_MEASURE_WITH_UNIT( LENGTH_MEASURE( 1.00000000000000 ), #114 );
#62 = DIMENSIONAL_EXPONENTS( 1.00000000000000, 0.000000000000000, 0.000000000000000, 0.000000000000000, 0.000000000000000, 0.000000000000000, 0.000000000000000 );
#64 = DIMENSIONAL_EXPONENTS( 0.000000000000000, 0.000000000000000, 0.000000000000000, 0.000000000000000, 0.000000000000000, 0.000000000000000, 0.000000000000000 );
#70 = SURFACE_STYLE_USAGE( .BOTH., #115 );
#71 = FACE_BOUND( '', #116, .T. );
#72 = FACE_BOUND( '', #117, .T. );
#73 = FACE_OUTER_BOUND( '', #118, .T. );
#74 = PLANE( '', #119 );
#75 = SURFACE_STYLE_USAGE( .BOTH., #120 );
#76 = FACE_BOUND( '', #121, .T. );
#77 = FACE_BOUND( '', #122, .T. );
#78 = FACE_OUTER_BOUND( '', #123, .T. );
#79 = PLANE( '', #124 );
#80 = SURFACE_STYLE_USAGE( .BOTH., #125 );
#81 = FACE_OUTER_BOUND( '', #126, .T. );
#82 = FACE_OUTER_BOUND( '', #127, .T. );
#83 = CYLINDRICAL_SURFACE( '', #128, 2.75000000000000 );
#84 = SURFACE_STYLE_USAGE( .BOTH., #129 );
#85 = FACE_OUTER_BOUND( '', #130, .T. );
#86 = FACE_OUTER_BOUND( '', #131, .T. );
#87 = CYLINDRICAL_SURFACE( '', #132, 2.75000000000000 );
#88 = SURFACE_STYLE_USAGE( .BOTH., #133 );
#89 = FACE_OUTER_BOUND( '', #134, .T. );
#90 = PLANE( '', #135 );
#91 = SURFACE_STYLE_USAGE( .BOTH., #136 );
#92 = FACE_BOUND( '', #137, .T. );
#93 = FACE_OUTER_BOUND( '', #138, .T. );
#94 = CONICAL_SURFACE( '', #139, 5.75000000000000, 0.785398163400000 );
#95 = SURFACE_STYLE_USAGE( .BOTH., #140 );
#96 = FACE_OUTER_BOUND( '', #141, .T. );
#97 = PLANE( '', #142 );
#98 = SURFACE_STYLE_USAGE( .BOTH., #143 );
#99 = FACE_BOUND( '', #144, .T. );
#100 = FACE_OUTER_BOUND( '', #145, .T. );
#101 = CONICAL_SURFACE( '', #146, 5.75000000000000, 0.785398163400000 );
#102 = SURFACE_STYLE_USAGE( .BOTH., #147 );
#103 = FACE_OUTER_BOUND( '', #148, .T. );
#104 = PLANE( '', #149 );
#105 = SURFACE_STYLE_USAGE( .BOTH., #150 );
#106 = FACE_OUTER_BOUND( '', #151, .T. );
#107 = PLANE( '', #152 );
#108 = PRODUCT_CONTEXT( '', #20, 'mechanical' );
#109 = PRODUCT_DEFINITION_FORMATION_WITH_SPECIFIED_SOURCE( ' ', 'NONE', #53, .NOT_KNOWN. );
#110 = CLOSED_SHELL( '', ( #36, #40, #48, #34, #50, #52, #42, #46, #44, #38 ) );
#111 = CARTESIAN_POINT( '', ( 0.000000000000000, 0.000000000000000, 0.000000000000000 ) );
#112 = DIRECTION( '', ( 0.000000000000000, 0.000000000000000, 1.00000000000000 ) );
#113 = DIRECTION( '', ( 1.00000000000000, 0.000000000000000, 0.000000000000000 ) );
#114 =  ( LENGTH_UNIT(  )NAMED_UNIT( #62 )SI_UNIT( .MILLI., .METRE. ) );
#115 = SURFACE_SIDE_STYLE( '', ( #154 ) );
#116 = EDGE_LOOP( '', ( #155 ) );
#117 = EDGE_LOOP( '', ( #156 ) );
#118 = EDGE_LOOP( '', ( #157, #158, #159, #160 ) );
#119 = AXIS2_PLACEMENT_3D( '', #161, #162, #163 );
#120 = SURFACE_SIDE_STYLE( '', ( #164 ) );
#121 = EDGE_LOOP( '', ( #165 ) );
#122 = EDGE_LOOP( '', ( #166 ) );
#123 = EDGE_LOOP( '', ( #167, #168, #169, #170 ) );
#124 = AXIS2_PLACEMENT_3D( '', #171, #172, #173 );
#125 = SURFACE_SIDE_STYLE( '', ( #174 ) );
#126 = EDGE_LOOP( '', ( #175 ) );
#127 = EDGE_LOOP( '', ( #176 ) );
#128 = AXIS2_PLACEMENT_3D( '', #177, #178, #179 );
#129 = SURFACE_SIDE_STYLE( '', ( #180 ) );
#130 = EDGE_LOOP( '', ( #181 ) );
#131 = EDGE_LOOP( '', ( #182 ) );
#132 = AXIS2_PLACEMENT_3D( '', #183, #184, #185 );
#133 = SURFACE_SIDE_STYLE( '', ( #186 ) );
#134 = EDGE_LOOP( '', ( #187, #188, #189, #190 ) );
#135 = AXIS2_PLACEMENT_3D( '', #191, #192, #193 );
#136 = SURFACE_SIDE_STYLE( '', ( #194 ) );
#137 = EDGE_LOOP( '', ( #195 ) );
#138 = EDGE_LOOP( '', ( #196 ) );
#139 = AXIS2_PLACEMENT_3D( '', #197, #198, #199 );
#140 = SURFACE_SIDE_STYLE( '', ( #200 ) );
#141 = EDGE_LOOP( '', ( #201, #202, #203, #204 ) );
#142 = AXIS2_PLACEMENT_3D( '', #205, #206, #207 );
#143 = SURFACE_SIDE_STYLE( '', ( #208 ) );
#144 = EDGE_LOOP( '', ( #209 ) );
#145 = EDGE_LOOP( '', ( #210 ) );
#146 = AXIS2_PLACEMENT_3D( '', #211, #212, #213 );
#147 = SURFACE_SIDE_STYLE( '', ( #214 ) );
#148 = EDGE_LOOP( '', ( #215, #216, #217, #218 ) );
#149 = AXIS2_PLACEMENT_3D( '', #219, #220, #221 );
#150 = SURFACE_SIDE_STYLE( '', ( #222 ) );
#151 = EDGE_LOOP( '', ( #223, #224, #225, #226 ) );
#152 = AXIS2_PLACEMENT_3D( '', #227, #228, #229 );
#154 = SURFACE_STYLE_FILL_AREA( #230 );
#155 = ORIENTED_EDGE( '', *, *, #231, .T. );
#156 = ORIENTED_EDGE( '', *, *, #232, .T. );
#157 = ORIENTED_EDGE( '', *, *, #233, .T. );
#158 = ORIENTED_EDGE( '', *, *, #234, .T. );
#159 = ORIENTED_EDGE( '', *, *, #235, .T. );
#160 = ORIENTED_EDGE( '', *, *, #236, .T. );
#161 = CARTESIAN_POINT( '', ( 0.000000000000000, 0.000000000000000, 6.00000000000000 ) );
#162 = DIRECTION( '', ( 0.000000000000000, 0.000000000000000, 1.00000000000000 ) );
#163 = DIRECTION( '', ( 1.00000000000000, 0.000000000000000, -0.000000000000000 ) );
#164 = SURFACE_STYLE_FILL_AREA( #237 );
#165 = ORIENTED_EDGE( '', *, *, #238, .F. );
#166 = ORIENTED_EDGE( '', *, *, #239, .F. );
#167 = ORIENTED_EDGE( '', *, *, #240, .F. );
#168 = ORIENTED_EDGE( '', *, *, #241, .F. );
#169 = ORIENTED_EDGE( '', *, *, #242, .F. );
#170 = ORIENTED_EDGE( '', *, *, #243, .F. );
#171 = CARTESIAN_POINT( '', ( 0.000000000000000, 0.000000000000000, 0.000000000000000 ) );
#172 = DIRECTION( '', ( 0.000000000000000, 0.000000000000000, 1.00000000000000 ) );
#173 = DIRECTION( '', ( 1.00000000000000, 0.000000000000000, -0.000000000000000 ) );
#174 = SURFACE_STYLE_FILL_AREA( #244 );
#175 = ORIENTED_EDGE( '', *, *, #238, .T. );
#176 = ORIENTED_EDGE( '', *, *, #245, .F. );
#177 = CARTESIAN_POINT( '', ( 500.000000000000, 20.0000000000000, 0.000000000000000 ) );
#178 = DIRECTION( '', ( 0.000000000000000, -0.000000000000000, 1.00000000000000 ) );
#179 = DIRECTION( '', ( -1.00000000000000, 0.000000000000000, 0.000000000000000 ) );
#180 = SURFACE_STYLE_FILL_AREA( #246 );
#181 = ORIENTED_EDGE( '', *, *, #239, .T. );
#182 = ORIENTED_EDGE( '', *, *, #247, .F. );
#183 = CARTESIAN_POINT( '', ( 10.0000000000000, 20.0000000000000, 0.000000000000000 ) );
#184 = DIRECTION( '', ( 0.000000000000000, -0.000000000000000, 1.00000000000000 ) );
#185 = DIRECTION( '', ( -1.00000000000000, 0.000000000000000, 0.000000000000000 ) );
#186 = SURFACE_STYLE_FILL_AREA( #248 );
#187 = ORIENTED_EDGE( '', *, *, #243, .T. );
#188 = ORIENTED_EDGE( '', *, *, #249, .F. );
#189 = ORIENTED_EDGE( '', *, *, #234, .F. );
#190 = ORIENTED_EDGE( '', *, *, #250, .T. );
#191 = CARTESIAN_POINT( '', ( 0.000000000000000, 30.0000000000000, 6.00000000000000 ) );
#192 = DIRECTION( '', ( 1.00000000000000, 0.000000000000000, -0.000000000000000 ) );
#193 = DIRECTION( '', ( -0.000000000000000, 0.000000000000000, -1.00000000000000 ) );
#194 = SURFACE_STYLE_FILL_AREA( #251 );
#195 = ORIENTED_EDGE( '', *, *, #245, .T. );
#196 = ORIENTED_EDGE( '', *, *, #231, .F. );
#197 = CARTESIAN_POINT( '', ( 500.000000000000, 20.0000000000000, 6.00000000000000 ) );
#198 = DIRECTION( '', ( 0.000000000000000, -0.000000000000000, 1.00000000000000 ) );
#199 = DIRECTION( '', ( 1.00000000000000, 0.000000000000000, -0.000000000000000 ) );
#200 = SURFACE_STYLE_FILL_AREA( #252 );
#201 = ORIENTED_EDGE( '', *, *, #242, .T. );
#202 = ORIENTED_EDGE( '', *, *, #253, .F. );
#203 = ORIENTED_EDGE( '', *, *, #235, .F. );
#204 = ORIENTED_EDGE( '', *, *, #249, .T. );
#205 = CARTESIAN_POINT( '', ( 0.000000000000000, 0.000000000000000, 6.00000000000000 ) );
#206 = DIRECTION( '', ( 0.000000000000000, 1.00000000000000, 0.000000000000000 ) );
#207 = DIRECTION( '', ( 0.000000000000000, -0.000000000000000, 1.00000000000000 ) );
#208 = SURFACE_STYLE_FILL_AREA( #254 );
#209 = ORIENTED_EDGE( '', *, *, #247, .T. );
#210 = ORIENTED_EDGE( '', *, *, #232, .F. );
#211 = CARTESIAN_POINT( '', ( 10.0000000000000, 20.0000000000000, 6.00000000000000 ) );
#212 = DIRECTION( '', ( 0.000000000000000, -0.000000000000000, 1.00000000000000 ) );
#213 = DIRECTION( '', ( 1.00000000000000, 0.000000000000000, -0.000000000000000 ) );
#214 = SURFACE_STYLE_FILL_AREA( #255 );
#215 = ORIENTED_EDGE( '', *, *, #241, .T. );
#216 = ORIENTED_EDGE( '', *, *, #256, .F. );
#217 = ORIENTED_EDGE( '', *, *, #236, .F. );
#218 = ORIENTED_EDGE( '', *, *, #253, .T. );
#219 = CARTESIAN_POINT( '', ( 510.000000000000, 0.000000000000000, 6.00000000000000 ) );
#220 = DIRECTION( '', ( -1.00000000000000, 0.000000000000000, 0.000000000000000 ) );
#221 = DIRECTION( '', ( 0.000000000000000, 0.000000000000000, 1.00000000000000 ) );
#222 = SURFACE_STYLE_FILL_AREA( #257 );
#223 = ORIENTED_EDGE( '', *, *, #240, .T. );
#224 = ORIENTED_EDGE( '', *, *, #250, .F. );
#225 = ORIENTED_EDGE( '', *, *, #233, .F. );
#226 = ORIENTED_EDGE( '', *, *, #256, .T. );
#227 = CARTESIAN_POINT( '', ( 510.000000000000, 30.0000000000000, 6.00000000000000 ) );
#228 = DIRECTION( '', ( 0.000000000000000, -1.00000000000000, 0.000000000000000 ) );
#229 = DIRECTION( '', ( 0.000000000000000, 0.000000000000000, -1.00000000000000 ) );
#230 = FILL_AREA_STYLE( '', ( #258 ) );
#231 = EDGE_CURVE( '', #259, #259, #260, .T. );
#232 = EDGE_CURVE( '', #261, #261, #262, .T. );
#233 = EDGE_CURVE( '', #263, #264, #265, .T. );
#234 = EDGE_CURVE( '', #264, #266, #267, .T. );
#235 = EDGE_CURVE( '', #266, #268, #269, .T. );
#236 = EDGE_CURVE( '', #268, #263, #270, .T. );
#237 = FILL_AREA_STYLE( '', ( #271 ) );
#238 = EDGE_CURVE( '', #272, #272, #273, .T. );
#239 = EDGE_CURVE( '', #274, #274, #275, .T. );
#240 = EDGE_CURVE( '', #276, #277, #278, .T. );
#241 = EDGE_CURVE( '', #279, #276, #280, .T. );
#242 = EDGE_CURVE( '', #281, #279, #282, .T. );
#243 = EDGE_CURVE( '', #277, #281, #283, .T. );
#244 = FILL_AREA_STYLE( '', ( #284 ) );
#245 = EDGE_CURVE( '', #285, #285, #286, .T. );
#246 = FILL_AREA_STYLE( '', ( #287 ) );
#247 = EDGE_CURVE( '', #288, #288, #289, .T. );
#248 = FILL_AREA_STYLE( '', ( #290 ) );
#249 = EDGE_CURVE( '', #266, #281, #291, .T. );
#250 = EDGE_CURVE( '', #264, #277, #292, .T. );
#251 = FILL_AREA_STYLE( '', ( #293 ) );
#252 = FILL_AREA_STYLE( '', ( #294 ) );
#253 = EDGE_CURVE( '', #268, #279, #295, .T. );
#254 = FILL_AREA_STYLE( '', ( #296 ) );
#255 = FILL_AREA_STYLE( '', ( #297 ) );
#256 = EDGE_CURVE( '', #263, #276, #298, .T. );
#257 = FILL_AREA_STYLE( '', ( #299 ) );
#258 = FILL_AREA_STYLE_COLOUR( '', #300 );
#259 = VERTEX_POINT( '', #301 );
#260 = CIRCLE( '', #302, 5.75000000000000 );
#261 = VERTEX_POINT( '', #303 );
#262 = CIRCLE( '', #304, 5.75000000000000 );
#263 = VERTEX_POINT( '', #305 );
#264 = VERTEX_POINT( '', #306 );
#265 = LINE( '', #307, #308 );
#266 = VERTEX_POINT( '', #309 );
#267 = LINE( '', #310, #311 );
#268 = VERTEX_POINT( '', #312 );
#269 = LINE( '', #313, #314 );
#270 = LINE( '', #315, #316 );
#271 = FILL_AREA_STYLE_COLOUR( '', #317 );
#272 = VERTEX_POINT( '', #318 );
#273 = CIRCLE( '', #319, 2.75000000000000 );
#274 = VERTEX_POINT( '', #320 );
#275 = CIRCLE( '', #321, 2.75000000000000 );
#276 = VERTEX_POINT( '', #322 );
#277 = VERTEX_POINT( '', #323 );
#278 = LINE( '', #324, #325 );
#279 = VERTEX_POINT( '', #326 );
#280 = LINE( '', #327, #328 );
#281 = VERTEX_POINT( '', #329 );
#282 = LINE( '', #330, #331 );
#283 = LINE( '', #332, #333 );
#284 = FILL_AREA_STYLE_COLOUR( '', #334 );
#285 = VERTEX_POINT( '', #335 );
#286 = CIRCLE( '', #336, 2.75000000000000 );
#287 = FILL_AREA_STYLE_COLOUR( '', #337 );
#288 = VERTEX_POINT( '', #338 );
#289 = CIRCLE( '', #339, 2.75000000000000 );
#290 = FILL_AREA_STYLE_COLOUR( '', #340 );
#291 = LINE( '', #341, #342 );
#292 = LINE( '', #343, #344 );
#293 = FILL_AREA_STYLE_COLOUR( '', #345 );
#294 = FILL_AREA_STYLE_COLOUR( '', #346 );
#295 = LINE( '', #347, #348 );
#296 = FILL_AREA_STYLE_COLOUR( '', #349 );
#297 = FILL_AREA_STYLE_COLOUR( '', #350 );
#298 = LINE( '', #351, #352 );
#299 = FILL_AREA_STYLE_COLOUR( '', #353 );
#300 = COLOUR_RGB( '', 0.689999997600000, 0.689999997600000, 0.689999997600000 );
#301 = CARTESIAN_POINT( '', ( 494.250000000000, 20.0000000000000, 6.00000000000000 ) );
#302 = AXIS2_PLACEMENT_3D( '', #354, #355, #356 );
#303 = CARTESIAN_POINT( '', ( 4.25000000000000, 20.0000000000000, 6.00000000000000 ) );
#304 = AXIS2_PLACEMENT_3D( '', #357, #358, #359 );
#305 = CARTESIAN_POINT( '', ( 510.000000000000, 30.0000000000000, 6.00000000000000 ) );
#306 = CARTESIAN_POINT( '', ( 0.000000000000000, 30.0000000000000, 6.00000000000000 ) );
#307 = CARTESIAN_POINT( '', ( 510.000000000000, 30.0000000000000, 6.00000000000000 ) );
#308 = VECTOR( '', #360, 1000.00000000000 );
#309 = CARTESIAN_POINT( '', ( 0.000000000000000, 0.000000000000000, 6.00000000000000 ) );
#310 = CARTESIAN_POINT( '', ( 0.000000000000000, 30.0000000000000, 6.00000000000000 ) );
#311 = VECTOR( '', #361, 1000.00000000000 );
#312 = CARTESIAN_POINT( '', ( 510.000000000000, 0.000000000000000, 6.00000000000000 ) );
#313 = CARTESIAN_POINT( '', ( 0.000000000000000, 0.000000000000000, 6.00000000000000 ) );
#314 = VECTOR( '', #362, 1000.00000000000 );
#315 = CARTESIAN_POINT( '', ( 510.000000000000, 0.000000000000000, 6.00000000000000 ) );
#316 = VECTOR( '', #363, 1000.00000000000 );
#317 = COLOUR_RGB( '', 0.689999997600000, 0.689999997600000, 0.689999997600000 );
#318 = CARTESIAN_POINT( '', ( 497.250000000000, 20.0000000000000, 0.000000000000000 ) );
#319 = AXIS2_PLACEMENT_3D( '', #364, #365, #366 );
#320 = CARTESIAN_POINT( '', ( 7.25000000000000, 20.0000000000000, 0.000000000000000 ) );
#321 = AXIS2_PLACEMENT_3D( '', #367, #368, #369 );
#322 = CARTESIAN_POINT( '', ( 510.000000000000, 30.0000000000000, 0.000000000000000 ) );
#323 = CARTESIAN_POINT( '', ( 0.000000000000000, 30.0000000000000, 0.000000000000000 ) );
#324 = CARTESIAN_POINT( '', ( 510.000000000000, 30.0000000000000, 0.000000000000000 ) );
#325 = VECTOR( '', #370, 1000.00000000000 );
#326 = CARTESIAN_POINT( '', ( 510.000000000000, 0.000000000000000, 0.000000000000000 ) );
#327 = CARTESIAN_POINT( '', ( 510.000000000000, 0.000000000000000, 0.000000000000000 ) );
#328 = VECTOR( '', #371, 1000.00000000000 );
#329 = CARTESIAN_POINT( '', ( 0.000000000000000, 0.000000000000000, 0.000000000000000 ) );
#330 = CARTESIAN_POINT( '', ( 0.000000000000000, 0.000000000000000, 0.000000000000000 ) );
#331 = VECTOR( '', #372, 1000.00000000000 );
#332 = CARTESIAN_POINT( '', ( 0.000000000000000, 30.0000000000000, 0.000000000000000 ) );
#333 = VECTOR( '', #373, 1000.00000000000 );
#334 = COLOUR_RGB( '', 0.689999997600000, 0.689999997600000, 0.689999997600000 );
#335 = CARTESIAN_POINT( '', ( 497.250000000000, 20.0000000000000, 3.00000000000000 ) );
#336 = AXIS2_PLACEMENT_3D( '', #374, #375, #376 );
#337 = COLOUR_RGB( '', 0.689999997600000, 0.689999997600000, 0.689999997600000 );
#338 = CARTESIAN_POINT( '', ( 7.25000000000000, 20.0000000000000, 3.00000000000000 ) );
#339 = AXIS2_PLACEMENT_3D( '', #377, #378, #379 );
#340 = COLOUR_RGB( '', 0.689999997600000, 0.689999997600000, 0.689999997600000 );
#341 = CARTESIAN_POINT( '', ( 0.000000000000000, 0.000000000000000, 6.00000000000000 ) );
#342 = VECTOR( '', #380, 1000.00000000000 );
#343 = CARTESIAN_POINT( '', ( 0.000000000000000, 30.0000000000000, 6.00000000000000 ) );
#344 = VECTOR( '', #381, 1000.00000000000 );
#345 = COLOUR_RGB( '', 0.689999997600000, 0.689999997600000, 0.689999997600000 );
#346 = COLOUR_RGB( '', 0.689999997600000, 0.689999997600000, 0.689999997600000 );
#347 = CARTESIAN_POINT( '', ( 510.000000000000, 0.000000000000000, 6.00000000000000 ) );
#348 = VECTOR( '', #382, 1000.00000000000 );
#349 = COLOUR_RGB( '', 0.689999997600000, 0.689999997600000, 0.689999997600000 );
#350 = COLOUR_RGB( '', 0.689999997600000, 0.689999997600000, 0.689999997600000 );
#351 = CARTESIAN_POINT( '', ( 510.000000000000, 30.0000000000000, 6.00000000000000 ) );
#352 = VECTOR( '', #383, 1000.00000000000 );
#353 = COLOUR_RGB( '', 0.689999997600000, 0.689999997600000, 0.689999997600000 );
#354 = CARTESIAN_POINT( '', ( 500.000000000000, 20.0000000000000, 6.00000000000000 ) );
#355 = DIRECTION( '', ( -0.000000000000000, 0.000000000000000, -1.00000000000000 ) );
#356 = DIRECTION( '', ( -1.00000000000000, 0.000000000000000, 0.000000000000000 ) );
#357 = CARTESIAN_POINT( '', ( 10.0000000000000, 20.0000000000000, 6.00000000000000 ) );
#358 = DIRECTION( '', ( -0.000000000000000, 0.000000000000000, -1.00000000000000 ) );
#359 = DIRECTION( '', ( -1.00000000000000, 0.000000000000000, 0.000000000000000 ) );
#360 = DIRECTION( '', ( -1.00000000000000, 0.000000000000000, 0.000000000000000 ) );
#361 = DIRECTION( '', ( 0.000000000000000, -1.00000000000000, 0.000000000000000 ) );
#362 = DIRECTION( '', ( 1.00000000000000, 0.000000000000000, 0.000000000000000 ) );
#363 = DIRECTION( '', ( 0.000000000000000, 1.00000000000000, 0.000000000000000 ) );
#364 = CARTESIAN_POINT( '', ( 500.000000000000, 20.0000000000000, 0.000000000000000 ) );
#365 = DIRECTION( '', ( -0.000000000000000, 0.000000000000000, -1.00000000000000 ) );
#366 = DIRECTION( '', ( -1.00000000000000, 0.000000000000000, 0.000000000000000 ) );
#367 = CARTESIAN_POINT( '', ( 10.0000000000000, 20.0000000000000, 0.000000000000000 ) );
#368 = DIRECTION( '', ( -0.000000000000000, 0.000000000000000, -1.00000000000000 ) );
#369 = DIRECTION( '', ( -1.00000000000000, 0.000000000000000, 0.000000000000000 ) );
#370 = DIRECTION( '', ( -1.00000000000000, 0.000000000000000, 0.000000000000000 ) );
#371 = DIRECTION( '', ( 0.000000000000000, 1.00000000000000, 0.000000000000000 ) );
#372 = DIRECTION( '', ( 1.00000000000000, 0.000000000000000, 0.000000000000000 ) );
#373 = DIRECTION( '', ( 0.000000000000000, -1.00000000000000, 0.000000000000000 ) );
#374 = CARTESIAN_POINT( '', ( 500.000000000000, 20.0000000000000, 3.00000000000000 ) );
#375 = DIRECTION( '', ( -0.000000000000000, 0.000000000000000, -1.00000000000000 ) );
#376 = DIRECTION( '', ( -1.00000000000000, 0.000000000000000, 0.000000000000000 ) );
#377 = CARTESIAN_POINT( '', ( 10.0000000000000, 20.0000000000000, 3.00000000000000 ) );
#378 = DIRECTION( '', ( -0.000000000000000, 0.000000000000000, -1.00000000000000 ) );
#379 = DIRECTION( '', ( -1.00000000000000, 0.000000000000000, 0.000000000000000 ) );
#380 = DIRECTION( '', ( -0.000000000000000, -0.000000000000000, -1.00000000000000 ) );
#381 = DIRECTION( '', ( -0.000000000000000, -0.000000000000000, -1.00000000000000 ) );
#382 = DIRECTION( '', ( -0.000000000000000, -0.000000000000000, -1.00000000000000 ) );
#383 = DIRECTION( '', ( -0.000000000000000, -0.000000000000000, -1.00000000000000 ) );
ENDSEC;
END-ISO-10303-21;
