ISO-10303-21;
HEADER;
FILE_DESCRIPTION( ( 'STEP AP214' ), '1' );
FILE_NAME( '//goodhand-server/Shared Folders/GoodHand Data/Kipp CAD/K0298/K0298.210.stp', '2020-11-27T12:59:17', ( '' ), ( '' ), ' ', 'PARTsolutions', ' ' );
FILE_SCHEMA( ( 'AUTOMOTIVE_DESIGN { 1 0 10303 214 1 1 1 1 }' ) );
ENDSEC;
DATA;
#1 = MECHANICAL_DESIGN_GEOMETRIC_PRESENTATION_REPRESENTATION( ' ', ( #10, #11, #12, #13, #14, #15, #16, #17, #18, #19, #20, #21, #22, #23 ), #6 );
#2 = PRODUCT_DEFINITION_CONTEXT( '', #24, 'design' );
#3 = APPLICATION_PROTOCOL_DEFINITION( 'international standard', 'automotive_design', 2001, #24 );
#4 = PRODUCT_CATEGORY_RELATIONSHIP( 'NONE', 'NONE', #25, #26 );
#5 = SHAPE_DEFINITION_REPRESENTATION( #27, #28 );
#6 =  ( GEOMETRIC_REPRESENTATION_CONTEXT( 3 )GLOBAL_UNCERTAINTY_ASSIGNED_CONTEXT( ( #31 ) )GLOBAL_UNIT_ASSIGNED_CONTEXT( ( #33, #34, #35 ) )REPRESENTATION_CONTEXT( 'NONE', 'WORKSPACE' ) );
#10 = STYLED_ITEM( '', ( #37 ), #38 );
#11 = STYLED_ITEM( '', ( #39 ), #40 );
#12 = STYLED_ITEM( '', ( #41 ), #42 );
#13 = STYLED_ITEM( '', ( #43 ), #44 );
#14 = STYLED_ITEM( '', ( #45 ), #46 );
#15 = STYLED_ITEM( '', ( #47 ), #48 );
#16 = STYLED_ITEM( '', ( #49 ), #50 );
#17 = STYLED_ITEM( '', ( #51 ), #52 );
#18 = STYLED_ITEM( '', ( #53 ), #54 );
#19 = STYLED_ITEM( '', ( #55 ), #56 );
#20 = STYLED_ITEM( '', ( #57 ), #58 );
#21 = STYLED_ITEM( '', ( #59 ), #60 );
#22 = STYLED_ITEM( '', ( #61 ), #62 );
#23 = STYLED_ITEM( '', ( #63 ), #64 );
#24 = APPLICATION_CONTEXT( 'core data for automotive mechanical design processes' );
#25 = PRODUCT_CATEGORY( 'part', 'NONE' );
#26 = PRODUCT_RELATED_PRODUCT_CATEGORY( 'detail', ' ', ( #65 ) );
#27 = PRODUCT_DEFINITION_SHAPE( 'NONE', 'NONE', #66 );
#28 = ADVANCED_BREP_SHAPE_REPRESENTATION( '_K0298.210', ( #67, #68 ), #6 );
#31 = UNCERTAINTY_MEASURE_WITH_UNIT( LENGTH_MEASURE( 0.00100000000000000 ), #33, '', '' );
#33 =  ( CONVERSION_BASED_UNIT( 'MILLIMETRE', #71 )LENGTH_UNIT(  )NAMED_UNIT( #74 ) );
#34 =  ( NAMED_UNIT( #76 )PLANE_ANGLE_UNIT(  )SI_UNIT( $, .RADIAN. ) );
#35 =  ( NAMED_UNIT( #76 )SI_UNIT( $, .STERADIAN. )SOLID_ANGLE_UNIT(  ) );
#37 = PRESENTATION_STYLE_ASSIGNMENT( ( #82 ) );
#38 = ADVANCED_FACE( '', ( #83, #84 ), #85, .T. );
#39 = PRESENTATION_STYLE_ASSIGNMENT( ( #86 ) );
#40 = ADVANCED_FACE( '', ( #87, #88 ), #89, .F. );
#41 = PRESENTATION_STYLE_ASSIGNMENT( ( #90 ) );
#42 = ADVANCED_FACE( '', ( #91 ), #92, .F. );
#43 = PRESENTATION_STYLE_ASSIGNMENT( ( #93 ) );
#44 = ADVANCED_FACE( '', ( #94, #95 ), #96, .F. );
#45 = PRESENTATION_STYLE_ASSIGNMENT( ( #97 ) );
#46 = ADVANCED_FACE( '', ( #98 ), #99, .F. );
#47 = PRESENTATION_STYLE_ASSIGNMENT( ( #100 ) );
#48 = ADVANCED_FACE( '', ( #101 ), #102, .F. );
#49 = PRESENTATION_STYLE_ASSIGNMENT( ( #103 ) );
#50 = ADVANCED_FACE( '', ( #104, #105 ), #106, .T. );
#51 = PRESENTATION_STYLE_ASSIGNMENT( ( #107 ) );
#52 = ADVANCED_FACE( '', ( #108, #109 ), #110, .T. );
#53 = PRESENTATION_STYLE_ASSIGNMENT( ( #111 ) );
#54 = ADVANCED_FACE( '', ( #112, #113 ), #114, .T. );
#55 = PRESENTATION_STYLE_ASSIGNMENT( ( #115 ) );
#56 = ADVANCED_FACE( '', ( #116, #117 ), #118, .T. );
#57 = PRESENTATION_STYLE_ASSIGNMENT( ( #119 ) );
#58 = ADVANCED_FACE( '', ( #120 ), #121, .F. );
#59 = PRESENTATION_STYLE_ASSIGNMENT( ( #122 ) );
#60 = ADVANCED_FACE( '', ( #123 ), #124, .F. );
#61 = PRESENTATION_STYLE_ASSIGNMENT( ( #125 ) );
#62 = ADVANCED_FACE( '', ( #126 ), #127, .F. );
#63 = PRESENTATION_STYLE_ASSIGNMENT( ( #128 ) );
#64 = ADVANCED_FACE( '', ( #129 ), #130, .F. );
#65 = PRODUCT( '_K0298.210', '_K0298.210', 'PART-_K0298.210-DESC', ( #131 ) );
#66 = PRODUCT_DEFINITION( 'NONE', 'NONE', #132, #2 );
#67 = MANIFOLD_SOLID_BREP( '_K0298.210', #133 );
#68 = AXIS2_PLACEMENT_3D( '', #134, #135, #136 );
#71 = LENGTH_MEASURE_WITH_UNIT( LENGTH_MEASURE( 1.00000000000000 ), #137 );
#74 = DIMENSIONAL_EXPONENTS( 1.00000000000000, 0.000000000000000, 0.000000000000000, 0.000000000000000, 0.000000000000000, 0.000000000000000, 0.000000000000000 );
#76 = DIMENSIONAL_EXPONENTS( 0.000000000000000, 0.000000000000000, 0.000000000000000, 0.000000000000000, 0.000000000000000, 0.000000000000000, 0.000000000000000 );
#82 = SURFACE_STYLE_USAGE( .BOTH., #138 );
#83 = FACE_OUTER_BOUND( '', #139, .T. );
#84 = FACE_OUTER_BOUND( '', #140, .T. );
#85 = CYLINDRICAL_SURFACE( '', #141, 4.70000000000000 );
#86 = SURFACE_STYLE_USAGE( .BOTH., #142 );
#87 = FACE_OUTER_BOUND( '', #143, .T. );
#88 = FACE_OUTER_BOUND( '', #144, .T. );
#89 = TOROIDAL_SURFACE( '', #145, 5.70000000000000, 1.00000000000000 );
#90 = SURFACE_STYLE_USAGE( .BOTH., #146 );
#91 = FACE_OUTER_BOUND( '', #147, .T. );
#92 = PLANE( '', #148 );
#93 = SURFACE_STYLE_USAGE( .BOTH., #149 );
#94 = FACE_BOUND( '', #150, .T. );
#95 = FACE_OUTER_BOUND( '', #151, .T. );
#96 = PLANE( '', #152 );
#97 = SURFACE_STYLE_USAGE( .BOTH., #153 );
#98 = FACE_OUTER_BOUND( '', #154, .T. );
#99 = PLANE( '', #155 );
#100 = SURFACE_STYLE_USAGE( .BOTH., #156 );
#101 = FACE_OUTER_BOUND( '', #157, .T. );
#102 = PLANE( '', #158 );
#103 = SURFACE_STYLE_USAGE( .BOTH., #159 );
#104 = FACE_BOUND( '', #160, .T. );
#105 = FACE_OUTER_BOUND( '', #161, .T. );
#106 = CONICAL_SURFACE( '', #162, 6.00000000000000, 0.785398163400000 );
#107 = SURFACE_STYLE_USAGE( .BOTH., #163 );
#108 = FACE_BOUND( '', #164, .T. );
#109 = FACE_OUTER_BOUND( '', #165, .T. );
#110 = SPHERICAL_SURFACE( '', #166, 60.0000000000000 );
#111 = SURFACE_STYLE_USAGE( .BOTH., #167 );
#112 = FACE_OUTER_BOUND( '', #168, .T. );
#113 = FACE_BOUND( '', #169, .T. );
#114 = CONICAL_SURFACE( '', #170, 4.83397459620000, 0.523598775600000 );
#115 = SURFACE_STYLE_USAGE( .BOTH., #171 );
#116 = FACE_OUTER_BOUND( '', #172, .T. );
#117 = FACE_OUTER_BOUND( '', #173, .T. );
#118 = CYLINDRICAL_SURFACE( '', #174, 6.00000000000000 );
#119 = SURFACE_STYLE_USAGE( .BOTH., #175 );
#120 = FACE_OUTER_BOUND( '', #176, .T. );
#121 = PLANE( '', #177 );
#122 = SURFACE_STYLE_USAGE( .BOTH., #178 );
#123 = FACE_OUTER_BOUND( '', #179, .T. );
#124 = PLANE( '', #180 );
#125 = SURFACE_STYLE_USAGE( .BOTH., #181 );
#126 = FACE_OUTER_BOUND( '', #182, .T. );
#127 = PLANE( '', #183 );
#128 = SURFACE_STYLE_USAGE( .BOTH., #184 );
#129 = FACE_OUTER_BOUND( '', #185, .T. );
#130 = PLANE( '', #186 );
#131 = PRODUCT_CONTEXT( '', #24, 'mechanical' );
#132 = PRODUCT_DEFINITION_FORMATION_WITH_SPECIFIED_SOURCE( ' ', 'NONE', #65, .NOT_KNOWN. );
#133 = CLOSED_SHELL( '', ( #44, #38, #40, #54, #56, #50, #62, #46, #60, #58, #42, #64, #48, #52 ) );
#134 = CARTESIAN_POINT( '', ( 0.000000000000000, 0.000000000000000, 0.000000000000000 ) );
#135 = DIRECTION( '', ( 0.000000000000000, 0.000000000000000, 1.00000000000000 ) );
#136 = DIRECTION( '', ( 1.00000000000000, 0.000000000000000, 0.000000000000000 ) );
#137 =  ( LENGTH_UNIT(  )NAMED_UNIT( #74 )SI_UNIT( .MILLI., .METRE. ) );
#138 = SURFACE_SIDE_STYLE( '', ( #188 ) );
#139 = EDGE_LOOP( '', ( #189 ) );
#140 = EDGE_LOOP( '', ( #190 ) );
#141 = AXIS2_PLACEMENT_3D( '', #191, #192, #193 );
#142 = SURFACE_SIDE_STYLE( '', ( #194 ) );
#143 = EDGE_LOOP( '', ( #195 ) );
#144 = EDGE_LOOP( '', ( #196 ) );
#145 = AXIS2_PLACEMENT_3D( '', #197, #198, #199 );
#146 = SURFACE_SIDE_STYLE( '', ( #200 ) );
#147 = EDGE_LOOP( '', ( #201, #202, #203, #204 ) );
#148 = AXIS2_PLACEMENT_3D( '', #205, #206, #207 );
#149 = SURFACE_SIDE_STYLE( '', ( #208 ) );
#150 = EDGE_LOOP( '', ( #209 ) );
#151 = EDGE_LOOP( '', ( #210, #211, #212, #213, #214, #215 ) );
#152 = AXIS2_PLACEMENT_3D( '', #216, #217, #218 );
#153 = SURFACE_SIDE_STYLE( '', ( #219 ) );
#154 = EDGE_LOOP( '', ( #220, #221, #222, #223 ) );
#155 = AXIS2_PLACEMENT_3D( '', #224, #225, #226 );
#156 = SURFACE_SIDE_STYLE( '', ( #227 ) );
#157 = EDGE_LOOP( '', ( #228, #229, #230, #231 ) );
#158 = AXIS2_PLACEMENT_3D( '', #232, #233, #234 );
#159 = SURFACE_SIDE_STYLE( '', ( #235 ) );
#160 = EDGE_LOOP( '', ( #236 ) );
#161 = EDGE_LOOP( '', ( #237 ) );
#162 = AXIS2_PLACEMENT_3D( '', #238, #239, #240 );
#163 = SURFACE_SIDE_STYLE( '', ( #241 ) );
#164 = VERTEX_LOOP( '', #242 );
#165 = EDGE_LOOP( '', ( #243, #244, #245, #246, #247, #248 ) );
#166 = AXIS2_PLACEMENT_3D( '', #249, #250, #251 );
#167 = SURFACE_SIDE_STYLE( '', ( #252 ) );
#168 = EDGE_LOOP( '', ( #253 ) );
#169 = EDGE_LOOP( '', ( #254 ) );
#170 = AXIS2_PLACEMENT_3D( '', #255, #256, #257 );
#171 = SURFACE_SIDE_STYLE( '', ( #258 ) );
#172 = EDGE_LOOP( '', ( #259 ) );
#173 = EDGE_LOOP( '', ( #260 ) );
#174 = AXIS2_PLACEMENT_3D( '', #261, #262, #263 );
#175 = SURFACE_SIDE_STYLE( '', ( #264 ) );
#176 = EDGE_LOOP( '', ( #265, #266, #267, #268 ) );
#177 = AXIS2_PLACEMENT_3D( '', #269, #270, #271 );
#178 = SURFACE_SIDE_STYLE( '', ( #272 ) );
#179 = EDGE_LOOP( '', ( #273, #274, #275, #276 ) );
#180 = AXIS2_PLACEMENT_3D( '', #277, #278, #279 );
#181 = SURFACE_SIDE_STYLE( '', ( #280 ) );
#182 = EDGE_LOOP( '', ( #281 ) );
#183 = AXIS2_PLACEMENT_3D( '', #282, #283, #284 );
#184 = SURFACE_SIDE_STYLE( '', ( #285 ) );
#185 = EDGE_LOOP( '', ( #286, #287, #288, #289 ) );
#186 = AXIS2_PLACEMENT_3D( '', #290, #291, #292 );
#188 = SURFACE_STYLE_FILL_AREA( #293 );
#189 = ORIENTED_EDGE( '', *, *, #294, .F. );
#190 = ORIENTED_EDGE( '', *, *, #295, .T. );
#191 = CARTESIAN_POINT( '', ( 0.000000000000000, -14.0000000000000, 0.000000000000000 ) );
#192 = DIRECTION( '', ( -0.000000000000000, 1.00000000000000, 0.000000000000000 ) );
#193 = DIRECTION( '', ( 0.000000000000000, 0.000000000000000, -1.00000000000000 ) );
#194 = SURFACE_STYLE_FILL_AREA( #296 );
#195 = ORIENTED_EDGE( '', *, *, #297, .F. );
#196 = ORIENTED_EDGE( '', *, *, #294, .T. );
#197 = CARTESIAN_POINT( '', ( 0.000000000000000, -1.78038475772934, 0.000000000000000 ) );
#198 = DIRECTION( '', ( 0.000000000000000, -1.00000000000000, -0.000000000000000 ) );
#199 = DIRECTION( '', ( 0.000000000000000, 0.000000000000000, -1.00000000000000 ) );
#200 = SURFACE_STYLE_FILL_AREA( #298 );
#201 = ORIENTED_EDGE( '', *, *, #299, .T. );
#202 = ORIENTED_EDGE( '', *, *, #300, .T. );
#203 = ORIENTED_EDGE( '', *, *, #301, .T. );
#204 = ORIENTED_EDGE( '', *, *, #302, .F. );
#205 = CARTESIAN_POINT( '', ( 11.0000000000000, 10.0000000000000, -6.35085296108588 ) );
#206 = DIRECTION( '', ( -0.500000000000000, 0.000000000000000, 0.866025403784439 ) );
#207 = DIRECTION( '', ( 0.866025403784439, 0.000000000000000, 0.500000000000000 ) );
#208 = SURFACE_STYLE_FILL_AREA( #303 );
#209 = ORIENTED_EDGE( '', *, *, #295, .F. );
#210 = ORIENTED_EDGE( '', *, *, #304, .F. );
#211 = ORIENTED_EDGE( '', *, *, #305, .F. );
#212 = ORIENTED_EDGE( '', *, *, #306, .F. );
#213 = ORIENTED_EDGE( '', *, *, #301, .F. );
#214 = ORIENTED_EDGE( '', *, *, #307, .T. );
#215 = ORIENTED_EDGE( '', *, *, #308, .F. );
#216 = CARTESIAN_POINT( '', ( 16.0000000000000, 0.000000000000000, 0.000000000000000 ) );
#217 = DIRECTION( '', ( 0.000000000000000, 1.00000000000000, 0.000000000000000 ) );
#218 = DIRECTION( '', ( 0.000000000000000, -0.000000000000000, 1.00000000000000 ) );
#219 = SURFACE_STYLE_FILL_AREA( #309 );
#220 = ORIENTED_EDGE( '', *, *, #310, .T. );
#221 = ORIENTED_EDGE( '', *, *, #311, .T. );
#222 = ORIENTED_EDGE( '', *, *, #304, .T. );
#223 = ORIENTED_EDGE( '', *, *, #312, .F. );
#224 = CARTESIAN_POINT( '', ( -11.0000000000000, 10.0000000000000, 6.35085296108588 ) );
#225 = DIRECTION( '', ( 0.500000000000000, 0.000000000000000, -0.866025403784439 ) );
#226 = DIRECTION( '', ( -0.866025403784439, 0.000000000000000, -0.500000000000000 ) );
#227 = SURFACE_STYLE_FILL_AREA( #313 );
#228 = ORIENTED_EDGE( '', *, *, #314, .T. );
#229 = ORIENTED_EDGE( '', *, *, #315, .T. );
#230 = ORIENTED_EDGE( '', *, *, #305, .T. );
#231 = ORIENTED_EDGE( '', *, *, #311, .F. );
#232 = CARTESIAN_POINT( '', ( -11.0000000000000, 10.0000000000000, -6.35085296108588 ) );
#233 = DIRECTION( '', ( 1.00000000000000, 0.000000000000000, 0.000000000000000 ) );
#234 = DIRECTION( '', ( 0.000000000000000, 0.000000000000000, -1.00000000000000 ) );
#235 = SURFACE_STYLE_FILL_AREA( #316 );
#236 = ORIENTED_EDGE( '', *, *, #317, .F. );
#237 = ORIENTED_EDGE( '', *, *, #318, .T. );
#238 = CARTESIAN_POINT( '', ( 0.000000000000000, -12.9265000000000, 0.000000000000000 ) );
#239 = DIRECTION( '', ( -0.000000000000000, 1.00000000000000, 0.000000000000000 ) );
#240 = DIRECTION( '', ( 0.000000000000000, -0.000000000000000, 1.00000000000000 ) );
#241 = SURFACE_STYLE_FILL_AREA( #319 );
#242 = VERTEX_POINT( '', #320 );
#243 = ORIENTED_EDGE( '', *, *, #314, .F. );
#244 = ORIENTED_EDGE( '', *, *, #310, .F. );
#245 = ORIENTED_EDGE( '', *, *, #321, .F. );
#246 = ORIENTED_EDGE( '', *, *, #322, .F. );
#247 = ORIENTED_EDGE( '', *, *, #299, .F. );
#248 = ORIENTED_EDGE( '', *, *, #323, .F. );
#249 = CARTESIAN_POINT( '', ( 7.19910242530375E-14, -49.9999999999995, 0.000000000000000 ) );
#250 = DIRECTION( '', ( 0.000000000000000, -1.00000000000000, 0.000000000000000 ) );
#251 = DIRECTION( '', ( 1.00000000000000, 0.000000000000000, 0.000000000000000 ) );
#252 = SURFACE_STYLE_FILL_AREA( #324 );
#253 = ORIENTED_EDGE( '', *, *, #325, .F. );
#254 = ORIENTED_EDGE( '', *, *, #297, .T. );
#255 = CARTESIAN_POINT( '', ( 0.000000000000000, -2.28038475772934, 0.000000000000000 ) );
#256 = DIRECTION( '', ( -0.000000000000000, -1.00000000000000, -0.000000000000000 ) );
#257 = DIRECTION( '', ( 0.000000000000000, 0.000000000000000, -1.00000000000000 ) );
#258 = SURFACE_STYLE_FILL_AREA( #326 );
#259 = ORIENTED_EDGE( '', *, *, #318, .F. );
#260 = ORIENTED_EDGE( '', *, *, #325, .T. );
#261 = CARTESIAN_POINT( '', ( 0.000000000000000, -14.0000000000000, 0.000000000000000 ) );
#262 = DIRECTION( '', ( -0.000000000000000, 1.00000000000000, 0.000000000000000 ) );
#263 = DIRECTION( '', ( 0.000000000000000, 0.000000000000000, -1.00000000000000 ) );
#264 = SURFACE_STYLE_FILL_AREA( #327 );
#265 = ORIENTED_EDGE( '', *, *, #322, .T. );
#266 = ORIENTED_EDGE( '', *, *, #328, .T. );
#267 = ORIENTED_EDGE( '', *, *, #307, .F. );
#268 = ORIENTED_EDGE( '', *, *, #300, .F. );
#269 = CARTESIAN_POINT( '', ( 11.0000000000000, 10.0000000000000, 6.35085296108588 ) );
#270 = DIRECTION( '', ( -1.00000000000000, 0.000000000000000, 0.000000000000000 ) );
#271 = DIRECTION( '', ( 0.000000000000000, 0.000000000000000, 1.00000000000000 ) );
#272 = SURFACE_STYLE_FILL_AREA( #329 );
#273 = ORIENTED_EDGE( '', *, *, #321, .T. );
#274 = ORIENTED_EDGE( '', *, *, #312, .T. );
#275 = ORIENTED_EDGE( '', *, *, #308, .T. );
#276 = ORIENTED_EDGE( '', *, *, #328, .F. );
#277 = CARTESIAN_POINT( '', ( 0.000000000000000, 10.0000000000000, 12.7017059221718 ) );
#278 = DIRECTION( '', ( -0.500000000000000, 0.000000000000000, -0.866025403784439 ) );
#279 = DIRECTION( '', ( -0.866025403784439, 0.000000000000000, 0.500000000000000 ) );
#280 = SURFACE_STYLE_FILL_AREA( #330 );
#281 = ORIENTED_EDGE( '', *, *, #317, .T. );
#282 = CARTESIAN_POINT( '', ( 4.92650000000000, -14.0000000000000, 0.000000000000000 ) );
#283 = DIRECTION( '', ( 0.000000000000000, 1.00000000000000, 0.000000000000000 ) );
#284 = DIRECTION( '', ( 0.000000000000000, -0.000000000000000, 1.00000000000000 ) );
#285 = SURFACE_STYLE_FILL_AREA( #331 );
#286 = ORIENTED_EDGE( '', *, *, #323, .T. );
#287 = ORIENTED_EDGE( '', *, *, #302, .T. );
#288 = ORIENTED_EDGE( '', *, *, #306, .T. );
#289 = ORIENTED_EDGE( '', *, *, #315, .F. );
#290 = CARTESIAN_POINT( '', ( 0.000000000000000, 10.0000000000000, -12.7017059221718 ) );
#291 = DIRECTION( '', ( 0.500000000000000, -0.000000000000000, 0.866025403784439 ) );
#292 = DIRECTION( '', ( 0.866025403784439, 0.000000000000000, -0.500000000000000 ) );
#293 = FILL_AREA_STYLE( '', ( #332 ) );
#294 = EDGE_CURVE( '', #333, #333, #334, .T. );
#295 = EDGE_CURVE( '', #335, #335, #336, .T. );
#296 = FILL_AREA_STYLE( '', ( #337 ) );
#297 = EDGE_CURVE( '', #338, #338, #339, .T. );
#298 = FILL_AREA_STYLE( '', ( #340 ) );
#299 = EDGE_CURVE( '', #341, #342, #343, .F. );
#300 = EDGE_CURVE( '', #342, #344, #345, .T. );
#301 = EDGE_CURVE( '', #344, #346, #347, .T. );
#302 = EDGE_CURVE( '', #341, #346, #348, .T. );
#303 = FILL_AREA_STYLE( '', ( #349 ) );
#304 = EDGE_CURVE( '', #350, #351, #352, .T. );
#305 = EDGE_CURVE( '', #353, #350, #354, .T. );
#306 = EDGE_CURVE( '', #346, #353, #355, .T. );
#307 = EDGE_CURVE( '', #344, #356, #357, .T. );
#308 = EDGE_CURVE( '', #351, #356, #358, .T. );
#309 = FILL_AREA_STYLE( '', ( #359 ) );
#310 = EDGE_CURVE( '', #360, #361, #362, .F. );
#311 = EDGE_CURVE( '', #361, #350, #363, .T. );
#312 = EDGE_CURVE( '', #360, #351, #364, .T. );
#313 = FILL_AREA_STYLE( '', ( #365 ) );
#314 = EDGE_CURVE( '', #361, #366, #367, .F. );
#315 = EDGE_CURVE( '', #366, #353, #368, .T. );
#316 = FILL_AREA_STYLE( '', ( #369 ) );
#317 = EDGE_CURVE( '', #370, #370, #371, .T. );
#318 = EDGE_CURVE( '', #372, #372, #373, .T. );
#319 = FILL_AREA_STYLE( '', ( #374 ) );
#320 = CARTESIAN_POINT( '', ( 7.56649646504795E-14, 10.0000000000000, 0.000000000000000 ) );
#321 = EDGE_CURVE( '', #375, #360, #376, .F. );
#322 = EDGE_CURVE( '', #342, #375, #377, .F. );
#323 = EDGE_CURVE( '', #366, #341, #378, .F. );
#324 = FILL_AREA_STYLE( '', ( #379 ) );
#325 = EDGE_CURVE( '', #380, #380, #381, .T. );
#326 = FILL_AREA_STYLE( '', ( #382 ) );
#327 = FILL_AREA_STYLE( '', ( #383 ) );
#328 = EDGE_CURVE( '', #375, #356, #384, .T. );
#329 = FILL_AREA_STYLE( '', ( #385 ) );
#330 = FILL_AREA_STYLE( '', ( #386 ) );
#331 = FILL_AREA_STYLE( '', ( #387 ) );
#332 = FILL_AREA_STYLE_COLOUR( '', #388 );
#333 = VERTEX_POINT( '', #389 );
#334 = CIRCLE( '', #390, 4.70000000000000 );
#335 = VERTEX_POINT( '', #391 );
#336 = CIRCLE( '', #392, 4.70000000000000 );
#337 = FILL_AREA_STYLE_COLOUR( '', #393 );
#338 = VERTEX_POINT( '', #394 );
#339 = CIRCLE( '', #395, 4.83397459620000 );
#340 = FILL_AREA_STYLE_COLOUR( '', #396 );
#341 = VERTEX_POINT( '', #397 );
#342 = VERTEX_POINT( '', #398 );
#343 = CIRCLE( '', #399, 58.9830484122000 );
#344 = VERTEX_POINT( '', #400 );
#345 = LINE( '', #401, #402 );
#346 = VERTEX_POINT( '', #403 );
#347 = LINE( '', #404, #405 );
#348 = LINE( '', #406, #407 );
#349 = FILL_AREA_STYLE_COLOUR( '', #408 );
#350 = VERTEX_POINT( '', #409 );
#351 = VERTEX_POINT( '', #410 );
#352 = LINE( '', #411, #412 );
#353 = VERTEX_POINT( '', #413 );
#354 = LINE( '', #414, #415 );
#355 = LINE( '', #416, #417 );
#356 = VERTEX_POINT( '', #418 );
#357 = LINE( '', #419, #420 );
#358 = LINE( '', #421, #422 );
#359 = FILL_AREA_STYLE_COLOUR( '', #423 );
#360 = VERTEX_POINT( '', #424 );
#361 = VERTEX_POINT( '', #425 );
#362 = CIRCLE( '', #426, 58.9830484122000 );
#363 = LINE( '', #427, #428 );
#364 = LINE( '', #429, #430 );
#365 = FILL_AREA_STYLE_COLOUR( '', #431 );
#366 = VERTEX_POINT( '', #432 );
#367 = CIRCLE( '', #433, 58.9830484122000 );
#368 = LINE( '', #434, #435 );
#369 = FILL_AREA_STYLE_COLOUR( '', #436 );
#370 = VERTEX_POINT( '', #437 );
#371 = CIRCLE( '', #438, 4.92650000000000 );
#372 = VERTEX_POINT( '', #439 );
#373 = CIRCLE( '', #440, 6.00000000000000 );
#374 = FILL_AREA_STYLE_COLOUR( '', #441 );
#375 = VERTEX_POINT( '', #442 );
#376 = CIRCLE( '', #443, 58.9830484122000 );
#377 = CIRCLE( '', #444, 58.9830484122000 );
#378 = CIRCLE( '', #445, 58.9830484122000 );
#379 = FILL_AREA_STYLE_COLOUR( '', #446 );
#380 = VERTEX_POINT( '', #447 );
#381 = CIRCLE( '', #448, 6.00000000000000 );
#382 = FILL_AREA_STYLE_COLOUR( '', #449 );
#383 = FILL_AREA_STYLE_COLOUR( '', #450 );
#384 = LINE( '', #451, #452 );
#385 = FILL_AREA_STYLE_COLOUR( '', #453 );
#386 = FILL_AREA_STYLE_COLOUR( '', #454 );
#387 = FILL_AREA_STYLE_COLOUR( '', #455 );
#388 = COLOUR_RGB( '', 0.689999997600000, 0.689999997600000, 0.689999997600000 );
#389 = CARTESIAN_POINT( '', ( 0.000000000000000, -1.78038475772934, -4.70000000000000 ) );
#390 = AXIS2_PLACEMENT_3D( '', #456, #457, #458 );
#391 = CARTESIAN_POINT( '', ( 0.000000000000000, 0.000000000000000, -4.70000000000000 ) );
#392 = AXIS2_PLACEMENT_3D( '', #459, #460, #461 );
#393 = COLOUR_RGB( '', 0.689999997600000, 0.689999997600000, 0.689999997600000 );
#394 = CARTESIAN_POINT( '', ( 0.000000000000000, -2.28038475772934, -4.83397459621556 ) );
#395 = AXIS2_PLACEMENT_3D( '', #462, #463, #464 );
#396 = COLOUR_RGB( '', 0.689999997600000, 0.689999997600000, 0.689999997600000 );
#397 = CARTESIAN_POINT( '', ( 0.000000000000000, 8.64014552051066, -12.7017059221718 ) );
#398 = CARTESIAN_POINT( '', ( 11.0000000000000, 8.64014552051067, -6.35085296108588 ) );
#399 = AXIS2_PLACEMENT_3D( '', #465, #466, #467 );
#400 = CARTESIAN_POINT( '', ( 11.0000000000000, 0.000000000000000, -6.35085296108588 ) );
#401 = CARTESIAN_POINT( '', ( 11.0000000000000, 10.0000000000000, -6.35085296108588 ) );
#402 = VECTOR( '', #468, 1000.00000000000 );
#403 = CARTESIAN_POINT( '', ( 0.000000000000000, 0.000000000000000, -12.7017059221718 ) );
#404 = CARTESIAN_POINT( '', ( 11.0000000000000, 0.000000000000000, -6.35085296108588 ) );
#405 = VECTOR( '', #469, 1000.00000000000 );
#406 = CARTESIAN_POINT( '', ( 0.000000000000000, 10.0000000000000, -12.7017059221718 ) );
#407 = VECTOR( '', #470, 1000.00000000000 );
#408 = COLOUR_RGB( '', 0.689999997600000, 0.689999997600000, 0.689999997600000 );
#409 = CARTESIAN_POINT( '', ( -11.0000000000000, 0.000000000000000, 6.35085296108588 ) );
#410 = CARTESIAN_POINT( '', ( 0.000000000000000, 0.000000000000000, 12.7017059221718 ) );
#411 = CARTESIAN_POINT( '', ( -11.0000000000000, 0.000000000000000, 6.35085296108588 ) );
#412 = VECTOR( '', #471, 1000.00000000000 );
#413 = CARTESIAN_POINT( '', ( -11.0000000000000, 0.000000000000000, -6.35085296108588 ) );
#414 = CARTESIAN_POINT( '', ( -11.0000000000000, 0.000000000000000, -6.35085296108588 ) );
#415 = VECTOR( '', #472, 1000.00000000000 );
#416 = CARTESIAN_POINT( '', ( 0.000000000000000, 0.000000000000000, -12.7017059221718 ) );
#417 = VECTOR( '', #473, 1000.00000000000 );
#418 = CARTESIAN_POINT( '', ( 11.0000000000000, 0.000000000000000, 6.35085296108588 ) );
#419 = CARTESIAN_POINT( '', ( 11.0000000000000, 0.000000000000000, 0.000000000000000 ) );
#420 = VECTOR( '', #474, 1000.00000000000 );
#421 = CARTESIAN_POINT( '', ( 0.000000000000000, 0.000000000000000, 12.7017059221718 ) );
#422 = VECTOR( '', #475, 1000.00000000000 );
#423 = COLOUR_RGB( '', 0.689999997600000, 0.689999997600000, 0.689999997600000 );
#424 = CARTESIAN_POINT( '', ( 0.000000000000000, 8.64014552051066, 12.7017059221718 ) );
#425 = CARTESIAN_POINT( '', ( -11.0000000000000, 8.64014552051064, 6.35085296108588 ) );
#426 = AXIS2_PLACEMENT_3D( '', #476, #477, #478 );
#427 = CARTESIAN_POINT( '', ( -11.0000000000000, 10.0000000000000, 6.35085296108588 ) );
#428 = VECTOR( '', #479, 1000.00000000000 );
#429 = CARTESIAN_POINT( '', ( 0.000000000000000, 10.0000000000000, 12.7017059221718 ) );
#430 = VECTOR( '', #480, 1000.00000000000 );
#431 = COLOUR_RGB( '', 0.689999997600000, 0.689999997600000, 0.689999997600000 );
#432 = CARTESIAN_POINT( '', ( -11.0000000000000, 8.64014552051064, -6.35085296108588 ) );
#433 = AXIS2_PLACEMENT_3D( '', #481, #482, #483 );
#434 = CARTESIAN_POINT( '', ( -11.0000000000000, 10.0000000000000, -6.35085296108588 ) );
#435 = VECTOR( '', #484, 1000.00000000000 );
#436 = COLOUR_RGB( '', 0.689999997600000, 0.689999997600000, 0.689999997600000 );
#437 = CARTESIAN_POINT( '', ( 0.000000000000000, -14.0000000000000, -4.92650000000000 ) );
#438 = AXIS2_PLACEMENT_3D( '', #485, #486, #487 );
#439 = CARTESIAN_POINT( '', ( 0.000000000000000, -12.9265000000000, -6.00000000000000 ) );
#440 = AXIS2_PLACEMENT_3D( '', #488, #489, #490 );
#441 = COLOUR_RGB( '', 0.689999997600000, 0.689999997600000, 0.689999997600000 );
#442 = CARTESIAN_POINT( '', ( 11.0000000000000, 8.64014552051067, 6.35085296108588 ) );
#443 = AXIS2_PLACEMENT_3D( '', #491, #492, #493 );
#444 = AXIS2_PLACEMENT_3D( '', #494, #495, #496 );
#445 = AXIS2_PLACEMENT_3D( '', #497, #498, #499 );
#446 = COLOUR_RGB( '', 0.689999997600000, 0.689999997600000, 0.689999997600000 );
#447 = CARTESIAN_POINT( '', ( 0.000000000000000, -4.30000000000000, -6.00000000000000 ) );
#448 = AXIS2_PLACEMENT_3D( '', #500, #501, #502 );
#449 = COLOUR_RGB( '', 0.689999997600000, 0.689999997600000, 0.689999997600000 );
#450 = COLOUR_RGB( '', 0.689999997600000, 0.689999997600000, 0.689999997600000 );
#451 = CARTESIAN_POINT( '', ( 11.0000000000000, 10.0000000000000, 6.35085296108588 ) );
#452 = VECTOR( '', #503, 1000.00000000000 );
#453 = COLOUR_RGB( '', 0.689999997600000, 0.689999997600000, 0.689999997600000 );
#454 = COLOUR_RGB( '', 0.689999997600000, 0.689999997600000, 0.689999997600000 );
#455 = COLOUR_RGB( '', 0.689999997600000, 0.689999997600000, 0.689999997600000 );
#456 = CARTESIAN_POINT( '', ( 0.000000000000000, -1.78038475772934, 0.000000000000000 ) );
#457 = DIRECTION( '', ( 0.000000000000000, -1.00000000000000, -0.000000000000000 ) );
#458 = DIRECTION( '', ( 0.000000000000000, 0.000000000000000, -1.00000000000000 ) );
#459 = CARTESIAN_POINT( '', ( 0.000000000000000, 0.000000000000000, 0.000000000000000 ) );
#460 = DIRECTION( '', ( 0.000000000000000, -1.00000000000000, -0.000000000000000 ) );
#461 = DIRECTION( '', ( 0.000000000000000, 0.000000000000000, -1.00000000000000 ) );
#462 = CARTESIAN_POINT( '', ( 0.000000000000000, -2.28038475772934, 0.000000000000000 ) );
#463 = DIRECTION( '', ( 0.000000000000000, -1.00000000000000, -0.000000000000000 ) );
#464 = DIRECTION( '', ( 0.000000000000000, 0.000000000000000, -1.00000000000000 ) );
#465 = CARTESIAN_POINT( '', ( 5.50000000000005, -49.9999999999995, -9.52627944162879 ) );
#466 = DIRECTION( '', ( -0.500000000000000, 0.000000000000000, 0.866025403784439 ) );
#467 = DIRECTION( '', ( 0.866025403784439, 0.000000000000000, 0.500000000000000 ) );
#468 = DIRECTION( '', ( -0.000000000000000, -1.00000000000000, -0.000000000000000 ) );
#469 = DIRECTION( '', ( -0.866025403784439, 0.000000000000000, -0.500000000000000 ) );
#470 = DIRECTION( '', ( -0.000000000000000, -1.00000000000000, -0.000000000000000 ) );
#471 = DIRECTION( '', ( 0.866025403784439, 0.000000000000000, 0.500000000000000 ) );
#472 = DIRECTION( '', ( 0.000000000000000, 0.000000000000000, 1.00000000000000 ) );
#473 = DIRECTION( '', ( -0.866025403784439, 0.000000000000000, 0.500000000000000 ) );
#474 = DIRECTION( '', ( 0.000000000000000, -0.000000000000000, 1.00000000000000 ) );
#475 = DIRECTION( '', ( 0.866025403784439, 0.000000000000000, -0.500000000000000 ) );
#476 = CARTESIAN_POINT( '', ( -5.49999999999994, -49.9999999999995, 9.52627944162885 ) );
#477 = DIRECTION( '', ( 0.500000000000000, 0.000000000000000, -0.866025403784439 ) );
#478 = DIRECTION( '', ( -0.866025403784439, 0.000000000000000, -0.500000000000000 ) );
#479 = DIRECTION( '', ( -0.000000000000000, -1.00000000000000, -0.000000000000000 ) );
#480 = DIRECTION( '', ( -0.000000000000000, -1.00000000000000, -0.000000000000000 ) );
#481 = CARTESIAN_POINT( '', ( -11.0000000000000, -49.9999999999995, 0.000000000000000 ) );
#482 = DIRECTION( '', ( 1.00000000000000, 0.000000000000000, 0.000000000000000 ) );
#483 = DIRECTION( '', ( 0.000000000000000, 0.000000000000000, -1.00000000000000 ) );
#484 = DIRECTION( '', ( -0.000000000000000, -1.00000000000000, -0.000000000000000 ) );
#485 = CARTESIAN_POINT( '', ( 0.000000000000000, -14.0000000000000, 0.000000000000000 ) );
#486 = DIRECTION( '', ( 0.000000000000000, -1.00000000000000, -0.000000000000000 ) );
#487 = DIRECTION( '', ( 0.000000000000000, 0.000000000000000, -1.00000000000000 ) );
#488 = CARTESIAN_POINT( '', ( 0.000000000000000, -12.9265000000000, 0.000000000000000 ) );
#489 = DIRECTION( '', ( 0.000000000000000, -1.00000000000000, -0.000000000000000 ) );
#490 = DIRECTION( '', ( 0.000000000000000, 0.000000000000000, -1.00000000000000 ) );
#491 = CARTESIAN_POINT( '', ( 5.50000000000005, -49.9999999999995, 9.52627944162879 ) );
#492 = DIRECTION( '', ( -0.500000000000000, 0.000000000000000, -0.866025403784439 ) );
#493 = DIRECTION( '', ( -0.866025403784439, 0.000000000000000, 0.500000000000000 ) );
#494 = CARTESIAN_POINT( '', ( 11.0000000000000, -49.9999999999995, 0.000000000000000 ) );
#495 = DIRECTION( '', ( -1.00000000000000, 0.000000000000000, 0.000000000000000 ) );
#496 = DIRECTION( '', ( 0.000000000000000, 0.000000000000000, 1.00000000000000 ) );
#497 = CARTESIAN_POINT( '', ( -5.49999999999994, -49.9999999999995, -9.52627944162885 ) );
#498 = DIRECTION( '', ( 0.500000000000000, -0.000000000000000, 0.866025403784439 ) );
#499 = DIRECTION( '', ( 0.866025403784439, 0.000000000000000, -0.500000000000000 ) );
#500 = CARTESIAN_POINT( '', ( 0.000000000000000, -4.30000000000000, 0.000000000000000 ) );
#501 = DIRECTION( '', ( 0.000000000000000, -1.00000000000000, -0.000000000000000 ) );
#502 = DIRECTION( '', ( 0.000000000000000, 0.000000000000000, -1.00000000000000 ) );
#503 = DIRECTION( '', ( -0.000000000000000, -1.00000000000000, -0.000000000000000 ) );
ENDSEC;
END-ISO-10303-21;
