ISO-10303-21;
HEADER;
FILE_DESCRIPTION( ( 'STEP AP214' ), '1' );
FILE_NAME( '//goodhand-server/Shared Folders/GoodHand Data/Kipp CAD/K0179/K0179.1210X80.stp', '2020-11-26T11:24:59', ( '' ), ( '' ), ' ', 'PARTsolutions', ' ' );
FILE_SCHEMA( ( 'AUTOMOTIVE_DESIGN { 1 0 10303 214 1 1 1 1 }' ) );
ENDSEC;
DATA;
#1 = MECHANICAL_DESIGN_GEOMETRIC_PRESENTATION_REPRESENTATION( ' ', ( #10, #11, #12, #13, #14, #15, #16 ), #6 );
#2 = PRODUCT_DEFINITION_CONTEXT( '', #17, 'design' );
#3 = APPLICATION_PROTOCOL_DEFINITION( 'international standard', 'automotive_design', 2001, #17 );
#4 = PRODUCT_CATEGORY_RELATIONSHIP( 'NONE', 'NONE', #18, #19 );
#5 = SHAPE_DEFINITION_REPRESENTATION( #20, #21 );
#6 =  ( GEOMETRIC_REPRESENTATION_CONTEXT( 3 )GLOBAL_UNCERTAINTY_ASSIGNED_CONTEXT( ( #24 ) )GLOBAL_UNIT_ASSIGNED_CONTEXT( ( #26, #27, #28 ) )REPRESENTATION_CONTEXT( 'NONE', 'WORKSPACE' ) );
#10 = STYLED_ITEM( '', ( #30 ), #31 );
#11 = STYLED_ITEM( '', ( #32 ), #33 );
#12 = STYLED_ITEM( '', ( #34 ), #35 );
#13 = STYLED_ITEM( '', ( #36 ), #37 );
#14 = STYLED_ITEM( '', ( #38 ), #39 );
#15 = STYLED_ITEM( '', ( #40 ), #41 );
#16 = STYLED_ITEM( '', ( #42 ), #43 );
#17 = APPLICATION_CONTEXT( 'core data for automotive mechanical design processes' );
#18 = PRODUCT_CATEGORY( 'part', 'NONE' );
#19 = PRODUCT_RELATED_PRODUCT_CATEGORY( 'detail', ' ', ( #44 ) );
#20 = PRODUCT_DEFINITION_SHAPE( 'NONE', 'NONE', #45 );
#21 = ADVANCED_BREP_SHAPE_REPRESENTATION( '_K0179.1210X80', ( #46, #47 ), #6 );
#24 = UNCERTAINTY_MEASURE_WITH_UNIT( LENGTH_MEASURE( 0.00100000000000000 ), #26, '', '' );
#26 =  ( CONVERSION_BASED_UNIT( 'MILLIMETRE', #50 )LENGTH_UNIT(  )NAMED_UNIT( #53 ) );
#27 =  ( NAMED_UNIT( #55 )PLANE_ANGLE_UNIT(  )SI_UNIT( $, .RADIAN. ) );
#28 =  ( NAMED_UNIT( #55 )SI_UNIT( $, .STERADIAN. )SOLID_ANGLE_UNIT(  ) );
#30 = PRESENTATION_STYLE_ASSIGNMENT( ( #61 ) );
#31 = ADVANCED_FACE( '', ( #62 ), #63, .F. );
#32 = PRESENTATION_STYLE_ASSIGNMENT( ( #64 ) );
#33 = ADVANCED_FACE( '', ( #65, #66 ), #67, .T. );
#34 = PRESENTATION_STYLE_ASSIGNMENT( ( #68 ) );
#35 = ADVANCED_FACE( '', ( #69, #70 ), #71, .F. );
#36 = PRESENTATION_STYLE_ASSIGNMENT( ( #72 ) );
#37 = ADVANCED_FACE( '', ( #73, #74 ), #75, .T. );
#38 = PRESENTATION_STYLE_ASSIGNMENT( ( #76 ) );
#39 = ADVANCED_FACE( '', ( #77, #78 ), #79, .T. );
#40 = PRESENTATION_STYLE_ASSIGNMENT( ( #80 ) );
#41 = ADVANCED_FACE( '', ( #81, #82 ), #83, .F. );
#42 = PRESENTATION_STYLE_ASSIGNMENT( ( #84 ) );
#43 = ADVANCED_FACE( '', ( #85, #86 ), #87, .T. );
#44 = PRODUCT( '_K0179.1210X80', '_K0179.1210X80', 'PART-_K0179.1210X80-DESC', ( #88 ) );
#45 = PRODUCT_DEFINITION( 'NONE', 'NONE', #89, #2 );
#46 = MANIFOLD_SOLID_BREP( '_K0179.1210X80', #90 );
#47 = AXIS2_PLACEMENT_3D( '', #91, #92, #93 );
#50 = LENGTH_MEASURE_WITH_UNIT( LENGTH_MEASURE( 1.00000000000000 ), #94 );
#53 = DIMENSIONAL_EXPONENTS( 1.00000000000000, 0.000000000000000, 0.000000000000000, 0.000000000000000, 0.000000000000000, 0.000000000000000, 0.000000000000000 );
#55 = DIMENSIONAL_EXPONENTS( 0.000000000000000, 0.000000000000000, 0.000000000000000, 0.000000000000000, 0.000000000000000, 0.000000000000000, 0.000000000000000 );
#61 = SURFACE_STYLE_USAGE( .BOTH., #95 );
#62 = FACE_OUTER_BOUND( '', #96, .T. );
#63 = PLANE( '', #97 );
#64 = SURFACE_STYLE_USAGE( .BOTH., #98 );
#65 = FACE_BOUND( '', #99, .T. );
#66 = FACE_OUTER_BOUND( '', #100, .T. );
#67 = CONICAL_SURFACE( '', #101, 4.00000000000000, 0.785398163400000 );
#68 = SURFACE_STYLE_USAGE( .BOTH., #102 );
#69 = FACE_BOUND( '', #103, .T. );
#70 = FACE_OUTER_BOUND( '', #104, .T. );
#71 = PLANE( '', #105 );
#72 = SURFACE_STYLE_USAGE( .BOTH., #106 );
#73 = FACE_BOUND( '', #107, .T. );
#74 = FACE_OUTER_BOUND( '', #108, .T. );
#75 = SPHERICAL_SURFACE( '', #109, 12.5000000000000 );
#76 = SURFACE_STYLE_USAGE( .BOTH., #110 );
#77 = FACE_OUTER_BOUND( '', #111, .T. );
#78 = FACE_OUTER_BOUND( '', #112, .T. );
#79 = CYLINDRICAL_SURFACE( '', #113, 5.00000000000000 );
#80 = SURFACE_STYLE_USAGE( .BOTH., #114 );
#81 = FACE_BOUND( '', #115, .T. );
#82 = FACE_OUTER_BOUND( '', #116, .T. );
#83 = PLANE( '', #117 );
#84 = SURFACE_STYLE_USAGE( .BOTH., #118 );
#85 = FACE_OUTER_BOUND( '', #119, .T. );
#86 = FACE_OUTER_BOUND( '', #120, .T. );
#87 = CYLINDRICAL_SURFACE( '', #121, 4.00000000000000 );
#88 = PRODUCT_CONTEXT( '', #17, 'mechanical' );
#89 = PRODUCT_DEFINITION_FORMATION_WITH_SPECIFIED_SOURCE( ' ', 'NONE', #44, .NOT_KNOWN. );
#90 = CLOSED_SHELL( '', ( #33, #43, #35, #39, #41, #37, #31 ) );
#91 = CARTESIAN_POINT( '', ( 0.000000000000000, 0.000000000000000, 0.000000000000000 ) );
#92 = DIRECTION( '', ( 0.000000000000000, 0.000000000000000, 1.00000000000000 ) );
#93 = DIRECTION( '', ( 1.00000000000000, 0.000000000000000, 0.000000000000000 ) );
#94 =  ( LENGTH_UNIT(  )NAMED_UNIT( #53 )SI_UNIT( .MILLI., .METRE. ) );
#95 = SURFACE_SIDE_STYLE( '', ( #123 ) );
#96 = EDGE_LOOP( '', ( #124 ) );
#97 = AXIS2_PLACEMENT_3D( '', #125, #126, #127 );
#98 = SURFACE_SIDE_STYLE( '', ( #128 ) );
#99 = EDGE_LOOP( '', ( #129 ) );
#100 = EDGE_LOOP( '', ( #130 ) );
#101 = AXIS2_PLACEMENT_3D( '', #131, #132, #133 );
#102 = SURFACE_SIDE_STYLE( '', ( #134 ) );
#103 = EDGE_LOOP( '', ( #135 ) );
#104 = EDGE_LOOP( '', ( #136 ) );
#105 = AXIS2_PLACEMENT_3D( '', #137, #138, #139 );
#106 = SURFACE_SIDE_STYLE( '', ( #140 ) );
#107 = VERTEX_LOOP( '', #141 );
#108 = EDGE_LOOP( '', ( #142 ) );
#109 = AXIS2_PLACEMENT_3D( '', #143, #144, #145 );
#110 = SURFACE_SIDE_STYLE( '', ( #146 ) );
#111 = EDGE_LOOP( '', ( #147 ) );
#112 = EDGE_LOOP( '', ( #148 ) );
#113 = AXIS2_PLACEMENT_3D( '', #149, #150, #151 );
#114 = SURFACE_SIDE_STYLE( '', ( #152 ) );
#115 = EDGE_LOOP( '', ( #153 ) );
#116 = EDGE_LOOP( '', ( #154 ) );
#117 = AXIS2_PLACEMENT_3D( '', #155, #156, #157 );
#118 = SURFACE_SIDE_STYLE( '', ( #158 ) );
#119 = EDGE_LOOP( '', ( #159 ) );
#120 = EDGE_LOOP( '', ( #160 ) );
#121 = AXIS2_PLACEMENT_3D( '', #161, #162, #163 );
#123 = SURFACE_STYLE_FILL_AREA( #164 );
#124 = ORIENTED_EDGE( '', *, *, #165, .T. );
#125 = CARTESIAN_POINT( '', ( 115.500000000000, 3.23300000000000, 0.000000000000000 ) );
#126 = DIRECTION( '', ( -1.00000000000000, 0.000000000000000, 0.000000000000000 ) );
#127 = DIRECTION( '', ( 0.000000000000000, 0.000000000000000, 1.00000000000000 ) );
#128 = SURFACE_STYLE_FILL_AREA( #166 );
#129 = ORIENTED_EDGE( '', *, *, #165, .F. );
#130 = ORIENTED_EDGE( '', *, *, #167, .T. );
#131 = CARTESIAN_POINT( '', ( 114.733000000000, 0.000000000000000, 0.000000000000000 ) );
#132 = DIRECTION( '', ( -1.00000000000000, 0.000000000000000, -0.000000000000000 ) );
#133 = DIRECTION( '', ( 0.000000000000000, 0.000000000000000, 1.00000000000000 ) );
#134 = SURFACE_STYLE_FILL_AREA( #168 );
#135 = ORIENTED_EDGE( '', *, *, #169, .F. );
#136 = ORIENTED_EDGE( '', *, *, #170, .T. );
#137 = CARTESIAN_POINT( '', ( 102.500000000000, 5.00000000000000, 0.000000000000000 ) );
#138 = DIRECTION( '', ( -1.00000000000000, 0.000000000000000, 0.000000000000000 ) );
#139 = DIRECTION( '', ( 0.000000000000000, 0.000000000000000, 1.00000000000000 ) );
#140 = SURFACE_STYLE_FILL_AREA( #171 );
#141 = VERTEX_POINT( '', #172 );
#142 = ORIENTED_EDGE( '', *, *, #173, .F. );
#143 = CARTESIAN_POINT( '', ( 12.5000000000000, -8.67361737988404E-15, 0.000000000000000 ) );
#144 = DIRECTION( '', ( 1.00000000000000, 0.000000000000000, 0.000000000000000 ) );
#145 = DIRECTION( '', ( 0.000000000000000, 1.00000000000000, 0.000000000000000 ) );
#146 = SURFACE_STYLE_FILL_AREA( #174 );
#147 = ORIENTED_EDGE( '', *, *, #170, .F. );
#148 = ORIENTED_EDGE( '', *, *, #175, .T. );
#149 = CARTESIAN_POINT( '', ( 115.500000000000, 0.000000000000000, 0.000000000000000 ) );
#150 = DIRECTION( '', ( -1.00000000000000, -0.000000000000000, 0.000000000000000 ) );
#151 = DIRECTION( '', ( -0.000000000000000, 0.000000000000000, -1.00000000000000 ) );
#152 = SURFACE_STYLE_FILL_AREA( #176 );
#153 = ORIENTED_EDGE( '', *, *, #175, .F. );
#154 = ORIENTED_EDGE( '', *, *, #173, .T. );
#155 = CARTESIAN_POINT( '', ( 22.5000000000000, 7.50000000000000, 0.000000000000000 ) );
#156 = DIRECTION( '', ( -1.00000000000000, 0.000000000000000, 0.000000000000000 ) );
#157 = DIRECTION( '', ( 0.000000000000000, 0.000000000000000, 1.00000000000000 ) );
#158 = SURFACE_STYLE_FILL_AREA( #177 );
#159 = ORIENTED_EDGE( '', *, *, #167, .F. );
#160 = ORIENTED_EDGE( '', *, *, #169, .T. );
#161 = CARTESIAN_POINT( '', ( 115.500000000000, 0.000000000000000, 0.000000000000000 ) );
#162 = DIRECTION( '', ( -1.00000000000000, -0.000000000000000, 0.000000000000000 ) );
#163 = DIRECTION( '', ( -0.000000000000000, 0.000000000000000, -1.00000000000000 ) );
#164 = FILL_AREA_STYLE( '', ( #178 ) );
#165 = EDGE_CURVE( '', #179, #179, #180, .T. );
#166 = FILL_AREA_STYLE( '', ( #181 ) );
#167 = EDGE_CURVE( '', #182, #182, #183, .T. );
#168 = FILL_AREA_STYLE( '', ( #184 ) );
#169 = EDGE_CURVE( '', #185, #185, #186, .T. );
#170 = EDGE_CURVE( '', #187, #187, #188, .T. );
#171 = FILL_AREA_STYLE( '', ( #189 ) );
#172 = CARTESIAN_POINT( '', ( 0.000000000000000, -7.90821313041694E-15, 0.000000000000000 ) );
#173 = EDGE_CURVE( '', #190, #190, #191, .T. );
#174 = FILL_AREA_STYLE( '', ( #192 ) );
#175 = EDGE_CURVE( '', #193, #193, #194, .T. );
#176 = FILL_AREA_STYLE( '', ( #195 ) );
#177 = FILL_AREA_STYLE( '', ( #196 ) );
#178 = FILL_AREA_STYLE_COLOUR( '', #197 );
#179 = VERTEX_POINT( '', #198 );
#180 = CIRCLE( '', #199, 3.23300000000000 );
#181 = FILL_AREA_STYLE_COLOUR( '', #200 );
#182 = VERTEX_POINT( '', #201 );
#183 = CIRCLE( '', #202, 4.00000000000000 );
#184 = FILL_AREA_STYLE_COLOUR( '', #203 );
#185 = VERTEX_POINT( '', #204 );
#186 = CIRCLE( '', #205, 4.00000000000000 );
#187 = VERTEX_POINT( '', #206 );
#188 = CIRCLE( '', #207, 5.00000000000000 );
#189 = FILL_AREA_STYLE_COLOUR( '', #208 );
#190 = VERTEX_POINT( '', #209 );
#191 = CIRCLE( '', #210, 7.50000000000000 );
#192 = FILL_AREA_STYLE_COLOUR( '', #211 );
#193 = VERTEX_POINT( '', #212 );
#194 = CIRCLE( '', #213, 5.00000000000000 );
#195 = FILL_AREA_STYLE_COLOUR( '', #214 );
#196 = FILL_AREA_STYLE_COLOUR( '', #215 );
#197 = COLOUR_RGB( '', 0.689999997600000, 0.689999997600000, 0.689999997600000 );
#198 = CARTESIAN_POINT( '', ( 115.500000000000, 0.000000000000000, -3.23300000000000 ) );
#199 = AXIS2_PLACEMENT_3D( '', #216, #217, #218 );
#200 = COLOUR_RGB( '', 0.689999997600000, 0.689999997600000, 0.689999997600000 );
#201 = CARTESIAN_POINT( '', ( 114.733000000000, 0.000000000000000, -4.00000000000000 ) );
#202 = AXIS2_PLACEMENT_3D( '', #219, #220, #221 );
#203 = COLOUR_RGB( '', 0.689999997600000, 0.689999997600000, 0.689999997600000 );
#204 = CARTESIAN_POINT( '', ( 102.500000000000, 0.000000000000000, -4.00000000000000 ) );
#205 = AXIS2_PLACEMENT_3D( '', #222, #223, #224 );
#206 = CARTESIAN_POINT( '', ( 102.500000000000, 0.000000000000000, -5.00000000000000 ) );
#207 = AXIS2_PLACEMENT_3D( '', #225, #226, #227 );
#208 = COLOUR_RGB( '', 0.689999997600000, 0.689999997600000, 0.689999997600000 );
#209 = CARTESIAN_POINT( '', ( 22.5000000000000, 0.000000000000000, -7.50000000000000 ) );
#210 = AXIS2_PLACEMENT_3D( '', #228, #229, #230 );
#211 = COLOUR_RGB( '', 0.689999997600000, 0.689999997600000, 0.689999997600000 );
#212 = CARTESIAN_POINT( '', ( 22.5000000000000, 0.000000000000000, -5.00000000000000 ) );
#213 = AXIS2_PLACEMENT_3D( '', #231, #232, #233 );
#214 = COLOUR_RGB( '', 0.689999997600000, 0.689999997600000, 0.689999997600000 );
#215 = COLOUR_RGB( '', 0.689999997600000, 0.689999997600000, 0.689999997600000 );
#216 = CARTESIAN_POINT( '', ( 115.500000000000, 0.000000000000000, 0.000000000000000 ) );
#217 = DIRECTION( '', ( 1.00000000000000, 0.000000000000000, -0.000000000000000 ) );
#218 = DIRECTION( '', ( -0.000000000000000, 0.000000000000000, -1.00000000000000 ) );
#219 = CARTESIAN_POINT( '', ( 114.733000000000, 0.000000000000000, 0.000000000000000 ) );
#220 = DIRECTION( '', ( 1.00000000000000, 0.000000000000000, -0.000000000000000 ) );
#221 = DIRECTION( '', ( -0.000000000000000, 0.000000000000000, -1.00000000000000 ) );
#222 = CARTESIAN_POINT( '', ( 102.500000000000, 0.000000000000000, 0.000000000000000 ) );
#223 = DIRECTION( '', ( 1.00000000000000, 0.000000000000000, -0.000000000000000 ) );
#224 = DIRECTION( '', ( -0.000000000000000, 0.000000000000000, -1.00000000000000 ) );
#225 = CARTESIAN_POINT( '', ( 102.500000000000, 0.000000000000000, 0.000000000000000 ) );
#226 = DIRECTION( '', ( 1.00000000000000, 0.000000000000000, -0.000000000000000 ) );
#227 = DIRECTION( '', ( -0.000000000000000, 0.000000000000000, -1.00000000000000 ) );
#228 = CARTESIAN_POINT( '', ( 22.5000000000000, 0.000000000000000, 0.000000000000000 ) );
#229 = DIRECTION( '', ( 1.00000000000000, 0.000000000000000, -0.000000000000000 ) );
#230 = DIRECTION( '', ( -0.000000000000000, 0.000000000000000, -1.00000000000000 ) );
#231 = CARTESIAN_POINT( '', ( 22.5000000000000, 0.000000000000000, 0.000000000000000 ) );
#232 = DIRECTION( '', ( 1.00000000000000, 0.000000000000000, -0.000000000000000 ) );
#233 = DIRECTION( '', ( -0.000000000000000, 0.000000000000000, -1.00000000000000 ) );
ENDSEC;
END-ISO-10303-21;
