ISO-10303-21;
HEADER;
FILE_DESCRIPTION( ( 'STEP AP214' ), '1' );
FILE_NAME( '//goodhand-server/Shared Folders/GoodHand Data/Kipp CAD/K0390/K0390.081X40.stp', '2020-12-07T10:15:28', ( '' ), ( '' ), ' ', 'PARTsolutions', ' ' );
FILE_SCHEMA( ( 'AUTOMOTIVE_DESIGN { 1 0 10303 214 1 1 1 1 }' ) );
ENDSEC;
DATA;
#1 = MECHANICAL_DESIGN_GEOMETRIC_PRESENTATION_REPRESENTATION( ' ', ( #10, #11, #12, #13, #14, #15, #16, #17, #18, #19, #20, #21, #22 ), #6 );
#2 = PRODUCT_DEFINITION_CONTEXT( '', #23, 'design' );
#3 = APPLICATION_PROTOCOL_DEFINITION( 'international standard', 'automotive_design', 2001, #23 );
#4 = PRODUCT_CATEGORY_RELATIONSHIP( 'NONE', 'NONE', #24, #25 );
#5 = SHAPE_DEFINITION_REPRESENTATION( #26, #27 );
#6 =  ( GEOMETRIC_REPRESENTATION_CONTEXT( 3 )GLOBAL_UNCERTAINTY_ASSIGNED_CONTEXT( ( #30 ) )GLOBAL_UNIT_ASSIGNED_CONTEXT( ( #32, #33, #34 ) )REPRESENTATION_CONTEXT( 'NONE', 'WORKSPACE' ) );
#10 = STYLED_ITEM( '', ( #36 ), #37 );
#11 = STYLED_ITEM( '', ( #38 ), #39 );
#12 = STYLED_ITEM( '', ( #40 ), #41 );
#13 = STYLED_ITEM( '', ( #42 ), #43 );
#14 = STYLED_ITEM( '', ( #44 ), #45 );
#15 = STYLED_ITEM( '', ( #46 ), #47 );
#16 = STYLED_ITEM( '', ( #48 ), #49 );
#17 = STYLED_ITEM( '', ( #50 ), #51 );
#18 = STYLED_ITEM( '', ( #52 ), #53 );
#19 = STYLED_ITEM( '', ( #54 ), #55 );
#20 = STYLED_ITEM( '', ( #56 ), #57 );
#21 = STYLED_ITEM( '', ( #58 ), #59 );
#22 = STYLED_ITEM( '', ( #60 ), #61 );
#23 = APPLICATION_CONTEXT( 'core data for automotive mechanical design processes' );
#24 = PRODUCT_CATEGORY( 'part', 'NONE' );
#25 = PRODUCT_RELATED_PRODUCT_CATEGORY( 'detail', ' ', ( #62 ) );
#26 = PRODUCT_DEFINITION_SHAPE( 'NONE', 'NONE', #63 );
#27 = ADVANCED_BREP_SHAPE_REPRESENTATION( '_K0390.081X40', ( #64, #65 ), #6 );
#30 = UNCERTAINTY_MEASURE_WITH_UNIT( LENGTH_MEASURE( 0.00100000000000000 ), #32, '', '' );
#32 =  ( CONVERSION_BASED_UNIT( 'MILLIMETRE', #68 )LENGTH_UNIT(  )NAMED_UNIT( #71 ) );
#33 =  ( NAMED_UNIT( #73 )PLANE_ANGLE_UNIT(  )SI_UNIT( $, .RADIAN. ) );
#34 =  ( NAMED_UNIT( #73 )SI_UNIT( $, .STERADIAN. )SOLID_ANGLE_UNIT(  ) );
#36 = PRESENTATION_STYLE_ASSIGNMENT( ( #79 ) );
#37 = ADVANCED_FACE( '', ( #80 ), #81, .F. );
#38 = PRESENTATION_STYLE_ASSIGNMENT( ( #82 ) );
#39 = ADVANCED_FACE( '', ( #83 ), #84, .T. );
#40 = PRESENTATION_STYLE_ASSIGNMENT( ( #85 ) );
#41 = ADVANCED_FACE( '', ( #86 ), #87, .F. );
#42 = PRESENTATION_STYLE_ASSIGNMENT( ( #88 ) );
#43 = ADVANCED_FACE( '', ( #89, #90 ), #91, .T. );
#44 = PRESENTATION_STYLE_ASSIGNMENT( ( #92 ) );
#45 = ADVANCED_FACE( '', ( #93, #94 ), #95, .T. );
#46 = PRESENTATION_STYLE_ASSIGNMENT( ( #96 ) );
#47 = ADVANCED_FACE( '', ( #97 ), #98, .F. );
#48 = PRESENTATION_STYLE_ASSIGNMENT( ( #99 ) );
#49 = ADVANCED_FACE( '', ( #100, #101 ), #102, .T. );
#50 = PRESENTATION_STYLE_ASSIGNMENT( ( #103 ) );
#51 = ADVANCED_FACE( '', ( #104 ), #105, .T. );
#52 = PRESENTATION_STYLE_ASSIGNMENT( ( #106 ) );
#53 = ADVANCED_FACE( '', ( #107 ), #108, .T. );
#54 = PRESENTATION_STYLE_ASSIGNMENT( ( #109 ) );
#55 = ADVANCED_FACE( '', ( #110, #111 ), #112, .T. );
#56 = PRESENTATION_STYLE_ASSIGNMENT( ( #113 ) );
#57 = ADVANCED_FACE( '', ( #114, #115 ), #116, .T. );
#58 = PRESENTATION_STYLE_ASSIGNMENT( ( #117 ) );
#59 = ADVANCED_FACE( '', ( #118, #119 ), #120, .F. );
#60 = PRESENTATION_STYLE_ASSIGNMENT( ( #121 ) );
#61 = ADVANCED_FACE( '', ( #122 ), #123, .F. );
#62 = PRODUCT( '_K0390.081X40', '_K0390.081X40', 'PART-_K0390.081X40-DESC', ( #124 ) );
#63 = PRODUCT_DEFINITION( 'NONE', 'NONE', #125, #2 );
#64 = MANIFOLD_SOLID_BREP( '_K0390.081X40', #126 );
#65 = AXIS2_PLACEMENT_3D( '', #127, #128, #129 );
#68 = LENGTH_MEASURE_WITH_UNIT( LENGTH_MEASURE( 1.00000000000000 ), #130 );
#71 = DIMENSIONAL_EXPONENTS( 1.00000000000000, 0.000000000000000, 0.000000000000000, 0.000000000000000, 0.000000000000000, 0.000000000000000, 0.000000000000000 );
#73 = DIMENSIONAL_EXPONENTS( 0.000000000000000, 0.000000000000000, 0.000000000000000, 0.000000000000000, 0.000000000000000, 0.000000000000000, 0.000000000000000 );
#79 = SURFACE_STYLE_USAGE( .BOTH., #131 );
#80 = FACE_OUTER_BOUND( '', #132, .T. );
#81 = PLANE( '', #133 );
#82 = SURFACE_STYLE_USAGE( .BOTH., #134 );
#83 = FACE_OUTER_BOUND( '', #135, .T. );
#84 = CONICAL_SURFACE( '', #136, 3.23300000000000, 0.785398163400000 );
#85 = SURFACE_STYLE_USAGE( .BOTH., #137 );
#86 = FACE_OUTER_BOUND( '', #138, .T. );
#87 = PLANE( '', #139 );
#88 = SURFACE_STYLE_USAGE( .BOTH., #140 );
#89 = FACE_OUTER_BOUND( '', #141, .T. );
#90 = FACE_OUTER_BOUND( '', #142, .T. );
#91 = CYLINDRICAL_SURFACE( '', #143, 3.00000000000000 );
#92 = SURFACE_STYLE_USAGE( .BOTH., #144 );
#93 = FACE_OUTER_BOUND( '', #145, .T. );
#94 = FACE_OUTER_BOUND( '', #146, .T. );
#95 = CYLINDRICAL_SURFACE( '', #147, 2.70000000000000 );
#96 = SURFACE_STYLE_USAGE( .BOTH., #148 );
#97 = FACE_OUTER_BOUND( '', #149, .T. );
#98 = PLANE( '', #150 );
#99 = SURFACE_STYLE_USAGE( .BOTH., #151 );
#100 = FACE_BOUND( '', #152, .T. );
#101 = FACE_OUTER_BOUND( '', #153, .T. );
#102 = SPHERICAL_SURFACE( '', #154, 5.03220000000000 );
#103 = SURFACE_STYLE_USAGE( .BOTH., #155 );
#104 = FACE_OUTER_BOUND( '', #156, .T. );
#105 = CONICAL_SURFACE( '', #157, 3.23300000000000, 0.785398163400000 );
#106 = SURFACE_STYLE_USAGE( .BOTH., #158 );
#107 = FACE_OUTER_BOUND( '', #159, .T. );
#108 = PLANE( '', #160 );
#109 = SURFACE_STYLE_USAGE( .BOTH., #161 );
#110 = FACE_BOUND( '', #162, .T. );
#111 = FACE_OUTER_BOUND( '', #163, .T. );
#112 = CONICAL_SURFACE( '', #164, 4.00000000000000, 1.06399014130000 );
#113 = SURFACE_STYLE_USAGE( .BOTH., #165 );
#114 = FACE_OUTER_BOUND( '', #166, .T. );
#115 = FACE_OUTER_BOUND( '', #167, .T. );
#116 = CYLINDRICAL_SURFACE( '', #168, 4.00000000000000 );
#117 = SURFACE_STYLE_USAGE( .BOTH., #169 );
#118 = FACE_OUTER_BOUND( '', #170, .T. );
#119 = FACE_BOUND( '', #171, .T. );
#120 = PLANE( '', #172 );
#121 = SURFACE_STYLE_USAGE( .BOTH., #173 );
#122 = FACE_OUTER_BOUND( '', #174, .T. );
#123 = PLANE( '', #175 );
#124 = PRODUCT_CONTEXT( '', #23, 'mechanical' );
#125 = PRODUCT_DEFINITION_FORMATION_WITH_SPECIFIED_SOURCE( ' ', 'NONE', #62, .NOT_KNOWN. );
#126 = CLOSED_SHELL( '', ( #37, #41, #49, #43, #59, #45, #55, #57, #39, #47, #51, #61, #53 ) );
#127 = CARTESIAN_POINT( '', ( 0.000000000000000, 0.000000000000000, 0.000000000000000 ) );
#128 = DIRECTION( '', ( 0.000000000000000, 0.000000000000000, 1.00000000000000 ) );
#129 = DIRECTION( '', ( 1.00000000000000, 0.000000000000000, 0.000000000000000 ) );
#130 =  ( LENGTH_UNIT(  )NAMED_UNIT( #71 )SI_UNIT( .MILLI., .METRE. ) );
#131 = SURFACE_SIDE_STYLE( '', ( #177 ) );
#132 = EDGE_LOOP( '', ( #178, #179, #180, #181, #182, #183 ) );
#133 = AXIS2_PLACEMENT_3D( '', #184, #185, #186 );
#134 = SURFACE_SIDE_STYLE( '', ( #187 ) );
#135 = EDGE_LOOP( '', ( #188, #189, #190, #191 ) );
#136 = AXIS2_PLACEMENT_3D( '', #192, #193, #194 );
#137 = SURFACE_SIDE_STYLE( '', ( #195 ) );
#138 = EDGE_LOOP( '', ( #196, #197, #198, #199, #200, #201 ) );
#139 = AXIS2_PLACEMENT_3D( '', #202, #203, #204 );
#140 = SURFACE_SIDE_STYLE( '', ( #205 ) );
#141 = EDGE_LOOP( '', ( #206 ) );
#142 = EDGE_LOOP( '', ( #207 ) );
#143 = AXIS2_PLACEMENT_3D( '', #208, #209, #210 );
#144 = SURFACE_SIDE_STYLE( '', ( #211 ) );
#145 = EDGE_LOOP( '', ( #212 ) );
#146 = EDGE_LOOP( '', ( #213 ) );
#147 = AXIS2_PLACEMENT_3D( '', #214, #215, #216 );
#148 = SURFACE_SIDE_STYLE( '', ( #217 ) );
#149 = EDGE_LOOP( '', ( #218, #219 ) );
#150 = AXIS2_PLACEMENT_3D( '', #220, #221, #222 );
#151 = SURFACE_SIDE_STYLE( '', ( #223 ) );
#152 = VERTEX_LOOP( '', #224 );
#153 = EDGE_LOOP( '', ( #225 ) );
#154 = AXIS2_PLACEMENT_3D( '', #226, #227, #228 );
#155 = SURFACE_SIDE_STYLE( '', ( #229 ) );
#156 = EDGE_LOOP( '', ( #230, #231, #232, #233 ) );
#157 = AXIS2_PLACEMENT_3D( '', #234, #235, #236 );
#158 = SURFACE_SIDE_STYLE( '', ( #237 ) );
#159 = EDGE_LOOP( '', ( #238, #239, #240, #241 ) );
#160 = AXIS2_PLACEMENT_3D( '', #242, #243, #244 );
#161 = SURFACE_SIDE_STYLE( '', ( #245 ) );
#162 = EDGE_LOOP( '', ( #246 ) );
#163 = EDGE_LOOP( '', ( #247 ) );
#164 = AXIS2_PLACEMENT_3D( '', #248, #249, #250 );
#165 = SURFACE_SIDE_STYLE( '', ( #251 ) );
#166 = EDGE_LOOP( '', ( #252 ) );
#167 = EDGE_LOOP( '', ( #253, #254, #255, #256, #257, #258, #259, #260 ) );
#168 = AXIS2_PLACEMENT_3D( '', #261, #262, #263 );
#169 = SURFACE_SIDE_STYLE( '', ( #264 ) );
#170 = EDGE_LOOP( '', ( #265 ) );
#171 = EDGE_LOOP( '', ( #266 ) );
#172 = AXIS2_PLACEMENT_3D( '', #267, #268, #269 );
#173 = SURFACE_SIDE_STYLE( '', ( #270 ) );
#174 = EDGE_LOOP( '', ( #271, #272 ) );
#175 = AXIS2_PLACEMENT_3D( '', #273, #274, #275 );
#177 = SURFACE_STYLE_FILL_AREA( #276 );
#178 = ORIENTED_EDGE( '', *, *, #277, .F. );
#179 = ORIENTED_EDGE( '', *, *, #278, .T. );
#180 = ORIENTED_EDGE( '', *, *, #279, .F. );
#181 = ORIENTED_EDGE( '', *, *, #280, .F. );
#182 = ORIENTED_EDGE( '', *, *, #281, .F. );
#183 = ORIENTED_EDGE( '', *, *, #282, .F. );
#184 = CARTESIAN_POINT( '', ( 3.00000000000000, 0.900000000000006, 10.5000000000000 ) );
#185 = DIRECTION( '', ( 0.000000000000000, 1.00000000000000, 0.000000000000000 ) );
#186 = DIRECTION( '', ( 0.000000000000000, -0.000000000000000, 1.00000000000000 ) );
#187 = SURFACE_STYLE_FILL_AREA( #283 );
#188 = ORIENTED_EDGE( '', *, *, #284, .T. );
#189 = ORIENTED_EDGE( '', *, *, #277, .T. );
#190 = ORIENTED_EDGE( '', *, *, #285, .F. );
#191 = ORIENTED_EDGE( '', *, *, #279, .T. );
#192 = CARTESIAN_POINT( '', ( 0.000000000000000, 6.00200727709521E-15, 0.000000000000000 ) );
#193 = DIRECTION( '', ( 1.00000000000000, -6.12323399573677E-17, -0.000000000000000 ) );
#194 = DIRECTION( '', ( 6.12323399573677E-17, 1.00000000000000, 0.000000000000000 ) );
#195 = SURFACE_STYLE_FILL_AREA( #286 );
#196 = ORIENTED_EDGE( '', *, *, #287, .T. );
#197 = ORIENTED_EDGE( '', *, *, #288, .F. );
#198 = ORIENTED_EDGE( '', *, *, #289, .F. );
#199 = ORIENTED_EDGE( '', *, *, #290, .F. );
#200 = ORIENTED_EDGE( '', *, *, #291, .F. );
#201 = ORIENTED_EDGE( '', *, *, #292, .F. );
#202 = CARTESIAN_POINT( '', ( 3.00000000000000, -0.899999999999994, -10.5000000000000 ) );
#203 = DIRECTION( '', ( 0.000000000000000, -1.00000000000000, 0.000000000000000 ) );
#204 = DIRECTION( '', ( 0.000000000000000, 0.000000000000000, -1.00000000000000 ) );
#205 = SURFACE_STYLE_FILL_AREA( #293 );
#206 = ORIENTED_EDGE( '', *, *, #294, .F. );
#207 = ORIENTED_EDGE( '', *, *, #295, .T. );
#208 = CARTESIAN_POINT( '', ( 40.0000000000000, 3.55271367880050E-15, 0.000000000000000 ) );
#209 = DIRECTION( '', ( -1.00000000000000, 6.12323399573677E-17, 0.000000000000000 ) );
#210 = DIRECTION( '', ( 6.12323399573677E-17, 1.00000000000000, 0.000000000000000 ) );
#211 = SURFACE_STYLE_FILL_AREA( #296 );
#212 = ORIENTED_EDGE( '', *, *, #297, .F. );
#213 = ORIENTED_EDGE( '', *, *, #298, .T. );
#214 = CARTESIAN_POINT( '', ( 40.0000000000000, 3.55271367880050E-15, 0.000000000000000 ) );
#215 = DIRECTION( '', ( -1.00000000000000, 6.12323399573676E-17, 0.000000000000000 ) );
#216 = DIRECTION( '', ( 6.12323399573677E-17, 1.00000000000000, 0.000000000000000 ) );
#217 = SURFACE_STYLE_FILL_AREA( #299 );
#218 = ORIENTED_EDGE( '', *, *, #300, .F. );
#219 = ORIENTED_EDGE( '', *, *, #287, .F. );
#220 = CARTESIAN_POINT( '', ( -9.89820775410848E-17, 6.00200727709521E-15, 0.000000000000000 ) );
#221 = DIRECTION( '', ( 1.00000000000000, -6.12323399573677E-17, -0.000000000000000 ) );
#222 = DIRECTION( '', ( 6.12323399573677E-17, 1.00000000000000, 0.000000000000000 ) );
#223 = SURFACE_STYLE_FILL_AREA( #301 );
#224 = VERTEX_POINT( '', #302 );
#225 = ORIENTED_EDGE( '', *, *, #294, .T. );
#226 = CARTESIAN_POINT( '', ( 34.9678000000001, 2.94902990916057E-14, 0.000000000000000 ) );
#227 = DIRECTION( '', ( 1.00000000000000, 0.000000000000000, 0.000000000000000 ) );
#228 = DIRECTION( '', ( 0.000000000000000, -1.00000000000000, 0.000000000000000 ) );
#229 = SURFACE_STYLE_FILL_AREA( #303 );
#230 = ORIENTED_EDGE( '', *, *, #304, .F. );
#231 = ORIENTED_EDGE( '', *, *, #288, .T. );
#232 = ORIENTED_EDGE( '', *, *, #300, .T. );
#233 = ORIENTED_EDGE( '', *, *, #292, .T. );
#234 = CARTESIAN_POINT( '', ( 0.000000000000000, 6.00200727709521E-15, 0.000000000000000 ) );
#235 = DIRECTION( '', ( 1.00000000000000, -6.12323399573677E-17, -0.000000000000000 ) );
#236 = DIRECTION( '', ( 6.12323399573677E-17, 1.00000000000000, 0.000000000000000 ) );
#237 = SURFACE_STYLE_FILL_AREA( #305 );
#238 = ORIENTED_EDGE( '', *, *, #306, .T. );
#239 = ORIENTED_EDGE( '', *, *, #290, .T. );
#240 = ORIENTED_EDGE( '', *, *, #307, .T. );
#241 = ORIENTED_EDGE( '', *, *, #281, .T. );
#242 = CARTESIAN_POINT( '', ( 3.00000000000000, 0.000000000000000, 0.000000000000000 ) );
#243 = DIRECTION( '', ( -1.00000000000000, 0.000000000000000, 0.000000000000000 ) );
#244 = DIRECTION( '', ( 0.000000000000000, 0.000000000000000, 1.00000000000000 ) );
#245 = SURFACE_STYLE_FILL_AREA( #308 );
#246 = ORIENTED_EDGE( '', *, *, #298, .F. );
#247 = ORIENTED_EDGE( '', *, *, #309, .T. );
#248 = CARTESIAN_POINT( '', ( 32.5000000000000, 4.01195622848076E-15, 0.000000000000000 ) );
#249 = DIRECTION( '', ( -1.00000000000000, 6.12323399573677E-17, -0.000000000000000 ) );
#250 = DIRECTION( '', ( -6.12323399573677E-17, -1.00000000000000, 0.000000000000000 ) );
#251 = SURFACE_STYLE_FILL_AREA( #310 );
#252 = ORIENTED_EDGE( '', *, *, #309, .F. );
#253 = ORIENTED_EDGE( '', *, *, #304, .T. );
#254 = ORIENTED_EDGE( '', *, *, #291, .T. );
#255 = ORIENTED_EDGE( '', *, *, #306, .F. );
#256 = ORIENTED_EDGE( '', *, *, #280, .T. );
#257 = ORIENTED_EDGE( '', *, *, #285, .T. );
#258 = ORIENTED_EDGE( '', *, *, #282, .T. );
#259 = ORIENTED_EDGE( '', *, *, #307, .F. );
#260 = ORIENTED_EDGE( '', *, *, #289, .T. );
#261 = CARTESIAN_POINT( '', ( 40.0000000000000, 3.55271367880050E-15, 0.000000000000000 ) );
#262 = DIRECTION( '', ( -1.00000000000000, 6.12323399573677E-17, 0.000000000000000 ) );
#263 = DIRECTION( '', ( 6.12323399573677E-17, 1.00000000000000, 0.000000000000000 ) );
#264 = SURFACE_STYLE_FILL_AREA( #311 );
#265 = ORIENTED_EDGE( '', *, *, #295, .F. );
#266 = ORIENTED_EDGE( '', *, *, #297, .T. );
#267 = CARTESIAN_POINT( '', ( 37.0000000000000, 2.70000000000000, 0.000000000000000 ) );
#268 = DIRECTION( '', ( 1.00000000000000, -6.12323399573677E-17, -0.000000000000000 ) );
#269 = DIRECTION( '', ( 6.12323399573677E-17, 1.00000000000000, 0.000000000000000 ) );
#270 = SURFACE_STYLE_FILL_AREA( #312 );
#271 = ORIENTED_EDGE( '', *, *, #284, .F. );
#272 = ORIENTED_EDGE( '', *, *, #278, .F. );
#273 = CARTESIAN_POINT( '', ( -9.89820775410848E-17, 6.00200727709521E-15, 0.000000000000000 ) );
#274 = DIRECTION( '', ( 1.00000000000000, -6.12323399573677E-17, -0.000000000000000 ) );
#275 = DIRECTION( '', ( 6.12323399573677E-17, 1.00000000000000, 0.000000000000000 ) );
#276 = FILL_AREA_STYLE( '', ( #313 ) );
#277 = EDGE_CURVE( '', #314, #315, #316, .T. );
#278 = EDGE_CURVE( '', #314, #317, #318, .T. );
#279 = EDGE_CURVE( '', #319, #317, #320, .T. );
#280 = EDGE_CURVE( '', #321, #319, #322, .F. );
#281 = EDGE_CURVE( '', #323, #321, #324, .T. );
#282 = EDGE_CURVE( '', #315, #323, #325, .T. );
#283 = FILL_AREA_STYLE( '', ( #326 ) );
#284 = EDGE_CURVE( '', #317, #314, #327, .T. );
#285 = EDGE_CURVE( '', #319, #315, #328, .T. );
#286 = FILL_AREA_STYLE( '', ( #329 ) );
#287 = EDGE_CURVE( '', #330, #331, #332, .T. );
#288 = EDGE_CURVE( '', #333, #331, #334, .T. );
#289 = EDGE_CURVE( '', #335, #333, #336, .F. );
#290 = EDGE_CURVE( '', #337, #335, #338, .T. );
#291 = EDGE_CURVE( '', #339, #337, #340, .T. );
#292 = EDGE_CURVE( '', #330, #339, #341, .T. );
#293 = FILL_AREA_STYLE( '', ( #342 ) );
#294 = EDGE_CURVE( '', #343, #343, #344, .T. );
#295 = EDGE_CURVE( '', #345, #345, #346, .T. );
#296 = FILL_AREA_STYLE( '', ( #347 ) );
#297 = EDGE_CURVE( '', #348, #348, #349, .T. );
#298 = EDGE_CURVE( '', #350, #350, #351, .T. );
#299 = FILL_AREA_STYLE( '', ( #352 ) );
#300 = EDGE_CURVE( '', #331, #330, #353, .T. );
#301 = FILL_AREA_STYLE( '', ( #354 ) );
#302 = CARTESIAN_POINT( '', ( 40.0000000000000, 2.88740323293388E-14, 0.000000000000000 ) );
#303 = FILL_AREA_STYLE( '', ( #355 ) );
#304 = EDGE_CURVE( '', #333, #339, #356, .T. );
#305 = FILL_AREA_STYLE( '', ( #357 ) );
#306 = EDGE_CURVE( '', #321, #337, #358, .T. );
#307 = EDGE_CURVE( '', #335, #323, #359, .T. );
#308 = FILL_AREA_STYLE( '', ( #360 ) );
#309 = EDGE_CURVE( '', #361, #361, #362, .T. );
#310 = FILL_AREA_STYLE( '', ( #363 ) );
#311 = FILL_AREA_STYLE( '', ( #364 ) );
#312 = FILL_AREA_STYLE( '', ( #365 ) );
#313 = FILL_AREA_STYLE_COLOUR( '', #366 );
#314 = VERTEX_POINT( '', #367 );
#315 = VERTEX_POINT( '', #368 );
#316 = B_SPLINE_CURVE_WITH_KNOTS( '', 3, ( #369, #370, #371, #372 ), .UNSPECIFIED., .F., .F., ( 4, 4 ), ( 0.0158157249040059, 0.0169130244324276 ), .UNSPECIFIED. );
#317 = VERTEX_POINT( '', #373 );
#318 = LINE( '', #374, #375 );
#319 = VERTEX_POINT( '', #376 );
#320 = B_SPLINE_CURVE_WITH_KNOTS( '', 3, ( #377, #378, #379, #380 ), .UNSPECIFIED., .F., .F., ( 4, 4 ), ( 0.00685941369446052, 0.00796210091278452 ), .UNSPECIFIED. );
#321 = VERTEX_POINT( '', #381 );
#322 = LINE( '', #382, #383 );
#323 = VERTEX_POINT( '', #384 );
#324 = LINE( '', #385, #386 );
#325 = LINE( '', #387, #388 );
#326 = FILL_AREA_STYLE_COLOUR( '', #389 );
#327 = CIRCLE( '', #390, 3.23300000000000 );
#328 = CIRCLE( '', #391, 4.00000000000000 );
#329 = FILL_AREA_STYLE_COLOUR( '', #392 );
#330 = VERTEX_POINT( '', #393 );
#331 = VERTEX_POINT( '', #394 );
#332 = LINE( '', #395, #396 );
#333 = VERTEX_POINT( '', #397 );
#334 = B_SPLINE_CURVE_WITH_KNOTS( '', 3, ( #398, #399, #400, #401 ), .UNSPECIFIED., .F., .F., ( 4, 4 ), ( 0.00685941369446052, 0.00796210091278451 ), .UNSPECIFIED. );
#335 = VERTEX_POINT( '', #402 );
#336 = LINE( '', #403, #404 );
#337 = VERTEX_POINT( '', #405 );
#338 = LINE( '', #406, #407 );
#339 = VERTEX_POINT( '', #408 );
#340 = LINE( '', #409, #410 );
#341 = B_SPLINE_CURVE_WITH_KNOTS( '', 3, ( #411, #412, #413, #414 ), .UNSPECIFIED., .F., .F., ( 4, 4 ), ( 0.0158157249040059, 0.0169130244324276 ), .UNSPECIFIED. );
#342 = FILL_AREA_STYLE_COLOUR( '', #415 );
#343 = VERTEX_POINT( '', #416 );
#344 = CIRCLE( '', #417, 3.00000000000000 );
#345 = VERTEX_POINT( '', #418 );
#346 = CIRCLE( '', #419, 3.00000000000000 );
#347 = FILL_AREA_STYLE_COLOUR( '', #420 );
#348 = VERTEX_POINT( '', #421 );
#349 = CIRCLE( '', #422, 2.70000000000000 );
#350 = VERTEX_POINT( '', #423 );
#351 = CIRCLE( '', #424, 2.70000000000000 );
#352 = FILL_AREA_STYLE_COLOUR( '', #425 );
#353 = CIRCLE( '', #426, 3.23300000000000 );
#354 = FILL_AREA_STYLE_COLOUR( '', #427 );
#355 = FILL_AREA_STYLE_COLOUR( '', #428 );
#356 = CIRCLE( '', #429, 4.00000000000000 );
#357 = FILL_AREA_STYLE_COLOUR( '', #430 );
#358 = CIRCLE( '', #431, 4.00000000000000 );
#359 = CIRCLE( '', #432, 4.00000000000000 );
#360 = FILL_AREA_STYLE_COLOUR( '', #433 );
#361 = VERTEX_POINT( '', #434 );
#362 = CIRCLE( '', #435, 4.00000000000000 );
#363 = FILL_AREA_STYLE_COLOUR( '', #436 );
#364 = FILL_AREA_STYLE_COLOUR( '', #437 );
#365 = FILL_AREA_STYLE_COLOUR( '', #438 );
#366 = COLOUR_RGB( '', 0.689999997600000, 0.689999997600000, 0.689999997600000 );
#367 = CARTESIAN_POINT( '', ( 0.000000000000000, 0.900000000000006, 3.10520353600211 ) );
#368 = CARTESIAN_POINT( '', ( 0.767000000000004, 0.900000000000008, 3.89743505398101 ) );
#369 = CARTESIAN_POINT( '', ( -1.39402322506363E-15, 0.900000000000006, 3.10520353600211 ) );
#370 = CARTESIAN_POINT( '', ( 0.254623855499880, 0.900000000000006, 3.37030658489628 ) );
#371 = CARTESIAN_POINT( '', ( 0.510496360619596, 0.900000000000006, 3.63418126185596 ) );
#372 = CARTESIAN_POINT( '', ( 0.767000000000000, 0.900000000000006, 3.89743505398102 ) );
#373 = CARTESIAN_POINT( '', ( 0.000000000000000, 0.900000000000006, -3.10520353600211 ) );
#374 = CARTESIAN_POINT( '', ( 0.000000000000000, 0.900000000000006, 10.5000000000000 ) );
#375 = VECTOR( '', #439, 1000.00000000000 );
#376 = CARTESIAN_POINT( '', ( 0.767000000000004, 0.900000000000008, -3.89743505398101 ) );
#377 = CARTESIAN_POINT( '', ( 0.767000000000000, 0.900000000000006, -3.89743505398102 ) );
#378 = CARTESIAN_POINT( '', ( 0.510490421567082, 0.900000000000006, -3.63417516651128 ) );
#379 = CARTESIAN_POINT( '', ( 0.254616510453989, 0.900000000000006, -3.37029893756074 ) );
#380 = CARTESIAN_POINT( '', ( 6.25771914247649E-16, 0.900000000000006, -3.10520353600211 ) );
#381 = CARTESIAN_POINT( '', ( 3.00000000000000, 0.900000000000006, -3.89743505398101 ) );
#382 = CARTESIAN_POINT( '', ( 40.0000000000000, 0.900000000000006, -3.89743505398101 ) );
#383 = VECTOR( '', #440, 1000.00000000000 );
#384 = CARTESIAN_POINT( '', ( 3.00000000000000, 0.900000000000006, 3.89743505398101 ) );
#385 = CARTESIAN_POINT( '', ( 3.00000000000000, 0.900000000000006, 10.5000000000000 ) );
#386 = VECTOR( '', #441, 1000.00000000000 );
#387 = CARTESIAN_POINT( '', ( 40.0000000000000, 0.900000000000006, 3.89743505398101 ) );
#388 = VECTOR( '', #442, 1000.00000000000 );
#389 = COLOUR_RGB( '', 0.689999997600000, 0.689999997600000, 0.689999997600000 );
#390 = AXIS2_PLACEMENT_3D( '', #443, #444, #445 );
#391 = AXIS2_PLACEMENT_3D( '', #446, #447, #448 );
#392 = COLOUR_RGB( '', 0.689999997600000, 0.689999997600000, 0.689999997600000 );
#393 = CARTESIAN_POINT( '', ( 0.000000000000000, -0.899999999999994, -3.10520353600211 ) );
#394 = CARTESIAN_POINT( '', ( 0.000000000000000, -0.899999999999994, 3.10520353600211 ) );
#395 = CARTESIAN_POINT( '', ( 0.000000000000000, -0.899999999999994, -10.5000000000000 ) );
#396 = VECTOR( '', #449, 1000.00000000000 );
#397 = CARTESIAN_POINT( '', ( 0.767000000000004, -0.899999999999992, 3.89743505398102 ) );
#398 = CARTESIAN_POINT( '', ( 0.766999999999999, -0.899999999999994, 3.89743505398102 ) );
#399 = CARTESIAN_POINT( '', ( 0.510490421567081, -0.899999999999994, 3.63417516651127 ) );
#400 = CARTESIAN_POINT( '', ( 0.254616510453987, -0.899999999999994, 3.37029893756073 ) );
#401 = CARTESIAN_POINT( '', ( -1.59249995932834E-15, -0.899999999999994, 3.10520353600211 ) );
#402 = CARTESIAN_POINT( '', ( 3.00000000000000, -0.899999999999994, 3.89743505398101 ) );
#403 = CARTESIAN_POINT( '', ( 40.0000000000000, -0.899999999999994, 3.89743505398102 ) );
#404 = VECTOR( '', #450, 1000.00000000000 );
#405 = CARTESIAN_POINT( '', ( 3.00000000000000, -0.899999999999994, -3.89743505398101 ) );
#406 = CARTESIAN_POINT( '', ( 3.00000000000000, -0.899999999999994, -10.5000000000000 ) );
#407 = VECTOR( '', #451, 1000.00000000000 );
#408 = CARTESIAN_POINT( '', ( 0.767000000000004, -0.899999999999992, -3.89743505398102 ) );
#409 = CARTESIAN_POINT( '', ( 40.0000000000000, -0.899999999999994, -3.89743505398102 ) );
#410 = VECTOR( '', #452, 1000.00000000000 );
#411 = CARTESIAN_POINT( '', ( -2.56229099095225E-16, -0.899999999999994, -3.10520353600211 ) );
#412 = CARTESIAN_POINT( '', ( 0.254623855499881, -0.899999999999994, -3.37030658489628 ) );
#413 = CARTESIAN_POINT( '', ( 0.510496360619597, -0.899999999999994, -3.63418126185597 ) );
#414 = CARTESIAN_POINT( '', ( 0.767000000000001, -0.899999999999994, -3.89743505398102 ) );
#415 = COLOUR_RGB( '', 0.689999997600000, 0.689999997600000, 0.689999997600000 );
#416 = CARTESIAN_POINT( '', ( 39.0079778228192, 3.00000000000000, 0.000000000000000 ) );
#417 = AXIS2_PLACEMENT_3D( '', #453, #454, #455 );
#418 = CARTESIAN_POINT( '', ( 37.0000000000000, 3.00000000000000, 0.000000000000000 ) );
#419 = AXIS2_PLACEMENT_3D( '', #456, #457, #458 );
#420 = COLOUR_RGB( '', 0.689999997600000, 0.689999997600000, 0.689999997600000 );
#421 = CARTESIAN_POINT( '', ( 37.0000000000000, 2.70000000000000, 0.000000000000000 ) );
#422 = AXIS2_PLACEMENT_3D( '', #459, #460, #461 );
#423 = CARTESIAN_POINT( '', ( 33.2217250000000, 2.70000000000000, 0.000000000000000 ) );
#424 = AXIS2_PLACEMENT_3D( '', #462, #463, #464 );
#425 = COLOUR_RGB( '', 0.689999997600000, 0.689999997600000, 0.689999997600000 );
#426 = AXIS2_PLACEMENT_3D( '', #465, #466, #467 );
#427 = COLOUR_RGB( '', 0.689999997600000, 0.689999997600000, 0.689999997600000 );
#428 = COLOUR_RGB( '', 0.689999997600000, 0.689999997600000, 0.689999997600000 );
#429 = AXIS2_PLACEMENT_3D( '', #468, #469, #470 );
#430 = COLOUR_RGB( '', 0.689999997600000, 0.689999997600000, 0.689999997600000 );
#431 = AXIS2_PLACEMENT_3D( '', #471, #472, #473 );
#432 = AXIS2_PLACEMENT_3D( '', #474, #475, #476 );
#433 = COLOUR_RGB( '', 0.689999997600000, 0.689999997600000, 0.689999997600000 );
#434 = CARTESIAN_POINT( '', ( 32.5000000000000, 4.00000000000000, 0.000000000000000 ) );
#435 = AXIS2_PLACEMENT_3D( '', #477, #478, #479 );
#436 = COLOUR_RGB( '', 0.689999997600000, 0.689999997600000, 0.689999997600000 );
#437 = COLOUR_RGB( '', 0.689999997600000, 0.689999997600000, 0.689999997600000 );
#438 = COLOUR_RGB( '', 0.689999997600000, 0.689999997600000, 0.689999997600000 );
#439 = DIRECTION( '', ( 0.000000000000000, 0.000000000000000, -1.00000000000000 ) );
#440 = DIRECTION( '', ( 1.00000000000000, -6.12323399573677E-17, -0.000000000000000 ) );
#441 = DIRECTION( '', ( 0.000000000000000, 0.000000000000000, -1.00000000000000 ) );
#442 = DIRECTION( '', ( 1.00000000000000, -6.12323399573677E-17, -0.000000000000000 ) );
#443 = CARTESIAN_POINT( '', ( 0.000000000000000, 6.00200727709521E-15, 0.000000000000000 ) );
#444 = DIRECTION( '', ( 1.00000000000000, -6.12323399573677E-17, -0.000000000000000 ) );
#445 = DIRECTION( '', ( 6.12323399573677E-17, 1.00000000000000, 0.000000000000000 ) );
#446 = CARTESIAN_POINT( '', ( 0.766999999999997, 5.95504207234791E-15, 0.000000000000000 ) );
#447 = DIRECTION( '', ( 1.00000000000000, -6.12323399573677E-17, -0.000000000000000 ) );
#448 = DIRECTION( '', ( 6.12323399573677E-17, 1.00000000000000, 0.000000000000000 ) );
#449 = DIRECTION( '', ( 0.000000000000000, 0.000000000000000, 1.00000000000000 ) );
#450 = DIRECTION( '', ( 1.00000000000000, -6.12323399573677E-17, -0.000000000000000 ) );
#451 = DIRECTION( '', ( 0.000000000000000, 0.000000000000000, 1.00000000000000 ) );
#452 = DIRECTION( '', ( 1.00000000000000, -6.12323399573677E-17, -0.000000000000000 ) );
#453 = CARTESIAN_POINT( '', ( 39.0079778228192, 3.61345751799888E-15, 0.000000000000000 ) );
#454 = DIRECTION( '', ( 1.00000000000000, -6.12323399573677E-17, -0.000000000000000 ) );
#455 = DIRECTION( '', ( 6.12323399573677E-17, 1.00000000000000, 0.000000000000000 ) );
#456 = CARTESIAN_POINT( '', ( 37.0000000000000, 3.73641069867260E-15, 0.000000000000000 ) );
#457 = DIRECTION( '', ( 1.00000000000000, -6.12323399573677E-17, -0.000000000000000 ) );
#458 = DIRECTION( '', ( 6.12323399573677E-17, 1.00000000000000, 0.000000000000000 ) );
#459 = CARTESIAN_POINT( '', ( 37.0000000000000, 3.73641069867260E-15, 0.000000000000000 ) );
#460 = DIRECTION( '', ( 1.00000000000000, -6.12323399573676E-17, -0.000000000000000 ) );
#461 = DIRECTION( '', ( 6.12323399573677E-17, 1.00000000000000, 0.000000000000000 ) );
#462 = CARTESIAN_POINT( '', ( 33.2217250000000, 3.96776331792503E-15, 0.000000000000000 ) );
#463 = DIRECTION( '', ( 1.00000000000000, -6.12323399573676E-17, -0.000000000000000 ) );
#464 = DIRECTION( '', ( 6.12323399573677E-17, 1.00000000000000, 0.000000000000000 ) );
#465 = CARTESIAN_POINT( '', ( 0.000000000000000, 6.00200727709521E-15, 0.000000000000000 ) );
#466 = DIRECTION( '', ( 1.00000000000000, -6.12323399573677E-17, -0.000000000000000 ) );
#467 = DIRECTION( '', ( 6.12323399573677E-17, 1.00000000000000, 0.000000000000000 ) );
#468 = CARTESIAN_POINT( '', ( 0.766999999999997, 5.95504207234791E-15, 0.000000000000000 ) );
#469 = DIRECTION( '', ( 1.00000000000000, -6.12323399573677E-17, -0.000000000000000 ) );
#470 = DIRECTION( '', ( 6.12323399573677E-17, 1.00000000000000, 0.000000000000000 ) );
#471 = CARTESIAN_POINT( '', ( 3.00000000000000, 5.81831025722310E-15, 0.000000000000000 ) );
#472 = DIRECTION( '', ( -1.00000000000000, 0.000000000000000, 0.000000000000000 ) );
#473 = DIRECTION( '', ( 0.000000000000000, 0.000000000000000, 1.00000000000000 ) );
#474 = CARTESIAN_POINT( '', ( 3.00000000000000, 5.81831025722310E-15, 0.000000000000000 ) );
#475 = DIRECTION( '', ( -1.00000000000000, 0.000000000000000, 0.000000000000000 ) );
#476 = DIRECTION( '', ( 0.000000000000000, 0.000000000000000, 1.00000000000000 ) );
#477 = CARTESIAN_POINT( '', ( 32.5000000000000, 4.01195622848076E-15, 0.000000000000000 ) );
#478 = DIRECTION( '', ( 1.00000000000000, -6.12323399573677E-17, -0.000000000000000 ) );
#479 = DIRECTION( '', ( 6.12323399573677E-17, 1.00000000000000, 0.000000000000000 ) );
ENDSEC;
END-ISO-10303-21;
