ISO-10303-21;
HEADER;
FILE_DESCRIPTION( ( 'STEP AP214' ), '1' );
FILE_NAME( '//goodhand-server/Shared Folders/GoodHand Data/Kipp CAD/K0762/K0762.130.stp', '2020-12-10T08:54:30', ( '' ), ( '' ), ' ', 'PARTsolutions', ' ' );
FILE_SCHEMA( ( 'AUTOMOTIVE_DESIGN { 1 0 10303 214 1 1 1 1 }' ) );
ENDSEC;
DATA;
#1 = MECHANICAL_DESIGN_GEOMETRIC_PRESENTATION_REPRESENTATION( ' ', ( #10, #11, #12, #13, #14, #15, #16, #17, #18, #19, #20, #21, #22, #23, #24 ), #6 );
#2 = PRODUCT_DEFINITION_CONTEXT( '', #25, 'design' );
#3 = APPLICATION_PROTOCOL_DEFINITION( 'international standard', 'automotive_design', 2001, #25 );
#4 = PRODUCT_CATEGORY_RELATIONSHIP( 'NONE', 'NONE', #26, #27 );
#5 = SHAPE_DEFINITION_REPRESENTATION( #28, #29 );
#6 =  ( GEOMETRIC_REPRESENTATION_CONTEXT( 3 )GLOBAL_UNCERTAINTY_ASSIGNED_CONTEXT( ( #32 ) )GLOBAL_UNIT_ASSIGNED_CONTEXT( ( #34, #35, #36 ) )REPRESENTATION_CONTEXT( 'NONE', 'WORKSPACE' ) );
#10 = STYLED_ITEM( '', ( #38 ), #39 );
#11 = STYLED_ITEM( '', ( #40 ), #41 );
#12 = STYLED_ITEM( '', ( #42 ), #43 );
#13 = STYLED_ITEM( '', ( #44 ), #45 );
#14 = STYLED_ITEM( '', ( #46 ), #47 );
#15 = STYLED_ITEM( '', ( #48 ), #49 );
#16 = STYLED_ITEM( '', ( #50 ), #51 );
#17 = STYLED_ITEM( '', ( #52 ), #53 );
#18 = STYLED_ITEM( '', ( #54 ), #55 );
#19 = STYLED_ITEM( '', ( #56 ), #57 );
#20 = STYLED_ITEM( '', ( #58 ), #59 );
#21 = STYLED_ITEM( '', ( #60 ), #61 );
#22 = STYLED_ITEM( '', ( #62 ), #63 );
#23 = STYLED_ITEM( '', ( #64 ), #65 );
#24 = STYLED_ITEM( '', ( #66 ), #67 );
#25 = APPLICATION_CONTEXT( 'core data for automotive mechanical design processes' );
#26 = PRODUCT_CATEGORY( 'part', 'NONE' );
#27 = PRODUCT_RELATED_PRODUCT_CATEGORY( 'detail', ' ', ( #68 ) );
#28 = PRODUCT_DEFINITION_SHAPE( 'NONE', 'NONE', #69 );
#29 = ADVANCED_BREP_SHAPE_REPRESENTATION( '_K0762.130', ( #70, #71 ), #6 );
#32 = UNCERTAINTY_MEASURE_WITH_UNIT( LENGTH_MEASURE( 0.00100000000000000 ), #34, '', '' );
#34 =  ( CONVERSION_BASED_UNIT( 'MILLIMETRE', #74 )LENGTH_UNIT(  )NAMED_UNIT( #77 ) );
#35 =  ( NAMED_UNIT( #79 )PLANE_ANGLE_UNIT(  )SI_UNIT( $, .RADIAN. ) );
#36 =  ( NAMED_UNIT( #79 )SI_UNIT( $, .STERADIAN. )SOLID_ANGLE_UNIT(  ) );
#38 = PRESENTATION_STYLE_ASSIGNMENT( ( #85 ) );
#39 = ADVANCED_FACE( '', ( #86, #87 ), #88, .T. );
#40 = PRESENTATION_STYLE_ASSIGNMENT( ( #89 ) );
#41 = ADVANCED_FACE( '', ( #90, #91 ), #92, .T. );
#42 = PRESENTATION_STYLE_ASSIGNMENT( ( #93 ) );
#43 = ADVANCED_FACE( '', ( #94, #95 ), #96, .T. );
#44 = PRESENTATION_STYLE_ASSIGNMENT( ( #97 ) );
#45 = ADVANCED_FACE( '', ( #98, #99, #100 ), #101, .F. );
#46 = PRESENTATION_STYLE_ASSIGNMENT( ( #102 ) );
#47 = ADVANCED_FACE( '', ( #103, #104 ), #105, .F. );
#48 = PRESENTATION_STYLE_ASSIGNMENT( ( #106 ) );
#49 = ADVANCED_FACE( '', ( #107, #108 ), #109, .T. );
#50 = PRESENTATION_STYLE_ASSIGNMENT( ( #110 ) );
#51 = ADVANCED_FACE( '', ( #111, #112 ), #113, .T. );
#52 = PRESENTATION_STYLE_ASSIGNMENT( ( #114 ) );
#53 = ADVANCED_FACE( '', ( #115, #116 ), #117, .F. );
#54 = PRESENTATION_STYLE_ASSIGNMENT( ( #118 ) );
#55 = ADVANCED_FACE( '', ( #119, #120 ), #121, .F. );
#56 = PRESENTATION_STYLE_ASSIGNMENT( ( #122 ) );
#57 = ADVANCED_FACE( '', ( #123, #124 ), #125, .F. );
#58 = PRESENTATION_STYLE_ASSIGNMENT( ( #126 ) );
#59 = ADVANCED_FACE( '', ( #127, #128 ), #129, .T. );
#60 = PRESENTATION_STYLE_ASSIGNMENT( ( #130 ) );
#61 = ADVANCED_FACE( '', ( #131, #132 ), #133, .F. );
#62 = PRESENTATION_STYLE_ASSIGNMENT( ( #134 ) );
#63 = ADVANCED_FACE( '', ( #135, #136 ), #137, .T. );
#64 = PRESENTATION_STYLE_ASSIGNMENT( ( #138 ) );
#65 = ADVANCED_FACE( '', ( #139, #140 ), #141, .F. );
#66 = PRESENTATION_STYLE_ASSIGNMENT( ( #142 ) );
#67 = ADVANCED_FACE( '', ( #143 ), #144, .F. );
#68 = PRODUCT( '_K0762.130', '_K0762.130', 'PART-_K0762.130-DESC', ( #145 ) );
#69 = PRODUCT_DEFINITION( 'NONE', 'NONE', #146, #2 );
#70 = MANIFOLD_SOLID_BREP( '_K0762.130', #147 );
#71 = AXIS2_PLACEMENT_3D( '', #148, #149, #150 );
#74 = LENGTH_MEASURE_WITH_UNIT( LENGTH_MEASURE( 1.00000000000000 ), #151 );
#77 = DIMENSIONAL_EXPONENTS( 1.00000000000000, 0.000000000000000, 0.000000000000000, 0.000000000000000, 0.000000000000000, 0.000000000000000, 0.000000000000000 );
#79 = DIMENSIONAL_EXPONENTS( 0.000000000000000, 0.000000000000000, 0.000000000000000, 0.000000000000000, 0.000000000000000, 0.000000000000000, 0.000000000000000 );
#85 = SURFACE_STYLE_USAGE( .BOTH., #152 );
#86 = FACE_OUTER_BOUND( '', #153, .T. );
#87 = FACE_OUTER_BOUND( '', #154, .T. );
#88 = CYLINDRICAL_SURFACE( '', #155, 31.0000000000000 );
#89 = SURFACE_STYLE_USAGE( .BOTH., #156 );
#90 = FACE_OUTER_BOUND( '', #157, .T. );
#91 = FACE_OUTER_BOUND( '', #158, .T. );
#92 = TOROIDAL_SURFACE( '', #159, 30.5000000000000, 0.500000000000000 );
#93 = SURFACE_STYLE_USAGE( .BOTH., #160 );
#94 = FACE_OUTER_BOUND( '', #161, .T. );
#95 = FACE_OUTER_BOUND( '', #162, .T. );
#96 = CYLINDRICAL_SURFACE( '', #163, 24.1000000000000 );
#97 = SURFACE_STYLE_USAGE( .BOTH., #164 );
#98 = FACE_BOUND( '', #165, .T. );
#99 = FACE_OUTER_BOUND( '', #166, .T. );
#100 = FACE_OUTER_BOUND( '', #167, .T. );
#101 = TOROIDAL_SURFACE( '', #168, 10.2920308008000, 2.97466855790000 );
#102 = SURFACE_STYLE_USAGE( .BOTH., #169 );
#103 = FACE_OUTER_BOUND( '', #170, .T. );
#104 = FACE_OUTER_BOUND( '', #171, .T. );
#105 = TOROIDAL_SURFACE( '', #172, 24.6000000000000, 0.500000000000000 );
#106 = SURFACE_STYLE_USAGE( .BOTH., #173 );
#107 = FACE_OUTER_BOUND( '', #174, .T. );
#108 = FACE_OUTER_BOUND( '', #175, .T. );
#109 = TOROIDAL_SURFACE( '', #176, 23.6000000000000, 0.500000000000000 );
#110 = SURFACE_STYLE_USAGE( .BOTH., #177 );
#111 = FACE_BOUND( '', #178, .T. );
#112 = FACE_OUTER_BOUND( '', #179, .T. );
#113 = SPHERICAL_SURFACE( '', #180, 15.0000000000000 );
#114 = SURFACE_STYLE_USAGE( .BOTH., #181 );
#115 = FACE_OUTER_BOUND( '', #182, .T. );
#116 = FACE_BOUND( '', #183, .T. );
#117 = PLANE( '', #184 );
#118 = SURFACE_STYLE_USAGE( .BOTH., #185 );
#119 = FACE_OUTER_BOUND( '', #186, .T. );
#120 = FACE_BOUND( '', #187, .T. );
#121 = PLANE( '', #188 );
#122 = SURFACE_STYLE_USAGE( .BOTH., #189 );
#123 = FACE_OUTER_BOUND( '', #190, .T. );
#124 = FACE_OUTER_BOUND( '', #191, .T. );
#125 = CYLINDRICAL_SURFACE( '', #192, 28.0000000000000 );
#126 = SURFACE_STYLE_USAGE( .BOTH., #193 );
#127 = FACE_OUTER_BOUND( '', #194, .T. );
#128 = FACE_OUTER_BOUND( '', #195, .T. );
#129 = TOROIDAL_SURFACE( '', #196, 30.5000000000000, 0.500000000000000 );
#130 = SURFACE_STYLE_USAGE( .BOTH., #197 );
#131 = FACE_BOUND( '', #198, .T. );
#132 = FACE_OUTER_BOUND( '', #199, .T. );
#133 = PLANE( '', #200 );
#134 = SURFACE_STYLE_USAGE( .BOTH., #201 );
#135 = FACE_OUTER_BOUND( '', #202, .T. );
#136 = FACE_OUTER_BOUND( '', #203, .T. );
#137 = TOROIDAL_SURFACE( '', #204, 11.5741114079000, 6.00000000000000 );
#138 = SURFACE_STYLE_USAGE( .BOTH., #205 );
#139 = FACE_OUTER_BOUND( '', #206, .T. );
#140 = FACE_BOUND( '', #207, .T. );
#141 = PLANE( '', #208 );
#142 = SURFACE_STYLE_USAGE( .BOTH., #209 );
#143 = FACE_OUTER_BOUND( '', #210, .T. );
#144 = PLANE( '', #211 );
#145 = PRODUCT_CONTEXT( '', #25, 'mechanical' );
#146 = PRODUCT_DEFINITION_FORMATION_WITH_SPECIFIED_SOURCE( ' ', 'NONE', #68, .NOT_KNOWN. );
#147 = CLOSED_SHELL( '', ( #49, #67, #43, #45, #65, #63, #55, #57, #53, #59, #39, #41, #61, #47, #51 ) );
#148 = CARTESIAN_POINT( '', ( 0.000000000000000, 0.000000000000000, 0.000000000000000 ) );
#149 = DIRECTION( '', ( 0.000000000000000, 0.000000000000000, 1.00000000000000 ) );
#150 = DIRECTION( '', ( 1.00000000000000, 0.000000000000000, 0.000000000000000 ) );
#151 =  ( LENGTH_UNIT(  )NAMED_UNIT( #77 )SI_UNIT( .MILLI., .METRE. ) );
#152 = SURFACE_SIDE_STYLE( '', ( #213 ) );
#153 = EDGE_LOOP( '', ( #214 ) );
#154 = EDGE_LOOP( '', ( #215 ) );
#155 = AXIS2_PLACEMENT_3D( '', #216, #217, #218 );
#156 = SURFACE_SIDE_STYLE( '', ( #219 ) );
#157 = EDGE_LOOP( '', ( #220 ) );
#158 = EDGE_LOOP( '', ( #221 ) );
#159 = AXIS2_PLACEMENT_3D( '', #222, #223, #224 );
#160 = SURFACE_SIDE_STYLE( '', ( #225 ) );
#161 = EDGE_LOOP( '', ( #226 ) );
#162 = EDGE_LOOP( '', ( #227 ) );
#163 = AXIS2_PLACEMENT_3D( '', #228, #229, #230 );
#164 = SURFACE_SIDE_STYLE( '', ( #231 ) );
#165 = VERTEX_LOOP( '', #232 );
#166 = EDGE_LOOP( '', ( #233 ) );
#167 = EDGE_LOOP( '', ( #234 ) );
#168 = AXIS2_PLACEMENT_3D( '', #235, #236, #237 );
#169 = SURFACE_SIDE_STYLE( '', ( #238 ) );
#170 = EDGE_LOOP( '', ( #239 ) );
#171 = EDGE_LOOP( '', ( #240 ) );
#172 = AXIS2_PLACEMENT_3D( '', #241, #242, #243 );
#173 = SURFACE_SIDE_STYLE( '', ( #244 ) );
#174 = EDGE_LOOP( '', ( #245 ) );
#175 = EDGE_LOOP( '', ( #246 ) );
#176 = AXIS2_PLACEMENT_3D( '', #247, #248, #249 );
#177 = SURFACE_SIDE_STYLE( '', ( #250 ) );
#178 = VERTEX_LOOP( '', #251 );
#179 = EDGE_LOOP( '', ( #252 ) );
#180 = AXIS2_PLACEMENT_3D( '', #253, #254, #255 );
#181 = SURFACE_SIDE_STYLE( '', ( #256 ) );
#182 = EDGE_LOOP( '', ( #257 ) );
#183 = EDGE_LOOP( '', ( #258 ) );
#184 = AXIS2_PLACEMENT_3D( '', #259, #260, #261 );
#185 = SURFACE_SIDE_STYLE( '', ( #262 ) );
#186 = EDGE_LOOP( '', ( #263 ) );
#187 = EDGE_LOOP( '', ( #264 ) );
#188 = AXIS2_PLACEMENT_3D( '', #265, #266, #267 );
#189 = SURFACE_SIDE_STYLE( '', ( #268 ) );
#190 = EDGE_LOOP( '', ( #269 ) );
#191 = EDGE_LOOP( '', ( #270 ) );
#192 = AXIS2_PLACEMENT_3D( '', #271, #272, #273 );
#193 = SURFACE_SIDE_STYLE( '', ( #274 ) );
#194 = EDGE_LOOP( '', ( #275 ) );
#195 = EDGE_LOOP( '', ( #276 ) );
#196 = AXIS2_PLACEMENT_3D( '', #277, #278, #279 );
#197 = SURFACE_SIDE_STYLE( '', ( #280 ) );
#198 = EDGE_LOOP( '', ( #281 ) );
#199 = EDGE_LOOP( '', ( #282 ) );
#200 = AXIS2_PLACEMENT_3D( '', #283, #284, #285 );
#201 = SURFACE_SIDE_STYLE( '', ( #286 ) );
#202 = EDGE_LOOP( '', ( #287 ) );
#203 = EDGE_LOOP( '', ( #288 ) );
#204 = AXIS2_PLACEMENT_3D( '', #289, #290, #291 );
#205 = SURFACE_SIDE_STYLE( '', ( #292 ) );
#206 = EDGE_LOOP( '', ( #293 ) );
#207 = EDGE_LOOP( '', ( #294 ) );
#208 = AXIS2_PLACEMENT_3D( '', #295, #296, #297 );
#209 = SURFACE_SIDE_STYLE( '', ( #298 ) );
#210 = EDGE_LOOP( '', ( #299 ) );
#211 = AXIS2_PLACEMENT_3D( '', #300, #301, #302 );
#213 = SURFACE_STYLE_FILL_AREA( #303 );
#214 = ORIENTED_EDGE( '', *, *, #304, .F. );
#215 = ORIENTED_EDGE( '', *, *, #305, .T. );
#216 = CARTESIAN_POINT( '', ( 0.000000000000000, 0.000000000000000, 0.000000000000000 ) );
#217 = DIRECTION( '', ( -0.000000000000000, 1.00000000000000, 0.000000000000000 ) );
#218 = DIRECTION( '', ( 0.000000000000000, 0.000000000000000, -1.00000000000000 ) );
#219 = SURFACE_STYLE_FILL_AREA( #306 );
#220 = ORIENTED_EDGE( '', *, *, #304, .T. );
#221 = ORIENTED_EDGE( '', *, *, #307, .F. );
#222 = CARTESIAN_POINT( '', ( 0.000000000000000, 46.1000000000000, 0.000000000000000 ) );
#223 = DIRECTION( '', ( 0.000000000000000, -1.00000000000000, -0.000000000000000 ) );
#224 = DIRECTION( '', ( 0.000000000000000, 0.000000000000000, -1.00000000000000 ) );
#225 = SURFACE_STYLE_FILL_AREA( #308 );
#226 = ORIENTED_EDGE( '', *, *, #309, .F. );
#227 = ORIENTED_EDGE( '', *, *, #310, .T. );
#228 = CARTESIAN_POINT( '', ( 0.000000000000000, 0.000000000000000, 0.000000000000000 ) );
#229 = DIRECTION( '', ( -0.000000000000000, 1.00000000000000, 0.000000000000000 ) );
#230 = DIRECTION( '', ( 0.000000000000000, 0.000000000000000, -1.00000000000000 ) );
#231 = SURFACE_STYLE_FILL_AREA( #311 );
#232 = VERTEX_POINT( '', #312 );
#233 = ORIENTED_EDGE( '', *, *, #313, .F. );
#234 = ORIENTED_EDGE( '', *, *, #314, .T. );
#235 = CARTESIAN_POINT( '', ( 0.000000000000000, 62.3245775323365, 0.000000000000000 ) );
#236 = DIRECTION( '', ( 0.000000000000000, -1.00000000000000, -0.000000000000000 ) );
#237 = DIRECTION( '', ( 0.000000000000000, 0.000000000000000, -1.00000000000000 ) );
#238 = SURFACE_STYLE_FILL_AREA( #315 );
#239 = ORIENTED_EDGE( '', *, *, #310, .F. );
#240 = ORIENTED_EDGE( '', *, *, #316, .T. );
#241 = CARTESIAN_POINT( '', ( 0.000000000000000, 45.1000000000000, 0.000000000000000 ) );
#242 = DIRECTION( '', ( 0.000000000000000, -1.00000000000000, -0.000000000000000 ) );
#243 = DIRECTION( '', ( 0.000000000000000, 0.000000000000000, -1.00000000000000 ) );
#244 = SURFACE_STYLE_FILL_AREA( #317 );
#245 = ORIENTED_EDGE( '', *, *, #309, .T. );
#246 = ORIENTED_EDGE( '', *, *, #318, .F. );
#247 = CARTESIAN_POINT( '', ( 0.000000000000000, 0.499999999999999, 0.000000000000000 ) );
#248 = DIRECTION( '', ( 0.000000000000000, -1.00000000000000, -0.000000000000000 ) );
#249 = DIRECTION( '', ( 0.000000000000000, 0.000000000000000, -1.00000000000000 ) );
#250 = SURFACE_STYLE_FILL_AREA( #319 );
#251 = VERTEX_POINT( '', #320 );
#252 = ORIENTED_EDGE( '', *, *, #314, .F. );
#253 = CARTESIAN_POINT( '', ( -8.67361737988404E-16, 55.0000000000000, 0.000000000000000 ) );
#254 = DIRECTION( '', ( 0.000000000000000, -1.00000000000000, 0.000000000000000 ) );
#255 = DIRECTION( '', ( -1.00000000000000, 0.000000000000000, 0.000000000000000 ) );
#256 = SURFACE_STYLE_FILL_AREA( #321 );
#257 = ORIENTED_EDGE( '', *, *, #322, .F. );
#258 = ORIENTED_EDGE( '', *, *, #323, .T. );
#259 = CARTESIAN_POINT( '', ( 28.0000000000000, 63.3000000000000, 0.000000000000000 ) );
#260 = DIRECTION( '', ( 0.000000000000000, -1.00000000000000, -0.000000000000000 ) );
#261 = DIRECTION( '', ( 0.000000000000000, 0.000000000000000, -1.00000000000000 ) );
#262 = SURFACE_STYLE_FILL_AREA( #324 );
#263 = ORIENTED_EDGE( '', *, *, #325, .F. );
#264 = ORIENTED_EDGE( '', *, *, #326, .T. );
#265 = CARTESIAN_POINT( '', ( 17.0000000000000, 60.8000000000000, 0.000000000000000 ) );
#266 = DIRECTION( '', ( 0.000000000000000, -1.00000000000000, -0.000000000000000 ) );
#267 = DIRECTION( '', ( 0.000000000000000, 0.000000000000000, -1.00000000000000 ) );
#268 = SURFACE_STYLE_FILL_AREA( #327 );
#269 = ORIENTED_EDGE( '', *, *, #323, .F. );
#270 = ORIENTED_EDGE( '', *, *, #325, .T. );
#271 = CARTESIAN_POINT( '', ( 0.000000000000000, 0.000000000000000, 0.000000000000000 ) );
#272 = DIRECTION( '', ( -0.000000000000000, 1.00000000000000, 0.000000000000000 ) );
#273 = DIRECTION( '', ( 0.000000000000000, 0.000000000000000, -1.00000000000000 ) );
#274 = SURFACE_STYLE_FILL_AREA( #328 );
#275 = ORIENTED_EDGE( '', *, *, #322, .T. );
#276 = ORIENTED_EDGE( '', *, *, #305, .F. );
#277 = CARTESIAN_POINT( '', ( 0.000000000000000, 62.8000000000000, 0.000000000000000 ) );
#278 = DIRECTION( '', ( 0.000000000000000, -1.00000000000000, -0.000000000000000 ) );
#279 = DIRECTION( '', ( 0.000000000000000, 0.000000000000000, -1.00000000000000 ) );
#280 = SURFACE_STYLE_FILL_AREA( #329 );
#281 = ORIENTED_EDGE( '', *, *, #316, .F. );
#282 = ORIENTED_EDGE( '', *, *, #307, .T. );
#283 = CARTESIAN_POINT( '', ( 30.5000000000000, 45.6000000000000, 0.000000000000000 ) );
#284 = DIRECTION( '', ( 0.000000000000000, 1.00000000000000, 0.000000000000000 ) );
#285 = DIRECTION( '', ( 0.000000000000000, -0.000000000000000, 1.00000000000000 ) );
#286 = SURFACE_STYLE_FILL_AREA( #330 );
#287 = ORIENTED_EDGE( '', *, *, #331, .T. );
#288 = ORIENTED_EDGE( '', *, *, #326, .F. );
#289 = CARTESIAN_POINT( '', ( 0.000000000000000, 58.2388024311782, 0.000000000000000 ) );
#290 = DIRECTION( '', ( 0.000000000000000, -1.00000000000000, -0.000000000000000 ) );
#291 = DIRECTION( '', ( 0.000000000000000, 0.000000000000000, -1.00000000000000 ) );
#292 = SURFACE_STYLE_FILL_AREA( #332 );
#293 = ORIENTED_EDGE( '', *, *, #331, .F. );
#294 = ORIENTED_EDGE( '', *, *, #313, .T. );
#295 = CARTESIAN_POINT( '', ( 12.7500000000000, 64.0000000000000, 0.000000000000000 ) );
#296 = DIRECTION( '', ( 0.000000000000000, -1.00000000000000, -0.000000000000000 ) );
#297 = DIRECTION( '', ( 0.000000000000000, 0.000000000000000, -1.00000000000000 ) );
#298 = SURFACE_STYLE_FILL_AREA( #333 );
#299 = ORIENTED_EDGE( '', *, *, #318, .T. );
#300 = CARTESIAN_POINT( '', ( 23.6000000000000, -5.42101086242752E-16, 0.000000000000000 ) );
#301 = DIRECTION( '', ( 0.000000000000000, 1.00000000000000, 0.000000000000000 ) );
#302 = DIRECTION( '', ( 0.000000000000000, -0.000000000000000, 1.00000000000000 ) );
#303 = FILL_AREA_STYLE( '', ( #334 ) );
#304 = EDGE_CURVE( '', #335, #335, #336, .T. );
#305 = EDGE_CURVE( '', #337, #337, #338, .T. );
#306 = FILL_AREA_STYLE( '', ( #339 ) );
#307 = EDGE_CURVE( '', #340, #340, #341, .T. );
#308 = FILL_AREA_STYLE( '', ( #342 ) );
#309 = EDGE_CURVE( '', #343, #343, #344, .T. );
#310 = EDGE_CURVE( '', #345, #345, #346, .T. );
#311 = FILL_AREA_STYLE( '', ( #347 ) );
#312 = CARTESIAN_POINT( '', ( 0.000000000000000, 62.3245775323365, -13.2666993586967 ) );
#313 = EDGE_CURVE( '', #348, #348, #349, .T. );
#314 = EDGE_CURVE( '', #350, #350, #351, .T. );
#315 = FILL_AREA_STYLE( '', ( #352 ) );
#316 = EDGE_CURVE( '', #353, #353, #354, .T. );
#317 = FILL_AREA_STYLE( '', ( #355 ) );
#318 = EDGE_CURVE( '', #356, #356, #357, .T. );
#319 = FILL_AREA_STYLE( '', ( #358 ) );
#320 = CARTESIAN_POINT( '', ( -1.78584683734892E-15, 70.0000000000000, 0.000000000000000 ) );
#321 = FILL_AREA_STYLE( '', ( #359 ) );
#322 = EDGE_CURVE( '', #360, #360, #361, .T. );
#323 = EDGE_CURVE( '', #362, #362, #363, .T. );
#324 = FILL_AREA_STYLE( '', ( #364 ) );
#325 = EDGE_CURVE( '', #365, #365, #366, .T. );
#326 = EDGE_CURVE( '', #367, #367, #368, .T. );
#327 = FILL_AREA_STYLE( '', ( #369 ) );
#328 = FILL_AREA_STYLE( '', ( #370 ) );
#329 = FILL_AREA_STYLE( '', ( #371 ) );
#330 = FILL_AREA_STYLE( '', ( #372 ) );
#331 = EDGE_CURVE( '', #373, #373, #374, .T. );
#332 = FILL_AREA_STYLE( '', ( #375 ) );
#333 = FILL_AREA_STYLE( '', ( #376 ) );
#334 = FILL_AREA_STYLE_COLOUR( '', #377 );
#335 = VERTEX_POINT( '', #378 );
#336 = CIRCLE( '', #379, 31.0000000000000 );
#337 = VERTEX_POINT( '', #380 );
#338 = CIRCLE( '', #381, 31.0000000000000 );
#339 = FILL_AREA_STYLE_COLOUR( '', #382 );
#340 = VERTEX_POINT( '', #383 );
#341 = CIRCLE( '', #384, 30.5000000000000 );
#342 = FILL_AREA_STYLE_COLOUR( '', #385 );
#343 = VERTEX_POINT( '', #386 );
#344 = CIRCLE( '', #387, 24.1000000000000 );
#345 = VERTEX_POINT( '', #388 );
#346 = CIRCLE( '', #389, 24.1000000000000 );
#347 = FILL_AREA_STYLE_COLOUR( '', #390 );
#348 = VERTEX_POINT( '', #391 );
#349 = CIRCLE( '', #392, 12.7500000000000 );
#350 = VERTEX_POINT( '', #393 );
#351 = CIRCLE( '', #394, 13.2518475885000 );
#352 = FILL_AREA_STYLE_COLOUR( '', #395 );
#353 = VERTEX_POINT( '', #396 );
#354 = CIRCLE( '', #397, 24.6000000000000 );
#355 = FILL_AREA_STYLE_COLOUR( '', #398 );
#356 = VERTEX_POINT( '', #399 );
#357 = CIRCLE( '', #400, 23.6000000000000 );
#358 = FILL_AREA_STYLE_COLOUR( '', #401 );
#359 = FILL_AREA_STYLE_COLOUR( '', #402 );
#360 = VERTEX_POINT( '', #403 );
#361 = CIRCLE( '', #404, 30.5000000000000 );
#362 = VERTEX_POINT( '', #405 );
#363 = CIRCLE( '', #406, 28.0000000000000 );
#364 = FILL_AREA_STYLE_COLOUR( '', #407 );
#365 = VERTEX_POINT( '', #408 );
#366 = CIRCLE( '', #409, 28.0000000000000 );
#367 = VERTEX_POINT( '', #410 );
#368 = CIRCLE( '', #411, 17.0000000000000 );
#369 = FILL_AREA_STYLE_COLOUR( '', #412 );
#370 = FILL_AREA_STYLE_COLOUR( '', #413 );
#371 = FILL_AREA_STYLE_COLOUR( '', #414 );
#372 = FILL_AREA_STYLE_COLOUR( '', #415 );
#373 = VERTEX_POINT( '', #416 );
#374 = CIRCLE( '', #417, 13.2500000000000 );
#375 = FILL_AREA_STYLE_COLOUR( '', #418 );
#376 = FILL_AREA_STYLE_COLOUR( '', #419 );
#377 = COLOUR_RGB( '', 0.689999997600000, 0.689999997600000, 0.689999997600000 );
#378 = CARTESIAN_POINT( '', ( 0.000000000000000, 46.1000000000000, -31.0000000000000 ) );
#379 = AXIS2_PLACEMENT_3D( '', #420, #421, #422 );
#380 = CARTESIAN_POINT( '', ( 0.000000000000000, 62.8000000000000, -31.0000000000000 ) );
#381 = AXIS2_PLACEMENT_3D( '', #423, #424, #425 );
#382 = COLOUR_RGB( '', 0.689999997600000, 0.689999997600000, 0.689999997600000 );
#383 = CARTESIAN_POINT( '', ( 0.000000000000000, 45.6000000000000, -30.5000000000000 ) );
#384 = AXIS2_PLACEMENT_3D( '', #426, #427, #428 );
#385 = COLOUR_RGB( '', 0.689999997600000, 0.689999997600000, 0.689999997600000 );
#386 = CARTESIAN_POINT( '', ( 0.000000000000000, 0.500000000000000, -24.1000000000000 ) );
#387 = AXIS2_PLACEMENT_3D( '', #429, #430, #431 );
#388 = CARTESIAN_POINT( '', ( 0.000000000000000, 45.1000000000000, -24.1000000000000 ) );
#389 = AXIS2_PLACEMENT_3D( '', #432, #433, #434 );
#390 = COLOUR_RGB( '', 0.689999997600000, 0.689999997600000, 0.689999997600000 );
#391 = CARTESIAN_POINT( '', ( 0.000000000000000, 64.0000000000000, -12.7500000000000 ) );
#392 = AXIS2_PLACEMENT_3D( '', #435, #436, #437 );
#393 = CARTESIAN_POINT( '', ( 13.2518475885101, 62.0276977375880, 0.000000000000000 ) );
#394 = AXIS2_PLACEMENT_3D( '', #438, #439, #440 );
#395 = COLOUR_RGB( '', 0.689999997600000, 0.689999997600000, 0.689999997600000 );
#396 = CARTESIAN_POINT( '', ( 0.000000000000000, 45.6000000000000, -24.6000000000000 ) );
#397 = AXIS2_PLACEMENT_3D( '', #441, #442, #443 );
#398 = COLOUR_RGB( '', 0.689999997600000, 0.689999997600000, 0.689999997600000 );
#399 = CARTESIAN_POINT( '', ( 0.000000000000000, -1.08420217248550E-15, -23.6000000000000 ) );
#400 = AXIS2_PLACEMENT_3D( '', #444, #445, #446 );
#401 = COLOUR_RGB( '', 0.689999997600000, 0.689999997600000, 0.689999997600000 );
#402 = COLOUR_RGB( '', 0.689999997600000, 0.689999997600000, 0.689999997600000 );
#403 = CARTESIAN_POINT( '', ( 0.000000000000000, 63.3000000000000, -30.5000000000000 ) );
#404 = AXIS2_PLACEMENT_3D( '', #447, #448, #449 );
#405 = CARTESIAN_POINT( '', ( 0.000000000000000, 63.3000000000000, -28.0000000000000 ) );
#406 = AXIS2_PLACEMENT_3D( '', #450, #451, #452 );
#407 = COLOUR_RGB( '', 0.689999997600000, 0.689999997600000, 0.689999997600000 );
#408 = CARTESIAN_POINT( '', ( 0.000000000000000, 60.8000000000000, -28.0000000000000 ) );
#409 = AXIS2_PLACEMENT_3D( '', #453, #454, #455 );
#410 = CARTESIAN_POINT( '', ( 0.000000000000000, 60.8000000000000, -17.0000000000000 ) );
#411 = AXIS2_PLACEMENT_3D( '', #456, #457, #458 );
#412 = COLOUR_RGB( '', 0.689999997600000, 0.689999997600000, 0.689999997600000 );
#413 = COLOUR_RGB( '', 0.689999997600000, 0.689999997600000, 0.689999997600000 );
#414 = COLOUR_RGB( '', 0.689999997600000, 0.689999997600000, 0.689999997600000 );
#415 = COLOUR_RGB( '', 0.689999997600000, 0.689999997600000, 0.689999997600000 );
#416 = CARTESIAN_POINT( '', ( 0.000000000000000, 64.0000000000000, -13.2500000000000 ) );
#417 = AXIS2_PLACEMENT_3D( '', #459, #460, #461 );
#418 = COLOUR_RGB( '', 0.689999997600000, 0.689999997600000, 0.689999997600000 );
#419 = COLOUR_RGB( '', 0.689999997600000, 0.689999997600000, 0.689999997600000 );
#420 = CARTESIAN_POINT( '', ( 0.000000000000000, 46.1000000000000, 0.000000000000000 ) );
#421 = DIRECTION( '', ( 0.000000000000000, -1.00000000000000, -0.000000000000000 ) );
#422 = DIRECTION( '', ( 0.000000000000000, 0.000000000000000, -1.00000000000000 ) );
#423 = CARTESIAN_POINT( '', ( 0.000000000000000, 62.8000000000000, 0.000000000000000 ) );
#424 = DIRECTION( '', ( 0.000000000000000, -1.00000000000000, -0.000000000000000 ) );
#425 = DIRECTION( '', ( 0.000000000000000, 0.000000000000000, -1.00000000000000 ) );
#426 = CARTESIAN_POINT( '', ( 0.000000000000000, 45.6000000000000, 0.000000000000000 ) );
#427 = DIRECTION( '', ( 0.000000000000000, -1.00000000000000, -0.000000000000000 ) );
#428 = DIRECTION( '', ( 0.000000000000000, 0.000000000000000, -1.00000000000000 ) );
#429 = CARTESIAN_POINT( '', ( 0.000000000000000, 0.500000000000000, 0.000000000000000 ) );
#430 = DIRECTION( '', ( 0.000000000000000, -1.00000000000000, -0.000000000000000 ) );
#431 = DIRECTION( '', ( 0.000000000000000, 0.000000000000000, -1.00000000000000 ) );
#432 = CARTESIAN_POINT( '', ( 0.000000000000000, 45.1000000000000, 0.000000000000000 ) );
#433 = DIRECTION( '', ( 0.000000000000000, -1.00000000000000, -0.000000000000000 ) );
#434 = DIRECTION( '', ( 0.000000000000000, 0.000000000000000, -1.00000000000000 ) );
#435 = CARTESIAN_POINT( '', ( 0.000000000000000, 64.0000000000000, 0.000000000000000 ) );
#436 = DIRECTION( '', ( 0.000000000000000, -1.00000000000000, -0.000000000000000 ) );
#437 = DIRECTION( '', ( 0.000000000000000, 0.000000000000000, -1.00000000000000 ) );
#438 = CARTESIAN_POINT( '', ( -1.75779540601390E-17, 62.0276977375880, 0.000000000000000 ) );
#439 = DIRECTION( '', ( -5.92089942497829E-17, -1.00000000000000, 0.000000000000000 ) );
#440 = DIRECTION( '', ( 1.00000000000000, -5.92089942497829E-17, 0.000000000000000 ) );
#441 = CARTESIAN_POINT( '', ( 0.000000000000000, 45.6000000000000, 0.000000000000000 ) );
#442 = DIRECTION( '', ( 0.000000000000000, -1.00000000000000, -0.000000000000000 ) );
#443 = DIRECTION( '', ( 0.000000000000000, 0.000000000000000, -1.00000000000000 ) );
#444 = CARTESIAN_POINT( '', ( 0.000000000000000, -1.08420217248550E-15, 0.000000000000000 ) );
#445 = DIRECTION( '', ( 0.000000000000000, -1.00000000000000, -0.000000000000000 ) );
#446 = DIRECTION( '', ( 0.000000000000000, 0.000000000000000, -1.00000000000000 ) );
#447 = CARTESIAN_POINT( '', ( 0.000000000000000, 63.3000000000000, 0.000000000000000 ) );
#448 = DIRECTION( '', ( 0.000000000000000, -1.00000000000000, -0.000000000000000 ) );
#449 = DIRECTION( '', ( 0.000000000000000, 0.000000000000000, -1.00000000000000 ) );
#450 = CARTESIAN_POINT( '', ( 0.000000000000000, 63.3000000000000, 0.000000000000000 ) );
#451 = DIRECTION( '', ( 0.000000000000000, -1.00000000000000, -0.000000000000000 ) );
#452 = DIRECTION( '', ( 0.000000000000000, 0.000000000000000, -1.00000000000000 ) );
#453 = CARTESIAN_POINT( '', ( 0.000000000000000, 60.8000000000000, 0.000000000000000 ) );
#454 = DIRECTION( '', ( 0.000000000000000, -1.00000000000000, -0.000000000000000 ) );
#455 = DIRECTION( '', ( 0.000000000000000, 0.000000000000000, -1.00000000000000 ) );
#456 = CARTESIAN_POINT( '', ( 0.000000000000000, 60.8000000000000, 0.000000000000000 ) );
#457 = DIRECTION( '', ( 0.000000000000000, -1.00000000000000, -0.000000000000000 ) );
#458 = DIRECTION( '', ( 0.000000000000000, 0.000000000000000, -1.00000000000000 ) );
#459 = CARTESIAN_POINT( '', ( 0.000000000000000, 64.0000000000000, 0.000000000000000 ) );
#460 = DIRECTION( '', ( 0.000000000000000, -1.00000000000000, -0.000000000000000 ) );
#461 = DIRECTION( '', ( 0.000000000000000, 0.000000000000000, -1.00000000000000 ) );
ENDSEC;
END-ISO-10303-21;
