ISO-10303-21;
HEADER;
FILE_DESCRIPTION( ( 'STEP AP214' ), '1' );
FILE_NAME( '//goodhand-server/Shared Folders/GoodHand Data/Kipp CAD/K0760/K0760.130.stp', '2020-12-10T08:52:10', ( '' ), ( '' ), ' ', 'PARTsolutions', ' ' );
FILE_SCHEMA( ( 'AUTOMOTIVE_DESIGN { 1 0 10303 214 1 1 1 1 }' ) );
ENDSEC;
DATA;
#1 = MECHANICAL_DESIGN_GEOMETRIC_PRESENTATION_REPRESENTATION( ' ', ( #10, #11, #12, #13, #14, #15, #16, #17, #18, #19, #20, #21, #22, #23, #24 ), #6 );
#2 = PRODUCT_DEFINITION_CONTEXT( '', #25, 'design' );
#3 = APPLICATION_PROTOCOL_DEFINITION( 'international standard', 'automotive_design', 2001, #25 );
#4 = PRODUCT_CATEGORY_RELATIONSHIP( 'NONE', 'NONE', #26, #27 );
#5 = SHAPE_DEFINITION_REPRESENTATION( #28, #29 );
#6 =  ( GEOMETRIC_REPRESENTATION_CONTEXT( 3 )GLOBAL_UNCERTAINTY_ASSIGNED_CONTEXT( ( #32 ) )GLOBAL_UNIT_ASSIGNED_CONTEXT( ( #34, #35, #36 ) )REPRESENTATION_CONTEXT( 'NONE', 'WORKSPACE' ) );
#10 = STYLED_ITEM( '', ( #38 ), #39 );
#11 = STYLED_ITEM( '', ( #40 ), #41 );
#12 = STYLED_ITEM( '', ( #42 ), #43 );
#13 = STYLED_ITEM( '', ( #44 ), #45 );
#14 = STYLED_ITEM( '', ( #46 ), #47 );
#15 = STYLED_ITEM( '', ( #48 ), #49 );
#16 = STYLED_ITEM( '', ( #50 ), #51 );
#17 = STYLED_ITEM( '', ( #52 ), #53 );
#18 = STYLED_ITEM( '', ( #54 ), #55 );
#19 = STYLED_ITEM( '', ( #56 ), #57 );
#20 = STYLED_ITEM( '', ( #58 ), #59 );
#21 = STYLED_ITEM( '', ( #60 ), #61 );
#22 = STYLED_ITEM( '', ( #62 ), #63 );
#23 = STYLED_ITEM( '', ( #64 ), #65 );
#24 = STYLED_ITEM( '', ( #66 ), #67 );
#25 = APPLICATION_CONTEXT( 'core data for automotive mechanical design processes' );
#26 = PRODUCT_CATEGORY( 'part', 'NONE' );
#27 = PRODUCT_RELATED_PRODUCT_CATEGORY( 'detail', ' ', ( #68 ) );
#28 = PRODUCT_DEFINITION_SHAPE( 'NONE', 'NONE', #69 );
#29 = ADVANCED_BREP_SHAPE_REPRESENTATION( '_K0760.130', ( #70, #71 ), #6 );
#32 = UNCERTAINTY_MEASURE_WITH_UNIT( LENGTH_MEASURE( 0.00100000000000000 ), #34, '', '' );
#34 =  ( CONVERSION_BASED_UNIT( 'MILLIMETRE', #74 )LENGTH_UNIT(  )NAMED_UNIT( #77 ) );
#35 =  ( NAMED_UNIT( #79 )PLANE_ANGLE_UNIT(  )SI_UNIT( $, .RADIAN. ) );
#36 =  ( NAMED_UNIT( #79 )SI_UNIT( $, .STERADIAN. )SOLID_ANGLE_UNIT(  ) );
#38 = PRESENTATION_STYLE_ASSIGNMENT( ( #85 ) );
#39 = ADVANCED_FACE( '', ( #86, #87 ), #88, .F. );
#40 = PRESENTATION_STYLE_ASSIGNMENT( ( #89 ) );
#41 = ADVANCED_FACE( '', ( #90, #91 ), #92, .T. );
#42 = PRESENTATION_STYLE_ASSIGNMENT( ( #93 ) );
#43 = ADVANCED_FACE( '', ( #94, #95 ), #96, .F. );
#44 = PRESENTATION_STYLE_ASSIGNMENT( ( #97 ) );
#45 = ADVANCED_FACE( '', ( #98, #99 ), #100, .T. );
#46 = PRESENTATION_STYLE_ASSIGNMENT( ( #101 ) );
#47 = ADVANCED_FACE( '', ( #102, #103 ), #104, .T. );
#48 = PRESENTATION_STYLE_ASSIGNMENT( ( #105 ) );
#49 = ADVANCED_FACE( '', ( #106, #107 ), #108, .F. );
#50 = PRESENTATION_STYLE_ASSIGNMENT( ( #109 ) );
#51 = ADVANCED_FACE( '', ( #110, #111 ), #112, .F. );
#52 = PRESENTATION_STYLE_ASSIGNMENT( ( #113 ) );
#53 = ADVANCED_FACE( '', ( #114, #115 ), #116, .T. );
#54 = PRESENTATION_STYLE_ASSIGNMENT( ( #117 ) );
#55 = ADVANCED_FACE( '', ( #118, #119 ), #120, .T. );
#56 = PRESENTATION_STYLE_ASSIGNMENT( ( #121 ) );
#57 = ADVANCED_FACE( '', ( #122, #123 ), #124, .T. );
#58 = PRESENTATION_STYLE_ASSIGNMENT( ( #125 ) );
#59 = ADVANCED_FACE( '', ( #126, #127 ), #128, .T. );
#60 = PRESENTATION_STYLE_ASSIGNMENT( ( #129 ) );
#61 = ADVANCED_FACE( '', ( #130, #131 ), #132, .T. );
#62 = PRESENTATION_STYLE_ASSIGNMENT( ( #133 ) );
#63 = ADVANCED_FACE( '', ( #134, #135 ), #136, .T. );
#64 = PRESENTATION_STYLE_ASSIGNMENT( ( #137 ) );
#65 = ADVANCED_FACE( '', ( #138, #139 ), #140, .F. );
#66 = PRESENTATION_STYLE_ASSIGNMENT( ( #141 ) );
#67 = ADVANCED_FACE( '', ( #142 ), #143, .F. );
#68 = PRODUCT( '_K0760.130', '_K0760.130', 'PART-_K0760.130-DESC', ( #144 ) );
#69 = PRODUCT_DEFINITION( 'NONE', 'NONE', #145, #2 );
#70 = MANIFOLD_SOLID_BREP( '_K0760.130', #146 );
#71 = AXIS2_PLACEMENT_3D( '', #147, #148, #149 );
#74 = LENGTH_MEASURE_WITH_UNIT( LENGTH_MEASURE( 1.00000000000000 ), #150 );
#77 = DIMENSIONAL_EXPONENTS( 1.00000000000000, 0.000000000000000, 0.000000000000000, 0.000000000000000, 0.000000000000000, 0.000000000000000, 0.000000000000000 );
#79 = DIMENSIONAL_EXPONENTS( 0.000000000000000, 0.000000000000000, 0.000000000000000, 0.000000000000000, 0.000000000000000, 0.000000000000000, 0.000000000000000 );
#85 = SURFACE_STYLE_USAGE( .BOTH., #151 );
#86 = FACE_OUTER_BOUND( '', #152, .T. );
#87 = FACE_OUTER_BOUND( '', #153, .T. );
#88 = TOROIDAL_SURFACE( '', #154, 17.5056995582000, 0.990000000000000 );
#89 = SURFACE_STYLE_USAGE( .BOTH., #155 );
#90 = FACE_OUTER_BOUND( '', #156, .T. );
#91 = FACE_OUTER_BOUND( '', #157, .T. );
#92 = TOROIDAL_SURFACE( '', #158, 13.9142716787000, 1.50000000000000 );
#93 = SURFACE_STYLE_USAGE( .BOTH., #159 );
#94 = FACE_OUTER_BOUND( '', #160, .T. );
#95 = FACE_OUTER_BOUND( '', #161, .T. );
#96 = SPHERICAL_SURFACE( '', #162, 15.0500000000000 );
#97 = SURFACE_STYLE_USAGE( .BOTH., #163 );
#98 = FACE_OUTER_BOUND( '', #164, .T. );
#99 = FACE_OUTER_BOUND( '', #165, .T. );
#100 = CYLINDRICAL_SURFACE( '', #166, 27.5000000000000 );
#101 = SURFACE_STYLE_USAGE( .BOTH., #167 );
#102 = FACE_OUTER_BOUND( '', #168, .T. );
#103 = FACE_OUTER_BOUND( '', #169, .T. );
#104 = TOROIDAL_SURFACE( '', #170, 12.2874936419000, 0.300000000000000 );
#105 = SURFACE_STYLE_USAGE( .BOTH., #171 );
#106 = FACE_OUTER_BOUND( '', #172, .T. );
#107 = FACE_BOUND( '', #173, .T. );
#108 = PLANE( '', #174 );
#109 = SURFACE_STYLE_USAGE( .BOTH., #175 );
#110 = FACE_BOUND( '', #176, .T. );
#111 = FACE_OUTER_BOUND( '', #177, .T. );
#112 = PLANE( '', #178 );
#113 = SURFACE_STYLE_USAGE( .BOTH., #179 );
#114 = FACE_OUTER_BOUND( '', #180, .T. );
#115 = FACE_OUTER_BOUND( '', #181, .T. );
#116 = TOROIDAL_SURFACE( '', #182, 26.1500000000000, 1.35000000000000 );
#117 = SURFACE_STYLE_USAGE( .BOTH., #183 );
#118 = FACE_OUTER_BOUND( '', #184, .T. );
#119 = FACE_OUTER_BOUND( '', #185, .T. );
#120 = CYLINDRICAL_SURFACE( '', #186, 22.5000000000000 );
#121 = SURFACE_STYLE_USAGE( .BOTH., #187 );
#122 = FACE_BOUND( '', #188, .T. );
#123 = FACE_OUTER_BOUND( '', #189, .T. );
#124 = SPHERICAL_SURFACE( '', #190, 15.0100000000000 );
#125 = SURFACE_STYLE_USAGE( .BOTH., #191 );
#126 = FACE_OUTER_BOUND( '', #192, .T. );
#127 = FACE_BOUND( '', #193, .T. );
#128 = CONICAL_SURFACE( '', #194, 15.2737333593000, 0.436332313000000 );
#129 = SURFACE_STYLE_USAGE( .BOTH., #195 );
#130 = FACE_OUTER_BOUND( '', #196, .T. );
#131 = FACE_OUTER_BOUND( '', #197, .T. );
#132 = TOROIDAL_SURFACE( '', #198, 19.5300000000000, 2.97000000000000 );
#133 = SURFACE_STYLE_USAGE( .BOTH., #199 );
#134 = FACE_OUTER_BOUND( '', #200, .T. );
#135 = FACE_OUTER_BOUND( '', #201, .T. );
#136 = TOROIDAL_SURFACE( '', #202, 26.1500000000000, 1.35000000000000 );
#137 = SURFACE_STYLE_USAGE( .BOTH., #203 );
#138 = FACE_OUTER_BOUND( '', #204, .T. );
#139 = FACE_BOUND( '', #205, .T. );
#140 = PLANE( '', #206 );
#141 = SURFACE_STYLE_USAGE( .BOTH., #207 );
#142 = FACE_OUTER_BOUND( '', #208, .T. );
#143 = PLANE( '', #209 );
#144 = PRODUCT_CONTEXT( '', #25, 'mechanical' );
#145 = PRODUCT_DEFINITION_FORMATION_WITH_SPECIFIED_SOURCE( ' ', 'NONE', #68, .NOT_KNOWN. );
#146 = CLOSED_SHELL( '', ( #61, #67, #55, #43, #47, #65, #41, #59, #39, #49, #53, #45, #63, #51, #57 ) );
#147 = CARTESIAN_POINT( '', ( 0.000000000000000, 0.000000000000000, 0.000000000000000 ) );
#148 = DIRECTION( '', ( 0.000000000000000, 0.000000000000000, 1.00000000000000 ) );
#149 = DIRECTION( '', ( 1.00000000000000, 0.000000000000000, 0.000000000000000 ) );
#150 =  ( LENGTH_UNIT(  )NAMED_UNIT( #77 )SI_UNIT( .MILLI., .METRE. ) );
#151 = SURFACE_SIDE_STYLE( '', ( #211 ) );
#152 = EDGE_LOOP( '', ( #212 ) );
#153 = EDGE_LOOP( '', ( #213 ) );
#154 = AXIS2_PLACEMENT_3D( '', #214, #215, #216 );
#155 = SURFACE_SIDE_STYLE( '', ( #217 ) );
#156 = EDGE_LOOP( '', ( #218 ) );
#157 = EDGE_LOOP( '', ( #219 ) );
#158 = AXIS2_PLACEMENT_3D( '', #220, #221, #222 );
#159 = SURFACE_SIDE_STYLE( '', ( #223 ) );
#160 = EDGE_LOOP( '', ( #224 ) );
#161 = EDGE_LOOP( '', ( #225 ) );
#162 = AXIS2_PLACEMENT_3D( '', #226, #227, #228 );
#163 = SURFACE_SIDE_STYLE( '', ( #229 ) );
#164 = EDGE_LOOP( '', ( #230 ) );
#165 = EDGE_LOOP( '', ( #231 ) );
#166 = AXIS2_PLACEMENT_3D( '', #232, #233, #234 );
#167 = SURFACE_SIDE_STYLE( '', ( #235 ) );
#168 = EDGE_LOOP( '', ( #236 ) );
#169 = EDGE_LOOP( '', ( #237 ) );
#170 = AXIS2_PLACEMENT_3D( '', #238, #239, #240 );
#171 = SURFACE_SIDE_STYLE( '', ( #241 ) );
#172 = EDGE_LOOP( '', ( #242 ) );
#173 = EDGE_LOOP( '', ( #243 ) );
#174 = AXIS2_PLACEMENT_3D( '', #244, #245, #246 );
#175 = SURFACE_SIDE_STYLE( '', ( #247 ) );
#176 = EDGE_LOOP( '', ( #248 ) );
#177 = EDGE_LOOP( '', ( #249 ) );
#178 = AXIS2_PLACEMENT_3D( '', #250, #251, #252 );
#179 = SURFACE_SIDE_STYLE( '', ( #253 ) );
#180 = EDGE_LOOP( '', ( #254 ) );
#181 = EDGE_LOOP( '', ( #255 ) );
#182 = AXIS2_PLACEMENT_3D( '', #256, #257, #258 );
#183 = SURFACE_SIDE_STYLE( '', ( #259 ) );
#184 = EDGE_LOOP( '', ( #260 ) );
#185 = EDGE_LOOP( '', ( #261 ) );
#186 = AXIS2_PLACEMENT_3D( '', #262, #263, #264 );
#187 = SURFACE_SIDE_STYLE( '', ( #265 ) );
#188 = VERTEX_LOOP( '', #266 );
#189 = EDGE_LOOP( '', ( #267 ) );
#190 = AXIS2_PLACEMENT_3D( '', #268, #269, #270 );
#191 = SURFACE_SIDE_STYLE( '', ( #271 ) );
#192 = EDGE_LOOP( '', ( #272 ) );
#193 = EDGE_LOOP( '', ( #273 ) );
#194 = AXIS2_PLACEMENT_3D( '', #274, #275, #276 );
#195 = SURFACE_SIDE_STYLE( '', ( #277 ) );
#196 = EDGE_LOOP( '', ( #278 ) );
#197 = EDGE_LOOP( '', ( #279 ) );
#198 = AXIS2_PLACEMENT_3D( '', #280, #281, #282 );
#199 = SURFACE_SIDE_STYLE( '', ( #283 ) );
#200 = EDGE_LOOP( '', ( #284 ) );
#201 = EDGE_LOOP( '', ( #285 ) );
#202 = AXIS2_PLACEMENT_3D( '', #286, #287, #288 );
#203 = SURFACE_SIDE_STYLE( '', ( #289 ) );
#204 = EDGE_LOOP( '', ( #290 ) );
#205 = EDGE_LOOP( '', ( #291 ) );
#206 = AXIS2_PLACEMENT_3D( '', #292, #293, #294 );
#207 = SURFACE_SIDE_STYLE( '', ( #295 ) );
#208 = EDGE_LOOP( '', ( #296 ) );
#209 = AXIS2_PLACEMENT_3D( '', #297, #298, #299 );
#211 = SURFACE_STYLE_FILL_AREA( #300 );
#212 = ORIENTED_EDGE( '', *, *, #301, .F. );
#213 = ORIENTED_EDGE( '', *, *, #302, .T. );
#214 = CARTESIAN_POINT( '', ( 0.000000000000000, 28.1900000000000, 0.000000000000000 ) );
#215 = DIRECTION( '', ( 0.000000000000000, -1.00000000000000, -0.000000000000000 ) );
#216 = DIRECTION( '', ( 0.000000000000000, 0.000000000000000, -1.00000000000000 ) );
#217 = SURFACE_STYLE_FILL_AREA( #303 );
#218 = ORIENTED_EDGE( '', *, *, #304, .T. );
#219 = ORIENTED_EDGE( '', *, *, #305, .F. );
#220 = CARTESIAN_POINT( '', ( 0.000000000000000, 30.0000000000000, 0.000000000000000 ) );
#221 = DIRECTION( '', ( 0.000000000000000, -1.00000000000000, -0.000000000000000 ) );
#222 = DIRECTION( '', ( 0.000000000000000, 0.000000000000000, -1.00000000000000 ) );
#223 = SURFACE_STYLE_FILL_AREA( #306 );
#224 = ORIENTED_EDGE( '', *, *, #307, .F. );
#225 = ORIENTED_EDGE( '', *, *, #308, .T. );
#226 = CARTESIAN_POINT( '', ( -3.46944695195361E-15, 22.0000000000000, 0.000000000000000 ) );
#227 = DIRECTION( '', ( 0.000000000000000, -1.00000000000000, 0.000000000000000 ) );
#228 = DIRECTION( '', ( -1.00000000000000, 0.000000000000000, 0.000000000000000 ) );
#229 = SURFACE_STYLE_FILL_AREA( #309 );
#230 = ORIENTED_EDGE( '', *, *, #310, .F. );
#231 = ORIENTED_EDGE( '', *, *, #311, .T. );
#232 = CARTESIAN_POINT( '', ( 0.000000000000000, 0.000000000000000, 0.000000000000000 ) );
#233 = DIRECTION( '', ( -0.000000000000000, 1.00000000000000, 0.000000000000000 ) );
#234 = DIRECTION( '', ( 0.000000000000000, 0.000000000000000, -1.00000000000000 ) );
#235 = SURFACE_STYLE_FILL_AREA( #312 );
#236 = ORIENTED_EDGE( '', *, *, #307, .T. );
#237 = ORIENTED_EDGE( '', *, *, #313, .F. );
#238 = CARTESIAN_POINT( '', ( 0.000000000000000, 31.2000000000000, 0.000000000000000 ) );
#239 = DIRECTION( '', ( 0.000000000000000, -1.00000000000000, -0.000000000000000 ) );
#240 = DIRECTION( '', ( 0.000000000000000, 0.000000000000000, -1.00000000000000 ) );
#241 = SURFACE_STYLE_FILL_AREA( #314 );
#242 = ORIENTED_EDGE( '', *, *, #315, .F. );
#243 = ORIENTED_EDGE( '', *, *, #301, .T. );
#244 = CARTESIAN_POINT( '', ( 17.5056995581994, 27.2000000000000, 0.000000000000000 ) );
#245 = DIRECTION( '', ( 0.000000000000000, -1.00000000000000, -0.000000000000000 ) );
#246 = DIRECTION( '', ( 0.000000000000000, 0.000000000000000, -1.00000000000000 ) );
#247 = SURFACE_STYLE_FILL_AREA( #316 );
#248 = ORIENTED_EDGE( '', *, *, #317, .F. );
#249 = ORIENTED_EDGE( '', *, *, #318, .T. );
#250 = CARTESIAN_POINT( '', ( 26.1500000000000, 23.2000000000000, 0.000000000000000 ) );
#251 = DIRECTION( '', ( 0.000000000000000, 1.00000000000000, 0.000000000000000 ) );
#252 = DIRECTION( '', ( 0.000000000000000, -0.000000000000000, 1.00000000000000 ) );
#253 = SURFACE_STYLE_FILL_AREA( #319 );
#254 = ORIENTED_EDGE( '', *, *, #315, .T. );
#255 = ORIENTED_EDGE( '', *, *, #311, .F. );
#256 = CARTESIAN_POINT( '', ( 0.000000000000000, 25.8500000000000, 0.000000000000000 ) );
#257 = DIRECTION( '', ( 0.000000000000000, -1.00000000000000, -0.000000000000000 ) );
#258 = DIRECTION( '', ( 0.000000000000000, 0.000000000000000, -1.00000000000000 ) );
#259 = SURFACE_STYLE_FILL_AREA( #320 );
#260 = ORIENTED_EDGE( '', *, *, #321, .F. );
#261 = ORIENTED_EDGE( '', *, *, #317, .T. );
#262 = CARTESIAN_POINT( '', ( 0.000000000000000, 0.000000000000000, 0.000000000000000 ) );
#263 = DIRECTION( '', ( -0.000000000000000, 1.00000000000000, 0.000000000000000 ) );
#264 = DIRECTION( '', ( 0.000000000000000, 0.000000000000000, -1.00000000000000 ) );
#265 = SURFACE_STYLE_FILL_AREA( #322 );
#266 = VERTEX_POINT( '', #323 );
#267 = ORIENTED_EDGE( '', *, *, #308, .F. );
#268 = CARTESIAN_POINT( '', ( 1.73472347597681E-15, 21.9500000000000, 0.000000000000000 ) );
#269 = DIRECTION( '', ( 0.000000000000000, -1.00000000000000, 0.000000000000000 ) );
#270 = DIRECTION( '', ( -1.00000000000000, 0.000000000000000, 0.000000000000000 ) );
#271 = SURFACE_STYLE_FILL_AREA( #324 );
#272 = ORIENTED_EDGE( '', *, *, #302, .F. );
#273 = ORIENTED_EDGE( '', *, *, #305, .T. );
#274 = CARTESIAN_POINT( '', ( 0.000000000000000, 30.6339273926110, 0.000000000000000 ) );
#275 = DIRECTION( '', ( -0.000000000000000, -1.00000000000000, -0.000000000000000 ) );
#276 = DIRECTION( '', ( 0.000000000000000, 0.000000000000000, -1.00000000000000 ) );
#277 = SURFACE_STYLE_FILL_AREA( #325 );
#278 = ORIENTED_EDGE( '', *, *, #321, .T. );
#279 = ORIENTED_EDGE( '', *, *, #326, .F. );
#280 = CARTESIAN_POINT( '', ( 0.000000000000000, 2.97000000000000, 0.000000000000000 ) );
#281 = DIRECTION( '', ( 0.000000000000000, -1.00000000000000, -0.000000000000000 ) );
#282 = DIRECTION( '', ( 0.000000000000000, 0.000000000000000, -1.00000000000000 ) );
#283 = SURFACE_STYLE_FILL_AREA( #327 );
#284 = ORIENTED_EDGE( '', *, *, #310, .T. );
#285 = ORIENTED_EDGE( '', *, *, #318, .F. );
#286 = CARTESIAN_POINT( '', ( 0.000000000000000, 24.5500000000000, 0.000000000000000 ) );
#287 = DIRECTION( '', ( 0.000000000000000, -1.00000000000000, -0.000000000000000 ) );
#288 = DIRECTION( '', ( 0.000000000000000, 0.000000000000000, -1.00000000000000 ) );
#289 = SURFACE_STYLE_FILL_AREA( #328 );
#290 = ORIENTED_EDGE( '', *, *, #304, .F. );
#291 = ORIENTED_EDGE( '', *, *, #313, .T. );
#292 = CARTESIAN_POINT( '', ( 12.2874936419109, 31.5000000000000, 0.000000000000000 ) );
#293 = DIRECTION( '', ( 0.000000000000000, -1.00000000000000, -0.000000000000000 ) );
#294 = DIRECTION( '', ( 0.000000000000000, 0.000000000000000, -1.00000000000000 ) );
#295 = SURFACE_STYLE_FILL_AREA( #329 );
#296 = ORIENTED_EDGE( '', *, *, #326, .T. );
#297 = CARTESIAN_POINT( '', ( 19.5300000000000, 1.08420217248550E-15, 0.000000000000000 ) );
#298 = DIRECTION( '', ( 0.000000000000000, 1.00000000000000, 0.000000000000000 ) );
#299 = DIRECTION( '', ( 0.000000000000000, -0.000000000000000, 1.00000000000000 ) );
#300 = FILL_AREA_STYLE( '', ( #330 ) );
#301 = EDGE_CURVE( '', #331, #331, #332, .T. );
#302 = EDGE_CURVE( '', #333, #333, #334, .T. );
#303 = FILL_AREA_STYLE( '', ( #335 ) );
#304 = EDGE_CURVE( '', #336, #336, #337, .T. );
#305 = EDGE_CURVE( '', #338, #338, #339, .T. );
#306 = FILL_AREA_STYLE( '', ( #340 ) );
#307 = EDGE_CURVE( '', #341, #341, #342, .T. );
#308 = EDGE_CURVE( '', #343, #343, #344, .T. );
#309 = FILL_AREA_STYLE( '', ( #345 ) );
#310 = EDGE_CURVE( '', #346, #346, #347, .T. );
#311 = EDGE_CURVE( '', #348, #348, #349, .T. );
#312 = FILL_AREA_STYLE( '', ( #350 ) );
#313 = EDGE_CURVE( '', #351, #351, #352, .T. );
#314 = FILL_AREA_STYLE( '', ( #353 ) );
#315 = EDGE_CURVE( '', #354, #354, #355, .T. );
#316 = FILL_AREA_STYLE( '', ( #356 ) );
#317 = EDGE_CURVE( '', #357, #357, #358, .T. );
#318 = EDGE_CURVE( '', #359, #359, #360, .T. );
#319 = FILL_AREA_STYLE( '', ( #361 ) );
#320 = FILL_AREA_STYLE( '', ( #362 ) );
#321 = EDGE_CURVE( '', #363, #363, #364, .T. );
#322 = FILL_AREA_STYLE( '', ( #365 ) );
#323 = CARTESIAN_POINT( '', ( 8.15626053216719E-16, 36.9600000000000, 0.000000000000000 ) );
#324 = FILL_AREA_STYLE( '', ( #366 ) );
#325 = FILL_AREA_STYLE( '', ( #367 ) );
#326 = EDGE_CURVE( '', #368, #368, #369, .T. );
#327 = FILL_AREA_STYLE( '', ( #370 ) );
#328 = FILL_AREA_STYLE( '', ( #371 ) );
#329 = FILL_AREA_STYLE( '', ( #372 ) );
#330 = FILL_AREA_STYLE_COLOUR( '', #373 );
#331 = VERTEX_POINT( '', #374 );
#332 = CIRCLE( '', #375, 17.5056995582000 );
#333 = VERTEX_POINT( '', #376 );
#334 = CIRCLE( '', #377, 16.6084548490000 );
#335 = FILL_AREA_STYLE_COLOUR( '', #378 );
#336 = VERTEX_POINT( '', #379 );
#337 = CIRCLE( '', #380, 13.9142716787000 );
#338 = VERTEX_POINT( '', #381 );
#339 = CIRCLE( '', #382, 15.2737333593000 );
#340 = FILL_AREA_STYLE_COLOUR( '', #383 );
#341 = VERTEX_POINT( '', #384 );
#342 = CIRCLE( '', #385, 12.0473471864000 );
#343 = VERTEX_POINT( '', #386 );
#344 = CIRCLE( '', #387, 9.01798752490000 );
#345 = FILL_AREA_STYLE_COLOUR( '', #388 );
#346 = VERTEX_POINT( '', #389 );
#347 = CIRCLE( '', #390, 27.5000000000000 );
#348 = VERTEX_POINT( '', #391 );
#349 = CIRCLE( '', #392, 27.5000000000000 );
#350 = FILL_AREA_STYLE_COLOUR( '', #393 );
#351 = VERTEX_POINT( '', #394 );
#352 = CIRCLE( '', #395, 12.2874936419000 );
#353 = FILL_AREA_STYLE_COLOUR( '', #396 );
#354 = VERTEX_POINT( '', #397 );
#355 = CIRCLE( '', #398, 26.1500000000000 );
#356 = FILL_AREA_STYLE_COLOUR( '', #399 );
#357 = VERTEX_POINT( '', #400 );
#358 = CIRCLE( '', #401, 22.5000000000000 );
#359 = VERTEX_POINT( '', #402 );
#360 = CIRCLE( '', #403, 26.1500000000000 );
#361 = FILL_AREA_STYLE_COLOUR( '', #404 );
#362 = FILL_AREA_STYLE_COLOUR( '', #405 );
#363 = VERTEX_POINT( '', #406 );
#364 = CIRCLE( '', #407, 22.5000000000000 );
#365 = FILL_AREA_STYLE_COLOUR( '', #408 );
#366 = FILL_AREA_STYLE_COLOUR( '', #409 );
#367 = FILL_AREA_STYLE_COLOUR( '', #410 );
#368 = VERTEX_POINT( '', #411 );
#369 = CIRCLE( '', #412, 19.5300000000000 );
#370 = FILL_AREA_STYLE_COLOUR( '', #413 );
#371 = FILL_AREA_STYLE_COLOUR( '', #414 );
#372 = FILL_AREA_STYLE_COLOUR( '', #415 );
#373 = COLOUR_RGB( '', 0.689999997600000, 0.689999997600000, 0.689999997600000 );
#374 = CARTESIAN_POINT( '', ( 0.000000000000000, 27.2000000000000, -17.5056995581994 ) );
#375 = AXIS2_PLACEMENT_3D( '', #416, #417, #418 );
#376 = CARTESIAN_POINT( '', ( 0.000000000000000, 27.7716079208767, -16.6084548490331 ) );
#377 = AXIS2_PLACEMENT_3D( '', #419, #420, #421 );
#378 = COLOUR_RGB( '', 0.689999997600000, 0.689999997600000, 0.689999997600000 );
#379 = CARTESIAN_POINT( '', ( 0.000000000000000, 31.5000000000000, -13.9142716787223 ) );
#380 = AXIS2_PLACEMENT_3D( '', #422, #423, #424 );
#381 = CARTESIAN_POINT( '', ( 0.000000000000000, 30.6339273926110, -15.2737333592772 ) );
#382 = AXIS2_PLACEMENT_3D( '', #425, #426, #427 );
#383 = COLOUR_RGB( '', 0.689999997600000, 0.689999997600000, 0.689999997600000 );
#384 = CARTESIAN_POINT( '', ( 0.000000000000000, 31.0201954397394, -12.0473471863686 ) );
#385 = AXIS2_PLACEMENT_3D( '', #428, #429, #430 );
#386 = CARTESIAN_POINT( '', ( 9.01798752494151, 9.95100000000003, 0.000000000000000 ) );
#387 = AXIS2_PLACEMENT_3D( '', #431, #432, #433 );
#388 = COLOUR_RGB( '', 0.689999997600000, 0.689999997600000, 0.689999997600000 );
#389 = CARTESIAN_POINT( '', ( 0.000000000000000, 24.5500000000000, -27.5000000000000 ) );
#390 = AXIS2_PLACEMENT_3D( '', #434, #435, #436 );
#391 = CARTESIAN_POINT( '', ( 0.000000000000000, 25.8500000000000, -27.5000000000000 ) );
#392 = AXIS2_PLACEMENT_3D( '', #437, #438, #439 );
#393 = COLOUR_RGB( '', 0.689999997600000, 0.689999997600000, 0.689999997600000 );
#394 = CARTESIAN_POINT( '', ( 0.000000000000000, 31.5000000000000, -12.2874936419109 ) );
#395 = AXIS2_PLACEMENT_3D( '', #440, #441, #442 );
#396 = COLOUR_RGB( '', 0.689999997600000, 0.689999997600000, 0.689999997600000 );
#397 = CARTESIAN_POINT( '', ( 0.000000000000000, 27.2000000000000, -26.1500000000000 ) );
#398 = AXIS2_PLACEMENT_3D( '', #443, #444, #445 );
#399 = COLOUR_RGB( '', 0.689999997600000, 0.689999997600000, 0.689999997600000 );
#400 = CARTESIAN_POINT( '', ( 0.000000000000000, 23.2000000000000, -22.5000000000000 ) );
#401 = AXIS2_PLACEMENT_3D( '', #446, #447, #448 );
#402 = CARTESIAN_POINT( '', ( 0.000000000000000, 23.2000000000000, -26.1500000000000 ) );
#403 = AXIS2_PLACEMENT_3D( '', #449, #450, #451 );
#404 = COLOUR_RGB( '', 0.689999997600000, 0.689999997600000, 0.689999997600000 );
#405 = COLOUR_RGB( '', 0.689999997600000, 0.689999997600000, 0.689999997600000 );
#406 = CARTESIAN_POINT( '', ( 0.000000000000000, 2.97000000000000, -22.5000000000000 ) );
#407 = AXIS2_PLACEMENT_3D( '', #452, #453, #454 );
#408 = COLOUR_RGB( '', 0.689999997600000, 0.689999997600000, 0.689999997600000 );
#409 = COLOUR_RGB( '', 0.689999997600000, 0.689999997600000, 0.689999997600000 );
#410 = COLOUR_RGB( '', 0.689999997600000, 0.689999997600000, 0.689999997600000 );
#411 = CARTESIAN_POINT( '', ( 0.000000000000000, 2.16840434497101E-15, -19.5300000000000 ) );
#412 = AXIS2_PLACEMENT_3D( '', #455, #456, #457 );
#413 = COLOUR_RGB( '', 0.689999997600000, 0.689999997600000, 0.689999997600000 );
#414 = COLOUR_RGB( '', 0.689999997600000, 0.689999997600000, 0.689999997600000 );
#415 = COLOUR_RGB( '', 0.689999997600000, 0.689999997600000, 0.689999997600000 );
#416 = CARTESIAN_POINT( '', ( 0.000000000000000, 27.2000000000000, 0.000000000000000 ) );
#417 = DIRECTION( '', ( 0.000000000000000, -1.00000000000000, -0.000000000000000 ) );
#418 = DIRECTION( '', ( 0.000000000000000, 0.000000000000000, -1.00000000000000 ) );
#419 = CARTESIAN_POINT( '', ( 0.000000000000000, 27.7716079208767, 0.000000000000000 ) );
#420 = DIRECTION( '', ( 0.000000000000000, -1.00000000000000, -0.000000000000000 ) );
#421 = DIRECTION( '', ( 0.000000000000000, 0.000000000000000, -1.00000000000000 ) );
#422 = CARTESIAN_POINT( '', ( 0.000000000000000, 31.5000000000000, 0.000000000000000 ) );
#423 = DIRECTION( '', ( 0.000000000000000, -1.00000000000000, -0.000000000000000 ) );
#424 = DIRECTION( '', ( 0.000000000000000, 0.000000000000000, -1.00000000000000 ) );
#425 = CARTESIAN_POINT( '', ( 0.000000000000000, 30.6339273926110, 0.000000000000000 ) );
#426 = DIRECTION( '', ( 0.000000000000000, -1.00000000000000, -0.000000000000000 ) );
#427 = DIRECTION( '', ( 0.000000000000000, 0.000000000000000, -1.00000000000000 ) );
#428 = CARTESIAN_POINT( '', ( 0.000000000000000, 31.0201954397394, 0.000000000000000 ) );
#429 = DIRECTION( '', ( 0.000000000000000, -1.00000000000000, -0.000000000000000 ) );
#430 = DIRECTION( '', ( 0.000000000000000, 0.000000000000000, -1.00000000000000 ) );
#431 = CARTESIAN_POINT( '', ( 0.000000000000000, 9.95099999999909, 0.000000000000000 ) );
#432 = DIRECTION( '', ( 1.04083408558598E-13, -1.00000000000000, -0.000000000000000 ) );
#433 = DIRECTION( '', ( 1.00000000000000, 1.04083408558598E-13, 0.000000000000000 ) );
#434 = CARTESIAN_POINT( '', ( 0.000000000000000, 24.5500000000000, 0.000000000000000 ) );
#435 = DIRECTION( '', ( 0.000000000000000, -1.00000000000000, -0.000000000000000 ) );
#436 = DIRECTION( '', ( 0.000000000000000, 0.000000000000000, -1.00000000000000 ) );
#437 = CARTESIAN_POINT( '', ( 0.000000000000000, 25.8500000000000, 0.000000000000000 ) );
#438 = DIRECTION( '', ( 0.000000000000000, -1.00000000000000, -0.000000000000000 ) );
#439 = DIRECTION( '', ( 0.000000000000000, 0.000000000000000, -1.00000000000000 ) );
#440 = CARTESIAN_POINT( '', ( 0.000000000000000, 31.5000000000000, 0.000000000000000 ) );
#441 = DIRECTION( '', ( 0.000000000000000, -1.00000000000000, -0.000000000000000 ) );
#442 = DIRECTION( '', ( 0.000000000000000, 0.000000000000000, -1.00000000000000 ) );
#443 = CARTESIAN_POINT( '', ( 0.000000000000000, 27.2000000000000, 0.000000000000000 ) );
#444 = DIRECTION( '', ( 0.000000000000000, -1.00000000000000, -0.000000000000000 ) );
#445 = DIRECTION( '', ( 0.000000000000000, 0.000000000000000, -1.00000000000000 ) );
#446 = CARTESIAN_POINT( '', ( 0.000000000000000, 23.2000000000000, 0.000000000000000 ) );
#447 = DIRECTION( '', ( 0.000000000000000, -1.00000000000000, -0.000000000000000 ) );
#448 = DIRECTION( '', ( 0.000000000000000, 0.000000000000000, -1.00000000000000 ) );
#449 = CARTESIAN_POINT( '', ( 0.000000000000000, 23.2000000000000, 0.000000000000000 ) );
#450 = DIRECTION( '', ( 0.000000000000000, -1.00000000000000, -0.000000000000000 ) );
#451 = DIRECTION( '', ( 0.000000000000000, 0.000000000000000, -1.00000000000000 ) );
#452 = CARTESIAN_POINT( '', ( 0.000000000000000, 2.97000000000000, 0.000000000000000 ) );
#453 = DIRECTION( '', ( 0.000000000000000, -1.00000000000000, -0.000000000000000 ) );
#454 = DIRECTION( '', ( 0.000000000000000, 0.000000000000000, -1.00000000000000 ) );
#455 = CARTESIAN_POINT( '', ( 0.000000000000000, 2.16840434497101E-15, 0.000000000000000 ) );
#456 = DIRECTION( '', ( 0.000000000000000, -1.00000000000000, -0.000000000000000 ) );
#457 = DIRECTION( '', ( 0.000000000000000, 0.000000000000000, -1.00000000000000 ) );
ENDSEC;
END-ISO-10303-21;
