ISO-10303-21;
HEADER;
FILE_DESCRIPTION( ( 'STEP AP214' ), '1' );
FILE_NAME( '//goodhand-server/Shared Folders/GoodHand Data/Kipp CAD/K0163/K0163.0280X24.stp', '2020-11-26T10:29:28', ( '' ), ( '' ), ' ', 'PARTsolutions', ' ' );
FILE_SCHEMA( ( 'AUTOMOTIVE_DESIGN { 1 0 10303 214 1 1 1 1 }' ) );
ENDSEC;
DATA;
#1 = MECHANICAL_DESIGN_GEOMETRIC_PRESENTATION_REPRESENTATION( ' ', ( #10, #11, #12, #13, #14, #15, #16, #17, #18, #19, #20, #21, #22, #23, #24, #25 ), #6 );
#2 = PRODUCT_DEFINITION_CONTEXT( '', #26, 'design' );
#3 = APPLICATION_PROTOCOL_DEFINITION( 'international standard', 'automotive_design', 2001, #26 );
#4 = PRODUCT_CATEGORY_RELATIONSHIP( 'NONE', 'NONE', #27, #28 );
#5 = SHAPE_DEFINITION_REPRESENTATION( #29, #30 );
#6 =  ( GEOMETRIC_REPRESENTATION_CONTEXT( 3 )GLOBAL_UNCERTAINTY_ASSIGNED_CONTEXT( ( #33 ) )GLOBAL_UNIT_ASSIGNED_CONTEXT( ( #35, #36, #37 ) )REPRESENTATION_CONTEXT( 'NONE', 'WORKSPACE' ) );
#10 = STYLED_ITEM( '', ( #39 ), #40 );
#11 = STYLED_ITEM( '', ( #41 ), #42 );
#12 = STYLED_ITEM( '', ( #43 ), #44 );
#13 = STYLED_ITEM( '', ( #45 ), #46 );
#14 = STYLED_ITEM( '', ( #47 ), #48 );
#15 = STYLED_ITEM( '', ( #49 ), #50 );
#16 = STYLED_ITEM( '', ( #51 ), #52 );
#17 = STYLED_ITEM( '', ( #53 ), #54 );
#18 = STYLED_ITEM( '', ( #55 ), #56 );
#19 = STYLED_ITEM( '', ( #57 ), #58 );
#20 = STYLED_ITEM( '', ( #59 ), #60 );
#21 = STYLED_ITEM( '', ( #61 ), #62 );
#22 = STYLED_ITEM( '', ( #63 ), #64 );
#23 = STYLED_ITEM( '', ( #65 ), #66 );
#24 = STYLED_ITEM( '', ( #67 ), #68 );
#25 = STYLED_ITEM( '', ( #69 ), #70 );
#26 = APPLICATION_CONTEXT( 'core data for automotive mechanical design processes' );
#27 = PRODUCT_CATEGORY( 'part', 'NONE' );
#28 = PRODUCT_RELATED_PRODUCT_CATEGORY( 'detail', ' ', ( #71 ) );
#29 = PRODUCT_DEFINITION_SHAPE( 'NONE', 'NONE', #72 );
#30 = ADVANCED_BREP_SHAPE_REPRESENTATION( '_K0163.0280X24', ( #73, #74 ), #6 );
#33 = UNCERTAINTY_MEASURE_WITH_UNIT( LENGTH_MEASURE( 0.00100000000000000 ), #35, '', '' );
#35 =  ( CONVERSION_BASED_UNIT( 'MILLIMETRE', #77 )LENGTH_UNIT(  )NAMED_UNIT( #80 ) );
#36 =  ( NAMED_UNIT( #82 )PLANE_ANGLE_UNIT(  )SI_UNIT( $, .RADIAN. ) );
#37 =  ( NAMED_UNIT( #82 )SI_UNIT( $, .STERADIAN. )SOLID_ANGLE_UNIT(  ) );
#39 = PRESENTATION_STYLE_ASSIGNMENT( ( #88 ) );
#40 = ADVANCED_FACE( '', ( #89, #90 ), #91, .F. );
#41 = PRESENTATION_STYLE_ASSIGNMENT( ( #92 ) );
#42 = ADVANCED_FACE( '', ( #93, #94 ), #95, .T. );
#43 = PRESENTATION_STYLE_ASSIGNMENT( ( #96 ) );
#44 = ADVANCED_FACE( '', ( #97, #98 ), #99, .F. );
#45 = PRESENTATION_STYLE_ASSIGNMENT( ( #100 ) );
#46 = ADVANCED_FACE( '', ( #101, #102 ), #103, .T. );
#47 = PRESENTATION_STYLE_ASSIGNMENT( ( #104 ) );
#48 = ADVANCED_FACE( '', ( #105, #106 ), #107, .F. );
#49 = PRESENTATION_STYLE_ASSIGNMENT( ( #108 ) );
#50 = ADVANCED_FACE( '', ( #109, #110 ), #111, .F. );
#51 = PRESENTATION_STYLE_ASSIGNMENT( ( #112 ) );
#52 = ADVANCED_FACE( '', ( #113, #114 ), #115, .F. );
#53 = PRESENTATION_STYLE_ASSIGNMENT( ( #116 ) );
#54 = ADVANCED_FACE( '', ( #117, #118 ), #119, .T. );
#55 = PRESENTATION_STYLE_ASSIGNMENT( ( #120 ) );
#56 = ADVANCED_FACE( '', ( #121, #122 ), #123, .T. );
#57 = PRESENTATION_STYLE_ASSIGNMENT( ( #124 ) );
#58 = ADVANCED_FACE( '', ( #125, #126 ), #127, .T. );
#59 = PRESENTATION_STYLE_ASSIGNMENT( ( #128 ) );
#60 = ADVANCED_FACE( '', ( #129, #130, #131 ), #132, .T. );
#61 = PRESENTATION_STYLE_ASSIGNMENT( ( #133 ) );
#62 = ADVANCED_FACE( '', ( #134, #135 ), #136, .F. );
#63 = PRESENTATION_STYLE_ASSIGNMENT( ( #137 ) );
#64 = ADVANCED_FACE( '', ( #138, #139 ), #140, .F. );
#65 = PRESENTATION_STYLE_ASSIGNMENT( ( #141 ) );
#66 = ADVANCED_FACE( '', ( #142, #143 ), #144, .F. );
#67 = PRESENTATION_STYLE_ASSIGNMENT( ( #145 ) );
#68 = ADVANCED_FACE( '', ( #146, #147 ), #148, .F. );
#69 = PRESENTATION_STYLE_ASSIGNMENT( ( #149 ) );
#70 = ADVANCED_FACE( '', ( #150, #151 ), #152, .F. );
#71 = PRODUCT( '_K0163.0280X24', '_K0163.0280X24', 'PART-_K0163.0280X24-DESC', ( #153 ) );
#72 = PRODUCT_DEFINITION( 'NONE', 'NONE', #154, #2 );
#73 = MANIFOLD_SOLID_BREP( '_K0163.0280X24', #155 );
#74 = AXIS2_PLACEMENT_3D( '', #156, #157, #158 );
#77 = LENGTH_MEASURE_WITH_UNIT( LENGTH_MEASURE( 1.00000000000000 ), #159 );
#80 = DIMENSIONAL_EXPONENTS( 1.00000000000000, 0.000000000000000, 0.000000000000000, 0.000000000000000, 0.000000000000000, 0.000000000000000, 0.000000000000000 );
#82 = DIMENSIONAL_EXPONENTS( 0.000000000000000, 0.000000000000000, 0.000000000000000, 0.000000000000000, 0.000000000000000, 0.000000000000000, 0.000000000000000 );
#88 = SURFACE_STYLE_USAGE( .BOTH., #160 );
#89 = FACE_OUTER_BOUND( '', #161, .T. );
#90 = FACE_BOUND( '', #162, .T. );
#91 = PLANE( '', #163 );
#92 = SURFACE_STYLE_USAGE( .BOTH., #164 );
#93 = FACE_OUTER_BOUND( '', #165, .T. );
#94 = FACE_OUTER_BOUND( '', #166, .T. );
#95 = CYLINDRICAL_SURFACE( '', #167, 25.5000000000000 );
#96 = SURFACE_STYLE_USAGE( .BOTH., #168 );
#97 = FACE_OUTER_BOUND( '', #169, .T. );
#98 = FACE_OUTER_BOUND( '', #170, .T. );
#99 = TOROIDAL_SURFACE( '', #171, 26.8000000000000, 1.30000000000000 );
#100 = SURFACE_STYLE_USAGE( .BOTH., #172 );
#101 = FACE_OUTER_BOUND( '', #173, .T. );
#102 = FACE_OUTER_BOUND( '', #174, .T. );
#103 = TOROIDAL_SURFACE( '', #175, 113.500000000000, 3.50000000000000 );
#104 = SURFACE_STYLE_USAGE( .BOTH., #176 );
#105 = FACE_OUTER_BOUND( '', #177, .T. );
#106 = FACE_BOUND( '', #178, .T. );
#107 = PLANE( '', #179 );
#108 = SURFACE_STYLE_USAGE( .BOTH., #180 );
#109 = FACE_BOUND( '', #181, .T. );
#110 = FACE_OUTER_BOUND( '', #182, .T. );
#111 = PLANE( '', #183 );
#112 = SURFACE_STYLE_USAGE( .BOTH., #184 );
#113 = FACE_OUTER_BOUND( '', #185, .T. );
#114 = FACE_OUTER_BOUND( '', #186, .T. );
#115 = TOROIDAL_SURFACE( '', #187, 26.8000000000000, 1.30000000000000 );
#116 = SURFACE_STYLE_USAGE( .BOTH., #188 );
#117 = FACE_OUTER_BOUND( '', #189, .T. );
#118 = FACE_OUTER_BOUND( '', #190, .T. );
#119 = CYLINDRICAL_SURFACE( '', #191, 25.5000000000000 );
#120 = SURFACE_STYLE_USAGE( .BOTH., #192 );
#121 = FACE_OUTER_BOUND( '', #193, .T. );
#122 = FACE_OUTER_BOUND( '', #194, .T. );
#123 = TOROIDAL_SURFACE( '', #195, 113.500000000000, 3.50000000000000 );
#124 = SURFACE_STYLE_USAGE( .BOTH., #196 );
#125 = FACE_BOUND( '', #197, .T. );
#126 = FACE_OUTER_BOUND( '', #198, .T. );
#127 = CONICAL_SURFACE( '', #199, 110.000000000000, 1.49402443550000 );
#128 = SURFACE_STYLE_USAGE( .BOTH., #200 );
#129 = FACE_BOUND( '', #201, .T. );
#130 = FACE_OUTER_BOUND( '', #202, .T. );
#131 = FACE_OUTER_BOUND( '', #203, .T. );
#132 = TOROIDAL_SURFACE( '', #204, 127.500000000000, 12.5000000000000 );
#133 = SURFACE_STYLE_USAGE( .BOTH., #205 );
#134 = FACE_OUTER_BOUND( '', #206, .T. );
#135 = FACE_OUTER_BOUND( '', #207, .T. );
#136 = CYLINDRICAL_SURFACE( '', #208, 12.0000000000000 );
#137 = SURFACE_STYLE_USAGE( .BOTH., #209 );
#138 = FACE_OUTER_BOUND( '', #210, .T. );
#139 = FACE_BOUND( '', #211, .T. );
#140 = CONICAL_SURFACE( '', #212, 26.8997054486000, 1.49402443550000 );
#141 = SURFACE_STYLE_USAGE( .BOTH., #213 );
#142 = FACE_OUTER_BOUND( '', #214, .T. );
#143 = FACE_BOUND( '', #215, .T. );
#144 = CONICAL_SURFACE( '', #216, 120.500000000000, 0.385271953700000 );
#145 = SURFACE_STYLE_USAGE( .BOTH., #217 );
#146 = FACE_BOUND( '', #218, .T. );
#147 = FACE_OUTER_BOUND( '', #219, .T. );
#148 = CONICAL_SURFACE( '', #220, 121.500000000000, 0.385271953700000 );
#149 = SURFACE_STYLE_USAGE( .BOTH., #221 );
#150 = FACE_BOUND( '', #222, .T. );
#151 = FACE_OUTER_BOUND( '', #223, .T. );
#152 = PLANE( '', #224 );
#153 = PRODUCT_CONTEXT( '', #26, 'mechanical' );
#154 = PRODUCT_DEFINITION_FORMATION_WITH_SPECIFIED_SOURCE( ' ', 'NONE', #71, .NOT_KNOWN. );
#155 = CLOSED_SHELL( '', ( #62, #40, #42, #44, #64, #46, #48, #66, #60, #68, #70, #56, #58, #52, #54, #50 ) );
#156 = CARTESIAN_POINT( '', ( 0.000000000000000, 0.000000000000000, 0.000000000000000 ) );
#157 = DIRECTION( '', ( 0.000000000000000, 0.000000000000000, 1.00000000000000 ) );
#158 = DIRECTION( '', ( 1.00000000000000, 0.000000000000000, 0.000000000000000 ) );
#159 =  ( LENGTH_UNIT(  )NAMED_UNIT( #80 )SI_UNIT( .MILLI., .METRE. ) );
#160 = SURFACE_SIDE_STYLE( '', ( #226 ) );
#161 = EDGE_LOOP( '', ( #227 ) );
#162 = EDGE_LOOP( '', ( #228 ) );
#163 = AXIS2_PLACEMENT_3D( '', #229, #230, #231 );
#164 = SURFACE_SIDE_STYLE( '', ( #232 ) );
#165 = EDGE_LOOP( '', ( #233 ) );
#166 = EDGE_LOOP( '', ( #234 ) );
#167 = AXIS2_PLACEMENT_3D( '', #235, #236, #237 );
#168 = SURFACE_SIDE_STYLE( '', ( #238 ) );
#169 = EDGE_LOOP( '', ( #239 ) );
#170 = EDGE_LOOP( '', ( #240 ) );
#171 = AXIS2_PLACEMENT_3D( '', #241, #242, #243 );
#172 = SURFACE_SIDE_STYLE( '', ( #244 ) );
#173 = EDGE_LOOP( '', ( #245 ) );
#174 = EDGE_LOOP( '', ( #246 ) );
#175 = AXIS2_PLACEMENT_3D( '', #247, #248, #249 );
#176 = SURFACE_SIDE_STYLE( '', ( #250 ) );
#177 = EDGE_LOOP( '', ( #251 ) );
#178 = EDGE_LOOP( '', ( #252 ) );
#179 = AXIS2_PLACEMENT_3D( '', #253, #254, #255 );
#180 = SURFACE_SIDE_STYLE( '', ( #256 ) );
#181 = EDGE_LOOP( '', ( #257 ) );
#182 = EDGE_LOOP( '', ( #258 ) );
#183 = AXIS2_PLACEMENT_3D( '', #259, #260, #261 );
#184 = SURFACE_SIDE_STYLE( '', ( #262 ) );
#185 = EDGE_LOOP( '', ( #263 ) );
#186 = EDGE_LOOP( '', ( #264 ) );
#187 = AXIS2_PLACEMENT_3D( '', #265, #266, #267 );
#188 = SURFACE_SIDE_STYLE( '', ( #268 ) );
#189 = EDGE_LOOP( '', ( #269 ) );
#190 = EDGE_LOOP( '', ( #270 ) );
#191 = AXIS2_PLACEMENT_3D( '', #271, #272, #273 );
#192 = SURFACE_SIDE_STYLE( '', ( #274 ) );
#193 = EDGE_LOOP( '', ( #275 ) );
#194 = EDGE_LOOP( '', ( #276 ) );
#195 = AXIS2_PLACEMENT_3D( '', #277, #278, #279 );
#196 = SURFACE_SIDE_STYLE( '', ( #280 ) );
#197 = EDGE_LOOP( '', ( #281 ) );
#198 = EDGE_LOOP( '', ( #282 ) );
#199 = AXIS2_PLACEMENT_3D( '', #283, #284, #285 );
#200 = SURFACE_SIDE_STYLE( '', ( #286 ) );
#201 = VERTEX_LOOP( '', #287 );
#202 = EDGE_LOOP( '', ( #288 ) );
#203 = EDGE_LOOP( '', ( #289 ) );
#204 = AXIS2_PLACEMENT_3D( '', #290, #291, #292 );
#205 = SURFACE_SIDE_STYLE( '', ( #293 ) );
#206 = EDGE_LOOP( '', ( #294 ) );
#207 = EDGE_LOOP( '', ( #295 ) );
#208 = AXIS2_PLACEMENT_3D( '', #296, #297, #298 );
#209 = SURFACE_SIDE_STYLE( '', ( #299 ) );
#210 = EDGE_LOOP( '', ( #300 ) );
#211 = EDGE_LOOP( '', ( #301 ) );
#212 = AXIS2_PLACEMENT_3D( '', #302, #303, #304 );
#213 = SURFACE_SIDE_STYLE( '', ( #305 ) );
#214 = EDGE_LOOP( '', ( #306 ) );
#215 = EDGE_LOOP( '', ( #307 ) );
#216 = AXIS2_PLACEMENT_3D( '', #308, #309, #310 );
#217 = SURFACE_SIDE_STYLE( '', ( #311 ) );
#218 = EDGE_LOOP( '', ( #312 ) );
#219 = EDGE_LOOP( '', ( #313 ) );
#220 = AXIS2_PLACEMENT_3D( '', #314, #315, #316 );
#221 = SURFACE_SIDE_STYLE( '', ( #317 ) );
#222 = EDGE_LOOP( '', ( #318 ) );
#223 = EDGE_LOOP( '', ( #319 ) );
#224 = AXIS2_PLACEMENT_3D( '', #320, #321, #322 );
#226 = SURFACE_STYLE_FILL_AREA( #323 );
#227 = ORIENTED_EDGE( '', *, *, #324, .F. );
#228 = ORIENTED_EDGE( '', *, *, #325, .F. );
#229 = CARTESIAN_POINT( '', ( 30.0000000000000, 0.000000000000000, 0.000000000000000 ) );
#230 = DIRECTION( '', ( -1.00000000000000, 0.000000000000000, 0.000000000000000 ) );
#231 = DIRECTION( '', ( 0.000000000000000, 0.000000000000000, 1.00000000000000 ) );
#232 = SURFACE_STYLE_FILL_AREA( #326 );
#233 = ORIENTED_EDGE( '', *, *, #327, .F. );
#234 = ORIENTED_EDGE( '', *, *, #324, .T. );
#235 = CARTESIAN_POINT( '', ( 0.000000000000000, 0.000000000000000, 0.000000000000000 ) );
#236 = DIRECTION( '', ( 1.00000000000000, -0.000000000000000, -0.000000000000000 ) );
#237 = DIRECTION( '', ( 0.000000000000000, 0.000000000000000, 1.00000000000000 ) );
#238 = SURFACE_STYLE_FILL_AREA( #328 );
#239 = ORIENTED_EDGE( '', *, *, #329, .F. );
#240 = ORIENTED_EDGE( '', *, *, #327, .T. );
#241 = CARTESIAN_POINT( '', ( 25.4038404810405, 0.000000000000000, 0.000000000000000 ) );
#242 = DIRECTION( '', ( -1.00000000000000, 0.000000000000000, 0.000000000000000 ) );
#243 = DIRECTION( '', ( 0.000000000000000, 0.000000000000000, 1.00000000000000 ) );
#244 = SURFACE_STYLE_FILL_AREA( #330 );
#245 = ORIENTED_EDGE( '', *, *, #331, .T. );
#246 = ORIENTED_EDGE( '', *, *, #332, .F. );
#247 = CARTESIAN_POINT( '', ( 30.5000000000000, 0.000000000000000, 0.000000000000000 ) );
#248 = DIRECTION( '', ( -1.00000000000000, 0.000000000000000, 0.000000000000000 ) );
#249 = DIRECTION( '', ( 0.000000000000000, 0.000000000000000, 1.00000000000000 ) );
#250 = SURFACE_STYLE_FILL_AREA( #333 );
#251 = ORIENTED_EDGE( '', *, *, #334, .F. );
#252 = ORIENTED_EDGE( '', *, *, #332, .T. );
#253 = CARTESIAN_POINT( '', ( 34.0000000000000, -113.500000000000, 0.000000000000000 ) );
#254 = DIRECTION( '', ( -1.00000000000000, 0.000000000000000, 0.000000000000000 ) );
#255 = DIRECTION( '', ( 0.000000000000000, 0.000000000000000, 1.00000000000000 ) );
#256 = SURFACE_STYLE_FILL_AREA( #335 );
#257 = ORIENTED_EDGE( '', *, *, #336, .T. );
#258 = ORIENTED_EDGE( '', *, *, #337, .T. );
#259 = CARTESIAN_POINT( '', ( 0.000000000000000, -25.5000000000000, 0.000000000000000 ) );
#260 = DIRECTION( '', ( 1.00000000000000, 0.000000000000000, 0.000000000000000 ) );
#261 = DIRECTION( '', ( 0.000000000000000, 0.000000000000000, -1.00000000000000 ) );
#262 = SURFACE_STYLE_FILL_AREA( #338 );
#263 = ORIENTED_EDGE( '', *, *, #339, .F. );
#264 = ORIENTED_EDGE( '', *, *, #340, .T. );
#265 = CARTESIAN_POINT( '', ( 12.7961595189595, 0.000000000000000, 0.000000000000000 ) );
#266 = DIRECTION( '', ( -1.00000000000000, 0.000000000000000, 0.000000000000000 ) );
#267 = DIRECTION( '', ( 0.000000000000000, 0.000000000000000, 1.00000000000000 ) );
#268 = SURFACE_STYLE_FILL_AREA( #341 );
#269 = ORIENTED_EDGE( '', *, *, #337, .F. );
#270 = ORIENTED_EDGE( '', *, *, #339, .T. );
#271 = CARTESIAN_POINT( '', ( 0.000000000000000, 0.000000000000000, 0.000000000000000 ) );
#272 = DIRECTION( '', ( 1.00000000000000, -0.000000000000000, -0.000000000000000 ) );
#273 = DIRECTION( '', ( 0.000000000000000, 0.000000000000000, 1.00000000000000 ) );
#274 = SURFACE_STYLE_FILL_AREA( #342 );
#275 = ORIENTED_EDGE( '', *, *, #343, .T. );
#276 = ORIENTED_EDGE( '', *, *, #344, .F. );
#277 = CARTESIAN_POINT( '', ( 20.5000000000000, 0.000000000000000, 0.000000000000000 ) );
#278 = DIRECTION( '', ( -1.00000000000000, 0.000000000000000, 0.000000000000000 ) );
#279 = DIRECTION( '', ( 0.000000000000000, 0.000000000000000, 1.00000000000000 ) );
#280 = SURFACE_STYLE_FILL_AREA( #345 );
#281 = ORIENTED_EDGE( '', *, *, #340, .F. );
#282 = ORIENTED_EDGE( '', *, *, #344, .T. );
#283 = CARTESIAN_POINT( '', ( 20.5000000000000, 0.000000000000000, 0.000000000000000 ) );
#284 = DIRECTION( '', ( 1.00000000000000, -0.000000000000000, 0.000000000000000 ) );
#285 = DIRECTION( '', ( 0.000000000000000, 0.000000000000000, -1.00000000000000 ) );
#286 = SURFACE_STYLE_FILL_AREA( #346 );
#287 = VERTEX_POINT( '', #347 );
#288 = ORIENTED_EDGE( '', *, *, #348, .T. );
#289 = ORIENTED_EDGE( '', *, *, #349, .F. );
#290 = CARTESIAN_POINT( '', ( 25.5000000000000, 0.000000000000000, 0.000000000000000 ) );
#291 = DIRECTION( '', ( -1.00000000000000, 0.000000000000000, 0.000000000000000 ) );
#292 = DIRECTION( '', ( 0.000000000000000, 0.000000000000000, 1.00000000000000 ) );
#293 = SURFACE_STYLE_FILL_AREA( #350 );
#294 = ORIENTED_EDGE( '', *, *, #336, .F. );
#295 = ORIENTED_EDGE( '', *, *, #325, .T. );
#296 = CARTESIAN_POINT( '', ( 38.0000000000000, 0.000000000000000, 0.000000000000000 ) );
#297 = DIRECTION( '', ( 1.00000000000000, -0.000000000000000, -0.000000000000000 ) );
#298 = DIRECTION( '', ( 0.000000000000000, 0.000000000000000, 1.00000000000000 ) );
#299 = SURFACE_STYLE_FILL_AREA( #351 );
#300 = ORIENTED_EDGE( '', *, *, #331, .F. );
#301 = ORIENTED_EDGE( '', *, *, #329, .T. );
#302 = CARTESIAN_POINT( '', ( 24.1076696498885, 0.000000000000000, 0.000000000000000 ) );
#303 = DIRECTION( '', ( 1.00000000000000, -0.000000000000000, 0.000000000000000 ) );
#304 = DIRECTION( '', ( 0.000000000000000, 0.000000000000000, -1.00000000000000 ) );
#305 = SURFACE_STYLE_FILL_AREA( #352 );
#306 = ORIENTED_EDGE( '', *, *, #348, .F. );
#307 = ORIENTED_EDGE( '', *, *, #334, .T. );
#308 = CARTESIAN_POINT( '', ( 34.0000000000000, 0.000000000000000, 0.000000000000000 ) );
#309 = DIRECTION( '', ( 1.00000000000000, -0.000000000000000, 0.000000000000000 ) );
#310 = DIRECTION( '', ( 0.000000000000000, 0.000000000000000, -1.00000000000000 ) );
#311 = SURFACE_STYLE_FILL_AREA( #353 );
#312 = ORIENTED_EDGE( '', *, *, #354, .F. );
#313 = ORIENTED_EDGE( '', *, *, #349, .T. );
#314 = CARTESIAN_POINT( '', ( 14.5341439002693, 0.000000000000000, 0.000000000000000 ) );
#315 = DIRECTION( '', ( -1.00000000000000, -0.000000000000000, -0.000000000000000 ) );
#316 = DIRECTION( '', ( 0.000000000000000, 0.000000000000000, 1.00000000000000 ) );
#317 = SURFACE_STYLE_FILL_AREA( #355 );
#318 = ORIENTED_EDGE( '', *, *, #343, .F. );
#319 = ORIENTED_EDGE( '', *, *, #354, .T. );
#320 = CARTESIAN_POINT( '', ( 17.0000000000000, -120.500000000000, 0.000000000000000 ) );
#321 = DIRECTION( '', ( 1.00000000000000, 0.000000000000000, 0.000000000000000 ) );
#322 = DIRECTION( '', ( 0.000000000000000, 0.000000000000000, -1.00000000000000 ) );
#323 = FILL_AREA_STYLE( '', ( #356 ) );
#324 = EDGE_CURVE( '', #357, #357, #358, .T. );
#325 = EDGE_CURVE( '', #359, #359, #360, .F. );
#326 = FILL_AREA_STYLE( '', ( #361 ) );
#327 = EDGE_CURVE( '', #362, #362, #363, .T. );
#328 = FILL_AREA_STYLE( '', ( #364 ) );
#329 = EDGE_CURVE( '', #365, #365, #366, .T. );
#330 = FILL_AREA_STYLE( '', ( #367 ) );
#331 = EDGE_CURVE( '', #368, #368, #369, .T. );
#332 = EDGE_CURVE( '', #370, #370, #371, .T. );
#333 = FILL_AREA_STYLE( '', ( #372 ) );
#334 = EDGE_CURVE( '', #373, #373, #374, .T. );
#335 = FILL_AREA_STYLE( '', ( #375 ) );
#336 = EDGE_CURVE( '', #376, #376, #377, .T. );
#337 = EDGE_CURVE( '', #378, #378, #379, .T. );
#338 = FILL_AREA_STYLE( '', ( #380 ) );
#339 = EDGE_CURVE( '', #381, #381, #382, .T. );
#340 = EDGE_CURVE( '', #383, #383, #384, .T. );
#341 = FILL_AREA_STYLE( '', ( #385 ) );
#342 = FILL_AREA_STYLE( '', ( #386 ) );
#343 = EDGE_CURVE( '', #387, #387, #388, .T. );
#344 = EDGE_CURVE( '', #389, #389, #390, .T. );
#345 = FILL_AREA_STYLE( '', ( #391 ) );
#346 = FILL_AREA_STYLE( '', ( #392 ) );
#347 = CARTESIAN_POINT( '', ( 25.5000000000000, 0.000000000000000, 140.000000000000 ) );
#348 = EDGE_CURVE( '', #393, #393, #394, .T. );
#349 = EDGE_CURVE( '', #395, #395, #396, .T. );
#350 = FILL_AREA_STYLE( '', ( #397 ) );
#351 = FILL_AREA_STYLE( '', ( #398 ) );
#352 = FILL_AREA_STYLE( '', ( #399 ) );
#353 = FILL_AREA_STYLE( '', ( #400 ) );
#354 = EDGE_CURVE( '', #401, #401, #402, .T. );
#355 = FILL_AREA_STYLE( '', ( #403 ) );
#356 = FILL_AREA_STYLE_COLOUR( '', #404 );
#357 = VERTEX_POINT( '', #405 );
#358 = CIRCLE( '', #406, 25.5000000000000 );
#359 = VERTEX_POINT( '', #407 );
#360 = CIRCLE( '', #408, 12.0000000000000 );
#361 = FILL_AREA_STYLE_COLOUR( '', #409 );
#362 = VERTEX_POINT( '', #410 );
#363 = CIRCLE( '', #411, 25.5000000000000 );
#364 = FILL_AREA_STYLE_COLOUR( '', #412 );
#365 = VERTEX_POINT( '', #413 );
#366 = CIRCLE( '', #414, 26.8997054486000 );
#367 = FILL_AREA_STYLE_COLOUR( '', #415 );
#368 = VERTEX_POINT( '', #416 );
#369 = CIRCLE( '', #417, 110.000000000000 );
#370 = VERTEX_POINT( '', #418 );
#371 = CIRCLE( '', #419, 113.500000000000 );
#372 = FILL_AREA_STYLE_COLOUR( '', #420 );
#373 = VERTEX_POINT( '', #421 );
#374 = CIRCLE( '', #422, 120.500000000000 );
#375 = FILL_AREA_STYLE_COLOUR( '', #423 );
#376 = VERTEX_POINT( '', #424 );
#377 = CIRCLE( '', #425, 12.0000000000000 );
#378 = VERTEX_POINT( '', #426 );
#379 = CIRCLE( '', #427, 25.5000000000000 );
#380 = FILL_AREA_STYLE_COLOUR( '', #428 );
#381 = VERTEX_POINT( '', #429 );
#382 = CIRCLE( '', #430, 25.5000000000000 );
#383 = VERTEX_POINT( '', #431 );
#384 = CIRCLE( '', #432, 26.7002945514000 );
#385 = FILL_AREA_STYLE_COLOUR( '', #433 );
#386 = FILL_AREA_STYLE_COLOUR( '', #434 );
#387 = VERTEX_POINT( '', #435 );
#388 = CIRCLE( '', #436, 113.500000000000 );
#389 = VERTEX_POINT( '', #437 );
#390 = CIRCLE( '', #438, 110.000000000000 );
#391 = FILL_AREA_STYLE_COLOUR( '', #439 );
#392 = FILL_AREA_STYLE_COLOUR( '', #440 );
#393 = VERTEX_POINT( '', #441 );
#394 = CIRCLE( '', #442, 121.500000000000 );
#395 = VERTEX_POINT( '', #443 );
#396 = CIRCLE( '', #444, 121.500000000000 );
#397 = FILL_AREA_STYLE_COLOUR( '', #445 );
#398 = FILL_AREA_STYLE_COLOUR( '', #446 );
#399 = FILL_AREA_STYLE_COLOUR( '', #447 );
#400 = FILL_AREA_STYLE_COLOUR( '', #448 );
#401 = VERTEX_POINT( '', #449 );
#402 = CIRCLE( '', #450, 120.500000000000 );
#403 = FILL_AREA_STYLE_COLOUR( '', #451 );
#404 = COLOUR_RGB( '', 0.689999997600000, 0.689999997600000, 0.689999997600000 );
#405 = CARTESIAN_POINT( '', ( 30.0000000000000, 0.000000000000000, 25.5000000000000 ) );
#406 = AXIS2_PLACEMENT_3D( '', #452, #453, #454 );
#407 = CARTESIAN_POINT( '', ( 30.0000000000000, 0.000000000000000, 12.0000000000000 ) );
#408 = AXIS2_PLACEMENT_3D( '', #455, #456, #457 );
#409 = COLOUR_RGB( '', 0.689999997600000, 0.689999997600000, 0.689999997600000 );
#410 = CARTESIAN_POINT( '', ( 25.4038404810405, 0.000000000000000, 25.5000000000000 ) );
#411 = AXIS2_PLACEMENT_3D( '', #458, #459, #460 );
#412 = COLOUR_RGB( '', 0.689999997600000, 0.689999997600000, 0.689999997600000 );
#413 = CARTESIAN_POINT( '', ( 24.1076696498885, 0.000000000000000, 26.8997054485502 ) );
#414 = AXIS2_PLACEMENT_3D( '', #461, #462, #463 );
#415 = COLOUR_RGB( '', 0.689999997600000, 0.689999997600000, 0.689999997600000 );
#416 = CARTESIAN_POINT( '', ( 30.5000000000000, 0.000000000000000, 110.000000000000 ) );
#417 = AXIS2_PLACEMENT_3D( '', #464, #465, #466 );
#418 = CARTESIAN_POINT( '', ( 34.0000000000000, 0.000000000000000, 113.500000000000 ) );
#419 = AXIS2_PLACEMENT_3D( '', #467, #468, #469 );
#420 = COLOUR_RGB( '', 0.689999997600000, 0.689999997600000, 0.689999997600000 );
#421 = CARTESIAN_POINT( '', ( 34.0000000000000, 0.000000000000000, 120.500000000000 ) );
#422 = AXIS2_PLACEMENT_3D( '', #470, #471, #472 );
#423 = COLOUR_RGB( '', 0.689999997600000, 0.689999997600000, 0.689999997600000 );
#424 = CARTESIAN_POINT( '', ( 0.000000000000000, 0.000000000000000, -12.0000000000000 ) );
#425 = AXIS2_PLACEMENT_3D( '', #473, #474, #475 );
#426 = CARTESIAN_POINT( '', ( 0.000000000000000, 0.000000000000000, 25.5000000000000 ) );
#427 = AXIS2_PLACEMENT_3D( '', #476, #477, #478 );
#428 = COLOUR_RGB( '', 0.689999997600000, 0.689999997600000, 0.689999997600000 );
#429 = CARTESIAN_POINT( '', ( 12.7961595189595, 0.000000000000000, 25.5000000000000 ) );
#430 = AXIS2_PLACEMENT_3D( '', #479, #480, #481 );
#431 = CARTESIAN_POINT( '', ( 14.0923303501115, 0.000000000000000, 26.7002945514498 ) );
#432 = AXIS2_PLACEMENT_3D( '', #482, #483, #484 );
#433 = COLOUR_RGB( '', 0.689999997600000, 0.689999997600000, 0.689999997600000 );
#434 = COLOUR_RGB( '', 0.689999997600000, 0.689999997600000, 0.689999997600000 );
#435 = CARTESIAN_POINT( '', ( 17.0000000000000, 0.000000000000000, 113.500000000000 ) );
#436 = AXIS2_PLACEMENT_3D( '', #485, #486, #487 );
#437 = CARTESIAN_POINT( '', ( 20.5000000000000, 0.000000000000000, 110.000000000000 ) );
#438 = AXIS2_PLACEMENT_3D( '', #488, #489, #490 );
#439 = COLOUR_RGB( '', 0.689999997600000, 0.689999997600000, 0.689999997600000 );
#440 = COLOUR_RGB( '', 0.689999997600000, 0.689999997600000, 0.689999997600000 );
#441 = CARTESIAN_POINT( '', ( 36.4658560997307, 0.000000000000000, 121.500000000000 ) );
#442 = AXIS2_PLACEMENT_3D( '', #491, #492, #493 );
#443 = CARTESIAN_POINT( '', ( 14.5341439002693, 0.000000000000000, 121.500000000000 ) );
#444 = AXIS2_PLACEMENT_3D( '', #494, #495, #496 );
#445 = COLOUR_RGB( '', 0.689999997600000, 0.689999997600000, 0.689999997600000 );
#446 = COLOUR_RGB( '', 0.689999997600000, 0.689999997600000, 0.689999997600000 );
#447 = COLOUR_RGB( '', 0.689999997600000, 0.689999997600000, 0.689999997600000 );
#448 = COLOUR_RGB( '', 0.689999997600000, 0.689999997600000, 0.689999997600000 );
#449 = CARTESIAN_POINT( '', ( 17.0000000000000, 0.000000000000000, 120.500000000000 ) );
#450 = AXIS2_PLACEMENT_3D( '', #497, #498, #499 );
#451 = COLOUR_RGB( '', 0.689999997600000, 0.689999997600000, 0.689999997600000 );
#452 = CARTESIAN_POINT( '', ( 30.0000000000000, 0.000000000000000, 0.000000000000000 ) );
#453 = DIRECTION( '', ( -1.00000000000000, 0.000000000000000, 0.000000000000000 ) );
#454 = DIRECTION( '', ( 0.000000000000000, 0.000000000000000, 1.00000000000000 ) );
#455 = CARTESIAN_POINT( '', ( 30.0000000000000, 0.000000000000000, 0.000000000000000 ) );
#456 = DIRECTION( '', ( -1.00000000000000, 0.000000000000000, 0.000000000000000 ) );
#457 = DIRECTION( '', ( 0.000000000000000, 0.000000000000000, 1.00000000000000 ) );
#458 = CARTESIAN_POINT( '', ( 25.4038404810405, 0.000000000000000, 0.000000000000000 ) );
#459 = DIRECTION( '', ( -1.00000000000000, 0.000000000000000, 0.000000000000000 ) );
#460 = DIRECTION( '', ( 0.000000000000000, 0.000000000000000, 1.00000000000000 ) );
#461 = CARTESIAN_POINT( '', ( 24.1076696498885, 0.000000000000000, 0.000000000000000 ) );
#462 = DIRECTION( '', ( -1.00000000000000, 0.000000000000000, 0.000000000000000 ) );
#463 = DIRECTION( '', ( 0.000000000000000, 0.000000000000000, 1.00000000000000 ) );
#464 = CARTESIAN_POINT( '', ( 30.5000000000000, 0.000000000000000, 0.000000000000000 ) );
#465 = DIRECTION( '', ( -1.00000000000000, 0.000000000000000, 0.000000000000000 ) );
#466 = DIRECTION( '', ( 0.000000000000000, 0.000000000000000, 1.00000000000000 ) );
#467 = CARTESIAN_POINT( '', ( 34.0000000000000, 0.000000000000000, 0.000000000000000 ) );
#468 = DIRECTION( '', ( -1.00000000000000, 0.000000000000000, 0.000000000000000 ) );
#469 = DIRECTION( '', ( 0.000000000000000, 0.000000000000000, 1.00000000000000 ) );
#470 = CARTESIAN_POINT( '', ( 34.0000000000000, 0.000000000000000, 0.000000000000000 ) );
#471 = DIRECTION( '', ( -1.00000000000000, 0.000000000000000, 0.000000000000000 ) );
#472 = DIRECTION( '', ( 0.000000000000000, 0.000000000000000, 1.00000000000000 ) );
#473 = CARTESIAN_POINT( '', ( 0.000000000000000, 0.000000000000000, 0.000000000000000 ) );
#474 = DIRECTION( '', ( 1.00000000000000, 0.000000000000000, 0.000000000000000 ) );
#475 = DIRECTION( '', ( 0.000000000000000, 0.000000000000000, -1.00000000000000 ) );
#476 = CARTESIAN_POINT( '', ( 0.000000000000000, 0.000000000000000, 0.000000000000000 ) );
#477 = DIRECTION( '', ( -1.00000000000000, 0.000000000000000, 0.000000000000000 ) );
#478 = DIRECTION( '', ( 0.000000000000000, 0.000000000000000, 1.00000000000000 ) );
#479 = CARTESIAN_POINT( '', ( 12.7961595189595, 0.000000000000000, 0.000000000000000 ) );
#480 = DIRECTION( '', ( -1.00000000000000, 0.000000000000000, 0.000000000000000 ) );
#481 = DIRECTION( '', ( 0.000000000000000, 0.000000000000000, 1.00000000000000 ) );
#482 = CARTESIAN_POINT( '', ( 14.0923303501115, 0.000000000000000, 0.000000000000000 ) );
#483 = DIRECTION( '', ( -1.00000000000000, 0.000000000000000, 0.000000000000000 ) );
#484 = DIRECTION( '', ( 0.000000000000000, 0.000000000000000, 1.00000000000000 ) );
#485 = CARTESIAN_POINT( '', ( 17.0000000000000, 0.000000000000000, 0.000000000000000 ) );
#486 = DIRECTION( '', ( -1.00000000000000, 0.000000000000000, 0.000000000000000 ) );
#487 = DIRECTION( '', ( 0.000000000000000, 0.000000000000000, 1.00000000000000 ) );
#488 = CARTESIAN_POINT( '', ( 20.5000000000000, 0.000000000000000, 0.000000000000000 ) );
#489 = DIRECTION( '', ( -1.00000000000000, 0.000000000000000, 0.000000000000000 ) );
#490 = DIRECTION( '', ( 0.000000000000000, 0.000000000000000, 1.00000000000000 ) );
#491 = CARTESIAN_POINT( '', ( 36.4658560997307, 0.000000000000000, 0.000000000000000 ) );
#492 = DIRECTION( '', ( -1.00000000000000, 0.000000000000000, 0.000000000000000 ) );
#493 = DIRECTION( '', ( 0.000000000000000, 0.000000000000000, 1.00000000000000 ) );
#494 = CARTESIAN_POINT( '', ( 14.5341439002693, 0.000000000000000, 0.000000000000000 ) );
#495 = DIRECTION( '', ( -1.00000000000000, 0.000000000000000, 0.000000000000000 ) );
#496 = DIRECTION( '', ( 0.000000000000000, 0.000000000000000, 1.00000000000000 ) );
#497 = CARTESIAN_POINT( '', ( 17.0000000000000, 0.000000000000000, 0.000000000000000 ) );
#498 = DIRECTION( '', ( -1.00000000000000, 0.000000000000000, 0.000000000000000 ) );
#499 = DIRECTION( '', ( 0.000000000000000, 0.000000000000000, 1.00000000000000 ) );
ENDSEC;
END-ISO-10303-21;
