ISO-10303-21;
HEADER;
FILE_DESCRIPTION( ( 'STEP AP214' ), '1' );
FILE_NAME( '//goodhand-server/Shared Folders/GoodHand Data/Kipp CAD/K0333/K0333.02.stp', '2020-12-03T08:58:04', ( '' ), ( '' ), ' ', 'PARTsolutions', ' ' );
FILE_SCHEMA( ( 'AUTOMOTIVE_DESIGN { 1 0 10303 214 1 1 1 1 }' ) );
ENDSEC;
DATA;
#1 = MECHANICAL_DESIGN_GEOMETRIC_PRESENTATION_REPRESENTATION( ' ', ( #10, #11, #12, #13, #14, #15, #16, #17, #18, #19, #20 ), #6 );
#2 = PRODUCT_DEFINITION_CONTEXT( '', #21, 'design' );
#3 = APPLICATION_PROTOCOL_DEFINITION( 'international standard', 'automotive_design', 2001, #21 );
#4 = PRODUCT_CATEGORY_RELATIONSHIP( 'NONE', 'NONE', #22, #23 );
#5 = SHAPE_DEFINITION_REPRESENTATION( #24, #25 );
#6 =  ( GEOMETRIC_REPRESENTATION_CONTEXT( 3 )GLOBAL_UNCERTAINTY_ASSIGNED_CONTEXT( ( #28 ) )GLOBAL_UNIT_ASSIGNED_CONTEXT( ( #30, #31, #32 ) )REPRESENTATION_CONTEXT( 'NONE', 'WORKSPACE' ) );
#10 = STYLED_ITEM( '', ( #34 ), #35 );
#11 = STYLED_ITEM( '', ( #36 ), #37 );
#12 = STYLED_ITEM( '', ( #38 ), #39 );
#13 = STYLED_ITEM( '', ( #40 ), #41 );
#14 = STYLED_ITEM( '', ( #42 ), #43 );
#15 = STYLED_ITEM( '', ( #44 ), #45 );
#16 = STYLED_ITEM( '', ( #46 ), #47 );
#17 = STYLED_ITEM( '', ( #48 ), #49 );
#18 = STYLED_ITEM( '', ( #50 ), #51 );
#19 = STYLED_ITEM( '', ( #52 ), #53 );
#20 = STYLED_ITEM( '', ( #54 ), #55 );
#21 = APPLICATION_CONTEXT( 'core data for automotive mechanical design processes' );
#22 = PRODUCT_CATEGORY( 'part', 'NONE' );
#23 = PRODUCT_RELATED_PRODUCT_CATEGORY( 'detail', ' ', ( #56 ) );
#24 = PRODUCT_DEFINITION_SHAPE( 'NONE', 'NONE', #57 );
#25 = ADVANCED_BREP_SHAPE_REPRESENTATION( '_K0333.02', ( #58, #59 ), #6 );
#28 = UNCERTAINTY_MEASURE_WITH_UNIT( LENGTH_MEASURE( 0.00100000000000000 ), #30, '', '' );
#30 =  ( CONVERSION_BASED_UNIT( 'MILLIMETRE', #62 )LENGTH_UNIT(  )NAMED_UNIT( #65 ) );
#31 =  ( NAMED_UNIT( #67 )PLANE_ANGLE_UNIT(  )SI_UNIT( $, .RADIAN. ) );
#32 =  ( NAMED_UNIT( #67 )SI_UNIT( $, .STERADIAN. )SOLID_ANGLE_UNIT(  ) );
#34 = PRESENTATION_STYLE_ASSIGNMENT( ( #73 ) );
#35 = ADVANCED_FACE( '', ( #74, #75 ), #76, .F. );
#36 = PRESENTATION_STYLE_ASSIGNMENT( ( #77 ) );
#37 = ADVANCED_FACE( '', ( #78, #79 ), #80, .F. );
#38 = PRESENTATION_STYLE_ASSIGNMENT( ( #81 ) );
#39 = ADVANCED_FACE( '', ( #82, #83 ), #84, .T. );
#40 = PRESENTATION_STYLE_ASSIGNMENT( ( #85 ) );
#41 = ADVANCED_FACE( '', ( #86, #87 ), #88, .T. );
#42 = PRESENTATION_STYLE_ASSIGNMENT( ( #89 ) );
#43 = ADVANCED_FACE( '', ( #90, #91 ), #92, .F. );
#44 = PRESENTATION_STYLE_ASSIGNMENT( ( #93 ) );
#45 = ADVANCED_FACE( '', ( #94, #95 ), #96, .T. );
#46 = PRESENTATION_STYLE_ASSIGNMENT( ( #97 ) );
#47 = ADVANCED_FACE( '', ( #98 ), #99, .F. );
#48 = PRESENTATION_STYLE_ASSIGNMENT( ( #100 ) );
#49 = ADVANCED_FACE( '', ( #101, #102 ), #103, .T. );
#50 = PRESENTATION_STYLE_ASSIGNMENT( ( #104 ) );
#51 = ADVANCED_FACE( '', ( #105, #106 ), #107, .F. );
#52 = PRESENTATION_STYLE_ASSIGNMENT( ( #108 ) );
#53 = ADVANCED_FACE( '', ( #109, #110 ), #111, .T. );
#54 = PRESENTATION_STYLE_ASSIGNMENT( ( #112 ) );
#55 = ADVANCED_FACE( '', ( #113 ), #114, .T. );
#56 = PRODUCT( '_K0333.02', '_K0333.02', 'PART-_K0333.02-DESC', ( #115 ) );
#57 = PRODUCT_DEFINITION( 'NONE', 'NONE', #116, #2 );
#58 = BREP_WITH_VOIDS( '_K0333.02', #117, ( #118 ) );
#59 = AXIS2_PLACEMENT_3D( '', #119, #120, #121 );
#62 = LENGTH_MEASURE_WITH_UNIT( LENGTH_MEASURE( 1.00000000000000 ), #122 );
#65 = DIMENSIONAL_EXPONENTS( 1.00000000000000, 0.000000000000000, 0.000000000000000, 0.000000000000000, 0.000000000000000, 0.000000000000000, 0.000000000000000 );
#67 = DIMENSIONAL_EXPONENTS( 0.000000000000000, 0.000000000000000, 0.000000000000000, 0.000000000000000, 0.000000000000000, 0.000000000000000, 0.000000000000000 );
#73 = SURFACE_STYLE_USAGE( .BOTH., #123 );
#74 = FACE_BOUND( '', #124, .T. );
#75 = FACE_OUTER_BOUND( '', #125, .T. );
#76 = PLANE( '', #126 );
#77 = SURFACE_STYLE_USAGE( .BOTH., #127 );
#78 = FACE_OUTER_BOUND( '', #128, .T. );
#79 = FACE_BOUND( '', #129, .T. );
#80 = PLANE( '', #130 );
#81 = SURFACE_STYLE_USAGE( .BOTH., #131 );
#82 = FACE_OUTER_BOUND( '', #132, .T. );
#83 = FACE_OUTER_BOUND( '', #133, .T. );
#84 = CYLINDRICAL_SURFACE( '', #134, 1.25000000000000 );
#85 = SURFACE_STYLE_USAGE( .BOTH., #135 );
#86 = FACE_OUTER_BOUND( '', #136, .T. );
#87 = FACE_OUTER_BOUND( '', #137, .T. );
#88 = CYLINDRICAL_SURFACE( '', #138, 1.00000000000000 );
#89 = SURFACE_STYLE_USAGE( .BOTH., #139 );
#90 = FACE_OUTER_BOUND( '', #140, .T. );
#91 = FACE_OUTER_BOUND( '', #141, .T. );
#92 = CYLINDRICAL_SURFACE( '', #142, 0.740000000000000 );
#93 = SURFACE_STYLE_USAGE( .BOTH., #143 );
#94 = FACE_OUTER_BOUND( '', #144, .T. );
#95 = FACE_BOUND( '', #145, .T. );
#96 = CONICAL_SURFACE( '', #146, 0.826794919200000, 0.523598775600000 );
#97 = SURFACE_STYLE_USAGE( .BOTH., #147 );
#98 = FACE_OUTER_BOUND( '', #148, .T. );
#99 = PLANE( '', #149 );
#100 = SURFACE_STYLE_USAGE( .BOTH., #150 );
#101 = FACE_BOUND( '', #151, .T. );
#102 = FACE_OUTER_BOUND( '', #152, .T. );
#103 = SPHERICAL_SURFACE( '', #153, 0.750000000000000 );
#104 = SURFACE_STYLE_USAGE( .BOTH., #154 );
#105 = FACE_OUTER_BOUND( '', #155, .T. );
#106 = FACE_OUTER_BOUND( '', #156, .T. );
#107 = CYLINDRICAL_SURFACE( '', #157, 0.740000000000000 );
#108 = SURFACE_STYLE_USAGE( .BOTH., #158 );
#109 = FACE_BOUND( '', #159, .T. );
#110 = FACE_OUTER_BOUND( '', #160, .T. );
#111 = SPHERICAL_SURFACE( '', #161, 0.750000000000000 );
#112 = SURFACE_STYLE_USAGE( .BOTH., #162 );
#113 = FACE_OUTER_BOUND( '', #163, .T. );
#114 = PLANE( '', #164 );
#115 = PRODUCT_CONTEXT( '', #21, 'mechanical' );
#116 = PRODUCT_DEFINITION_FORMATION_WITH_SPECIFIED_SOURCE( ' ', 'NONE', #56, .NOT_KNOWN. );
#117 = CLOSED_SHELL( '', ( #43, #35, #39, #37, #41, #45, #47, #49 ) );
#118 = ORIENTED_CLOSED_SHELL( '', *, #165, .T. );
#119 = CARTESIAN_POINT( '', ( 0.000000000000000, 0.000000000000000, 0.000000000000000 ) );
#120 = DIRECTION( '', ( 0.000000000000000, 0.000000000000000, 1.00000000000000 ) );
#121 = DIRECTION( '', ( 1.00000000000000, 0.000000000000000, 0.000000000000000 ) );
#122 =  ( LENGTH_UNIT(  )NAMED_UNIT( #65 )SI_UNIT( .MILLI., .METRE. ) );
#123 = SURFACE_SIDE_STYLE( '', ( #167 ) );
#124 = EDGE_LOOP( '', ( #168 ) );
#125 = EDGE_LOOP( '', ( #169 ) );
#126 = AXIS2_PLACEMENT_3D( '', #170, #171, #172 );
#127 = SURFACE_SIDE_STYLE( '', ( #173 ) );
#128 = EDGE_LOOP( '', ( #174 ) );
#129 = EDGE_LOOP( '', ( #175 ) );
#130 = AXIS2_PLACEMENT_3D( '', #176, #177, #178 );
#131 = SURFACE_SIDE_STYLE( '', ( #179 ) );
#132 = EDGE_LOOP( '', ( #180 ) );
#133 = EDGE_LOOP( '', ( #181 ) );
#134 = AXIS2_PLACEMENT_3D( '', #182, #183, #184 );
#135 = SURFACE_SIDE_STYLE( '', ( #185 ) );
#136 = EDGE_LOOP( '', ( #186 ) );
#137 = EDGE_LOOP( '', ( #187 ) );
#138 = AXIS2_PLACEMENT_3D( '', #188, #189, #190 );
#139 = SURFACE_SIDE_STYLE( '', ( #191 ) );
#140 = EDGE_LOOP( '', ( #192 ) );
#141 = EDGE_LOOP( '', ( #193 ) );
#142 = AXIS2_PLACEMENT_3D( '', #194, #195, #196 );
#143 = SURFACE_SIDE_STYLE( '', ( #197 ) );
#144 = EDGE_LOOP( '', ( #198 ) );
#145 = EDGE_LOOP( '', ( #199 ) );
#146 = AXIS2_PLACEMENT_3D( '', #200, #201, #202 );
#147 = SURFACE_SIDE_STYLE( '', ( #203 ) );
#148 = EDGE_LOOP( '', ( #204 ) );
#149 = AXIS2_PLACEMENT_3D( '', #205, #206, #207 );
#150 = SURFACE_SIDE_STYLE( '', ( #208 ) );
#151 = VERTEX_LOOP( '', #209 );
#152 = EDGE_LOOP( '', ( #210 ) );
#153 = AXIS2_PLACEMENT_3D( '', #211, #212, #213 );
#154 = SURFACE_SIDE_STYLE( '', ( #214 ) );
#155 = EDGE_LOOP( '', ( #215 ) );
#156 = EDGE_LOOP( '', ( #216 ) );
#157 = AXIS2_PLACEMENT_3D( '', #217, #218, #219 );
#158 = SURFACE_SIDE_STYLE( '', ( #220 ) );
#159 = VERTEX_LOOP( '', #221 );
#160 = EDGE_LOOP( '', ( #222 ) );
#161 = AXIS2_PLACEMENT_3D( '', #223, #224, #225 );
#162 = SURFACE_SIDE_STYLE( '', ( #226 ) );
#163 = EDGE_LOOP( '', ( #227 ) );
#164 = AXIS2_PLACEMENT_3D( '', #228, #229, #230 );
#165 = CLOSED_SHELL( '', ( #55, #51, #53 ) );
#167 = SURFACE_STYLE_FILL_AREA( #231 );
#168 = ORIENTED_EDGE( '', *, *, #232, .F. );
#169 = ORIENTED_EDGE( '', *, *, #233, .T. );
#170 = CARTESIAN_POINT( '', ( -1.25000000000000, 2.99999999999999, 0.000000000000000 ) );
#171 = DIRECTION( '', ( 2.30724344590963E-15, -1.00000000000000, 0.000000000000000 ) );
#172 = DIRECTION( '', ( 1.00000000000000, 2.30724344590963E-15, 0.000000000000000 ) );
#173 = SURFACE_STYLE_FILL_AREA( #234 );
#174 = ORIENTED_EDGE( '', *, *, #235, .F. );
#175 = ORIENTED_EDGE( '', *, *, #236, .T. );
#176 = CARTESIAN_POINT( '', ( -1.00000000000001, 2.39999999999999, 0.000000000000000 ) );
#177 = DIRECTION( '', ( -2.30724344590963E-15, 1.00000000000000, 0.000000000000000 ) );
#178 = DIRECTION( '', ( -1.00000000000000, -2.30724344590963E-15, 0.000000000000000 ) );
#179 = SURFACE_STYLE_FILL_AREA( #237 );
#180 = ORIENTED_EDGE( '', *, *, #233, .F. );
#181 = ORIENTED_EDGE( '', *, *, #235, .T. );
#182 = CARTESIAN_POINT( '', ( -6.92173033772890E-15, 2.99999999999999, 0.000000000000000 ) );
#183 = DIRECTION( '', ( 2.30724344590963E-15, -1.00000000000000, -0.000000000000000 ) );
#184 = DIRECTION( '', ( -1.00000000000000, -2.30724344590963E-15, 0.000000000000000 ) );
#185 = SURFACE_STYLE_FILL_AREA( #238 );
#186 = ORIENTED_EDGE( '', *, *, #236, .F. );
#187 = ORIENTED_EDGE( '', *, *, #239, .T. );
#188 = CARTESIAN_POINT( '', ( -6.92173033772890E-15, 2.99999999999999, 0.000000000000000 ) );
#189 = DIRECTION( '', ( 2.30724344590963E-15, -1.00000000000000, -0.000000000000000 ) );
#190 = DIRECTION( '', ( -1.00000000000000, -2.30724344590963E-15, 0.000000000000000 ) );
#191 = SURFACE_STYLE_FILL_AREA( #240 );
#192 = ORIENTED_EDGE( '', *, *, #241, .F. );
#193 = ORIENTED_EDGE( '', *, *, #232, .T. );
#194 = CARTESIAN_POINT( '', ( 0.000000000000000, 0.500000000000000, 0.000000000000000 ) );
#195 = DIRECTION( '', ( -0.000000000000000, 1.00000000000000, 0.000000000000000 ) );
#196 = DIRECTION( '', ( 0.000000000000000, 0.000000000000000, -1.00000000000000 ) );
#197 = SURFACE_STYLE_FILL_AREA( #242 );
#198 = ORIENTED_EDGE( '', *, *, #239, .F. );
#199 = ORIENTED_EDGE( '', *, *, #243, .T. );
#200 = CARTESIAN_POINT( '', ( -4.62223186652937E-30, -5.20417042793042E-15, 0.000000000000000 ) );
#201 = DIRECTION( '', ( -2.30724344590963E-15, 1.00000000000000, -0.000000000000000 ) );
#202 = DIRECTION( '', ( -1.00000000000000, -2.30724344590963E-15, 0.000000000000000 ) );
#203 = SURFACE_STYLE_FILL_AREA( #244 );
#204 = ORIENTED_EDGE( '', *, *, #243, .F. );
#205 = CARTESIAN_POINT( '', ( -2.25907252434740E-30, -6.12630548454839E-15, 0.000000000000000 ) );
#206 = DIRECTION( '', ( -2.30724344590963E-15, 1.00000000000000, 0.000000000000000 ) );
#207 = DIRECTION( '', ( -1.00000000000000, -2.30724344590963E-15, 0.000000000000000 ) );
#208 = SURFACE_STYLE_FILL_AREA( #245 );
#209 = VERTEX_POINT( '', #246 );
#210 = ORIENTED_EDGE( '', *, *, #241, .T. );
#211 = CARTESIAN_POINT( '', ( 5.42101086242752E-17, 2.65000000000000, 0.000000000000000 ) );
#212 = DIRECTION( '', ( 0.000000000000000, -1.00000000000000, 0.000000000000000 ) );
#213 = DIRECTION( '', ( -1.00000000000000, 0.000000000000000, 0.000000000000000 ) );
#214 = SURFACE_STYLE_FILL_AREA( #247 );
#215 = ORIENTED_EDGE( '', *, *, #248, .T. );
#216 = ORIENTED_EDGE( '', *, *, #249, .F. );
#217 = CARTESIAN_POINT( '', ( 0.000000000000000, 0.500000000000000, 0.000000000000000 ) );
#218 = DIRECTION( '', ( -0.000000000000000, 1.00000000000000, 0.000000000000000 ) );
#219 = DIRECTION( '', ( 0.000000000000000, 0.000000000000000, -1.00000000000000 ) );
#220 = SURFACE_STYLE_FILL_AREA( #250 );
#221 = VERTEX_POINT( '', #251 );
#222 = ORIENTED_EDGE( '', *, *, #249, .T. );
#223 = CARTESIAN_POINT( '', ( 5.42101086242752E-17, 2.65000000000000, 0.000000000000000 ) );
#224 = DIRECTION( '', ( 0.000000000000000, -1.00000000000000, 0.000000000000000 ) );
#225 = DIRECTION( '', ( -1.00000000000000, 0.000000000000000, 0.000000000000000 ) );
#226 = SURFACE_STYLE_FILL_AREA( #252 );
#227 = ORIENTED_EDGE( '', *, *, #248, .F. );
#228 = CARTESIAN_POINT( '', ( 0.740000000000000, 0.500000000000000, 0.000000000000000 ) );
#229 = DIRECTION( '', ( 0.000000000000000, 1.00000000000000, 0.000000000000000 ) );
#230 = DIRECTION( '', ( 0.000000000000000, -0.000000000000000, 1.00000000000000 ) );
#231 = FILL_AREA_STYLE( '', ( #253 ) );
#232 = EDGE_CURVE( '', #254, #254, #255, .F. );
#233 = EDGE_CURVE( '', #256, #256, #257, .T. );
#234 = FILL_AREA_STYLE( '', ( #258 ) );
#235 = EDGE_CURVE( '', #259, #259, #260, .T. );
#236 = EDGE_CURVE( '', #261, #261, #262, .T. );
#237 = FILL_AREA_STYLE( '', ( #263 ) );
#238 = FILL_AREA_STYLE( '', ( #264 ) );
#239 = EDGE_CURVE( '', #265, #265, #266, .T. );
#240 = FILL_AREA_STYLE( '', ( #267 ) );
#241 = EDGE_CURVE( '', #268, #268, #269, .F. );
#242 = FILL_AREA_STYLE( '', ( #270 ) );
#243 = EDGE_CURVE( '', #271, #271, #272, .T. );
#244 = FILL_AREA_STYLE( '', ( #273 ) );
#245 = FILL_AREA_STYLE( '', ( #274 ) );
#246 = CARTESIAN_POINT( '', ( 8.28585365624946E-18, 3.40000000000000, 0.000000000000000 ) );
#247 = FILL_AREA_STYLE( '', ( #275 ) );
#248 = EDGE_CURVE( '', #276, #276, #277, .T. );
#249 = EDGE_CURVE( '', #278, #278, #279, .F. );
#250 = FILL_AREA_STYLE( '', ( #280 ) );
#251 = CARTESIAN_POINT( '', ( 8.28585365624946E-18, 1.90000000000000, 0.000000000000000 ) );
#252 = FILL_AREA_STYLE( '', ( #281 ) );
#253 = FILL_AREA_STYLE_COLOUR( '', #282 );
#254 = VERTEX_POINT( '', #283 );
#255 = CIRCLE( '', #284, 0.740000000000000 );
#256 = VERTEX_POINT( '', #285 );
#257 = CIRCLE( '', #286, 1.25000000000000 );
#258 = FILL_AREA_STYLE_COLOUR( '', #287 );
#259 = VERTEX_POINT( '', #288 );
#260 = CIRCLE( '', #289, 1.25000000000000 );
#261 = VERTEX_POINT( '', #290 );
#262 = CIRCLE( '', #291, 1.00000000000000 );
#263 = FILL_AREA_STYLE_COLOUR( '', #292 );
#264 = FILL_AREA_STYLE_COLOUR( '', #293 );
#265 = VERTEX_POINT( '', #294 );
#266 = CIRCLE( '', #295, 1.00000000000000 );
#267 = FILL_AREA_STYLE_COLOUR( '', #296 );
#268 = VERTEX_POINT( '', #297 );
#269 = CIRCLE( '', #298, 0.740000000000000 );
#270 = FILL_AREA_STYLE_COLOUR( '', #299 );
#271 = VERTEX_POINT( '', #300 );
#272 = CIRCLE( '', #301, 0.826794919200000 );
#273 = FILL_AREA_STYLE_COLOUR( '', #302 );
#274 = FILL_AREA_STYLE_COLOUR( '', #303 );
#275 = FILL_AREA_STYLE_COLOUR( '', #304 );
#276 = VERTEX_POINT( '', #305 );
#277 = CIRCLE( '', #306, 0.740000000000000 );
#278 = VERTEX_POINT( '', #307 );
#279 = CIRCLE( '', #308, 0.740000000000000 );
#280 = FILL_AREA_STYLE_COLOUR( '', #309 );
#281 = FILL_AREA_STYLE_COLOUR( '', #310 );
#282 = COLOUR_RGB( '', 0.689999997600000, 0.689999997600000, 0.689999997600000 );
#283 = CARTESIAN_POINT( '', ( 0.740000000000000, 3.00000000000000, 0.000000000000000 ) );
#284 = AXIS2_PLACEMENT_3D( '', #311, #312, #313 );
#285 = CARTESIAN_POINT( '', ( -1.25000000000000, 2.99999999999999, 0.000000000000000 ) );
#286 = AXIS2_PLACEMENT_3D( '', #314, #315, #316 );
#287 = COLOUR_RGB( '', 0.689999997600000, 0.689999997600000, 0.689999997600000 );
#288 = CARTESIAN_POINT( '', ( -1.25000000000000, 2.39999999999999, 0.000000000000000 ) );
#289 = AXIS2_PLACEMENT_3D( '', #317, #318, #319 );
#290 = CARTESIAN_POINT( '', ( -1.00000000000001, 2.39999999999999, 0.000000000000000 ) );
#291 = AXIS2_PLACEMENT_3D( '', #320, #321, #322 );
#292 = COLOUR_RGB( '', 0.689999997600000, 0.689999997600000, 0.689999997600000 );
#293 = COLOUR_RGB( '', 0.689999997600000, 0.689999997600000, 0.689999997600000 );
#294 = CARTESIAN_POINT( '', ( -1.00000000000002, 0.299999999999993, 0.000000000000000 ) );
#295 = AXIS2_PLACEMENT_3D( '', #323, #324, #325 );
#296 = COLOUR_RGB( '', 0.689999997600000, 0.689999997600000, 0.689999997600000 );
#297 = CARTESIAN_POINT( '', ( 0.000000000000000, 2.77206555615734, -0.740000000000000 ) );
#298 = AXIS2_PLACEMENT_3D( '', #326, #327, #328 );
#299 = COLOUR_RGB( '', 0.689999997600000, 0.689999997600000, 0.689999997600000 );
#300 = CARTESIAN_POINT( '', ( -0.826794919243134, -7.11178758646553E-15, 0.000000000000000 ) );
#301 = AXIS2_PLACEMENT_3D( '', #329, #330, #331 );
#302 = COLOUR_RGB( '', 0.689999997600000, 0.689999997600000, 0.689999997600000 );
#303 = COLOUR_RGB( '', 0.689999997600000, 0.689999997600000, 0.689999997600000 );
#304 = COLOUR_RGB( '', 0.689999997600000, 0.689999997600000, 0.689999997600000 );
#305 = CARTESIAN_POINT( '', ( 0.000000000000000, 0.500000000000000, -0.740000000000000 ) );
#306 = AXIS2_PLACEMENT_3D( '', #332, #333, #334 );
#307 = CARTESIAN_POINT( '', ( 0.000000000000000, 2.52793444384266, 0.740000000000000 ) );
#308 = AXIS2_PLACEMENT_3D( '', #335, #336, #337 );
#309 = COLOUR_RGB( '', 0.689999997600000, 0.689999997600000, 0.689999997600000 );
#310 = COLOUR_RGB( '', 0.689999997600000, 0.689999997600000, 0.689999997600000 );
#311 = CARTESIAN_POINT( '', ( 0.000000000000000, 2.99999999999999, 0.000000000000000 ) );
#312 = DIRECTION( '', ( 2.30724344590963E-15, -1.00000000000000, 0.000000000000000 ) );
#313 = DIRECTION( '', ( 1.00000000000000, 2.30724344590963E-15, 0.000000000000000 ) );
#314 = CARTESIAN_POINT( '', ( -6.92173033772891E-15, 3.00000000000000, 0.000000000000000 ) );
#315 = DIRECTION( '', ( -2.30724344590963E-15, 1.00000000000000, 0.000000000000000 ) );
#316 = DIRECTION( '', ( -1.00000000000000, -2.30724344590963E-15, 0.000000000000000 ) );
#317 = CARTESIAN_POINT( '', ( -5.53738427018313E-15, 2.40000000000000, 0.000000000000000 ) );
#318 = DIRECTION( '', ( -2.30724344590963E-15, 1.00000000000000, 0.000000000000000 ) );
#319 = DIRECTION( '', ( -1.00000000000000, -2.30724344590963E-15, 0.000000000000000 ) );
#320 = CARTESIAN_POINT( '', ( -5.53738427018312E-15, 2.39999999999999, 0.000000000000000 ) );
#321 = DIRECTION( '', ( -2.30724344590963E-15, 1.00000000000000, 0.000000000000000 ) );
#322 = DIRECTION( '', ( -1.00000000000000, -2.30724344590963E-15, 0.000000000000000 ) );
#323 = CARTESIAN_POINT( '', ( -6.92173033772895E-16, 0.299999999999995, 0.000000000000000 ) );
#324 = DIRECTION( '', ( -2.30724344590963E-15, 1.00000000000000, 0.000000000000000 ) );
#325 = DIRECTION( '', ( -1.00000000000000, -2.30724344590963E-15, 0.000000000000000 ) );
#326 = CARTESIAN_POINT( '', ( 0.000000000000000, 2.77206555615734, 0.000000000000000 ) );
#327 = DIRECTION( '', ( 0.000000000000000, -1.00000000000000, -0.000000000000000 ) );
#328 = DIRECTION( '', ( 0.000000000000000, 0.000000000000000, -1.00000000000000 ) );
#329 = CARTESIAN_POINT( '', ( -4.62223186652937E-30, -5.20417042793042E-15, 0.000000000000000 ) );
#330 = DIRECTION( '', ( -2.30724344590963E-15, 1.00000000000000, 0.000000000000000 ) );
#331 = DIRECTION( '', ( -1.00000000000000, -2.30724344590963E-15, 0.000000000000000 ) );
#332 = CARTESIAN_POINT( '', ( 0.000000000000000, 0.500000000000000, 0.000000000000000 ) );
#333 = DIRECTION( '', ( 0.000000000000000, -1.00000000000000, -0.000000000000000 ) );
#334 = DIRECTION( '', ( 0.000000000000000, 0.000000000000000, -1.00000000000000 ) );
#335 = CARTESIAN_POINT( '', ( 0.000000000000000, 2.52793444384266, 0.000000000000000 ) );
#336 = DIRECTION( '', ( 0.000000000000000, 1.00000000000000, 0.000000000000000 ) );
#337 = DIRECTION( '', ( 0.000000000000000, -0.000000000000000, 1.00000000000000 ) );
ENDSEC;
END-ISO-10303-21;
