ISO-10303-21;
HEADER;
FILE_DESCRIPTION( ( 'STEP AP214' ), '1' );
FILE_NAME( '//goodhand-server/Shared Folders/GoodHand Data/Kipp CAD/K0390/K0390.201X90.stp', '2020-12-07T10:16:12', ( '' ), ( '' ), ' ', 'PARTsolutions', ' ' );
FILE_SCHEMA( ( 'AUTOMOTIVE_DESIGN { 1 0 10303 214 1 1 1 1 }' ) );
ENDSEC;
DATA;
#1 = MECHANICAL_DESIGN_GEOMETRIC_PRESENTATION_REPRESENTATION( ' ', ( #10, #11, #12, #13, #14, #15, #16, #17, #18, #19, #20, #21, #22 ), #6 );
#2 = PRODUCT_DEFINITION_CONTEXT( '', #23, 'design' );
#3 = APPLICATION_PROTOCOL_DEFINITION( 'international standard', 'automotive_design', 2001, #23 );
#4 = PRODUCT_CATEGORY_RELATIONSHIP( 'NONE', 'NONE', #24, #25 );
#5 = SHAPE_DEFINITION_REPRESENTATION( #26, #27 );
#6 =  ( GEOMETRIC_REPRESENTATION_CONTEXT( 3 )GLOBAL_UNCERTAINTY_ASSIGNED_CONTEXT( ( #30 ) )GLOBAL_UNIT_ASSIGNED_CONTEXT( ( #32, #33, #34 ) )REPRESENTATION_CONTEXT( 'NONE', 'WORKSPACE' ) );
#10 = STYLED_ITEM( '', ( #36 ), #37 );
#11 = STYLED_ITEM( '', ( #38 ), #39 );
#12 = STYLED_ITEM( '', ( #40 ), #41 );
#13 = STYLED_ITEM( '', ( #42 ), #43 );
#14 = STYLED_ITEM( '', ( #44 ), #45 );
#15 = STYLED_ITEM( '', ( #46 ), #47 );
#16 = STYLED_ITEM( '', ( #48 ), #49 );
#17 = STYLED_ITEM( '', ( #50 ), #51 );
#18 = STYLED_ITEM( '', ( #52 ), #53 );
#19 = STYLED_ITEM( '', ( #54 ), #55 );
#20 = STYLED_ITEM( '', ( #56 ), #57 );
#21 = STYLED_ITEM( '', ( #58 ), #59 );
#22 = STYLED_ITEM( '', ( #60 ), #61 );
#23 = APPLICATION_CONTEXT( 'core data for automotive mechanical design processes' );
#24 = PRODUCT_CATEGORY( 'part', 'NONE' );
#25 = PRODUCT_RELATED_PRODUCT_CATEGORY( 'detail', ' ', ( #62 ) );
#26 = PRODUCT_DEFINITION_SHAPE( 'NONE', 'NONE', #63 );
#27 = ADVANCED_BREP_SHAPE_REPRESENTATION( '_K0390.201X90', ( #64, #65 ), #6 );
#30 = UNCERTAINTY_MEASURE_WITH_UNIT( LENGTH_MEASURE( 0.00100000000000000 ), #32, '', '' );
#32 =  ( CONVERSION_BASED_UNIT( 'MILLIMETRE', #68 )LENGTH_UNIT(  )NAMED_UNIT( #71 ) );
#33 =  ( NAMED_UNIT( #73 )PLANE_ANGLE_UNIT(  )SI_UNIT( $, .RADIAN. ) );
#34 =  ( NAMED_UNIT( #73 )SI_UNIT( $, .STERADIAN. )SOLID_ANGLE_UNIT(  ) );
#36 = PRESENTATION_STYLE_ASSIGNMENT( ( #79 ) );
#37 = ADVANCED_FACE( '', ( #80 ), #81, .F. );
#38 = PRESENTATION_STYLE_ASSIGNMENT( ( #82 ) );
#39 = ADVANCED_FACE( '', ( #83 ), #84, .T. );
#40 = PRESENTATION_STYLE_ASSIGNMENT( ( #85 ) );
#41 = ADVANCED_FACE( '', ( #86 ), #87, .F. );
#42 = PRESENTATION_STYLE_ASSIGNMENT( ( #88 ) );
#43 = ADVANCED_FACE( '', ( #89, #90 ), #91, .T. );
#44 = PRESENTATION_STYLE_ASSIGNMENT( ( #92 ) );
#45 = ADVANCED_FACE( '', ( #93 ), #94, .T. );
#46 = PRESENTATION_STYLE_ASSIGNMENT( ( #95 ) );
#47 = ADVANCED_FACE( '', ( #96, #97 ), #98, .T. );
#48 = PRESENTATION_STYLE_ASSIGNMENT( ( #99 ) );
#49 = ADVANCED_FACE( '', ( #100, #101 ), #102, .T. );
#50 = PRESENTATION_STYLE_ASSIGNMENT( ( #103 ) );
#51 = ADVANCED_FACE( '', ( #104, #105 ), #106, .T. );
#52 = PRESENTATION_STYLE_ASSIGNMENT( ( #107 ) );
#53 = ADVANCED_FACE( '', ( #108 ), #109, .F. );
#54 = PRESENTATION_STYLE_ASSIGNMENT( ( #110 ) );
#55 = ADVANCED_FACE( '', ( #111 ), #112, .T. );
#56 = PRESENTATION_STYLE_ASSIGNMENT( ( #113 ) );
#57 = ADVANCED_FACE( '', ( #114, #115 ), #116, .F. );
#58 = PRESENTATION_STYLE_ASSIGNMENT( ( #117 ) );
#59 = ADVANCED_FACE( '', ( #118 ), #119, .F. );
#60 = PRESENTATION_STYLE_ASSIGNMENT( ( #120 ) );
#61 = ADVANCED_FACE( '', ( #121, #122 ), #123, .T. );
#62 = PRODUCT( '_K0390.201X90', '_K0390.201X90', 'PART-_K0390.201X90-DESC', ( #124 ) );
#63 = PRODUCT_DEFINITION( 'NONE', 'NONE', #125, #2 );
#64 = MANIFOLD_SOLID_BREP( '_K0390.201X90', #126 );
#65 = AXIS2_PLACEMENT_3D( '', #127, #128, #129 );
#68 = LENGTH_MEASURE_WITH_UNIT( LENGTH_MEASURE( 1.00000000000000 ), #130 );
#71 = DIMENSIONAL_EXPONENTS( 1.00000000000000, 0.000000000000000, 0.000000000000000, 0.000000000000000, 0.000000000000000, 0.000000000000000, 0.000000000000000 );
#73 = DIMENSIONAL_EXPONENTS( 0.000000000000000, 0.000000000000000, 0.000000000000000, 0.000000000000000, 0.000000000000000, 0.000000000000000, 0.000000000000000 );
#79 = SURFACE_STYLE_USAGE( .BOTH., #131 );
#80 = FACE_OUTER_BOUND( '', #132, .T. );
#81 = PLANE( '', #133 );
#82 = SURFACE_STYLE_USAGE( .BOTH., #134 );
#83 = FACE_OUTER_BOUND( '', #135, .T. );
#84 = CONICAL_SURFACE( '', #136, 8.46650000000000, 0.785398163400000 );
#85 = SURFACE_STYLE_USAGE( .BOTH., #137 );
#86 = FACE_OUTER_BOUND( '', #138, .T. );
#87 = PLANE( '', #139 );
#88 = SURFACE_STYLE_USAGE( .BOTH., #140 );
#89 = FACE_OUTER_BOUND( '', #141, .T. );
#90 = FACE_OUTER_BOUND( '', #142, .T. );
#91 = CYLINDRICAL_SURFACE( '', #143, 10.0000000000000 );
#92 = SURFACE_STYLE_USAGE( .BOTH., #144 );
#93 = FACE_OUTER_BOUND( '', #145, .T. );
#94 = CONICAL_SURFACE( '', #146, 8.46650000000000, 0.785398163400000 );
#95 = SURFACE_STYLE_USAGE( .BOTH., #147 );
#96 = FACE_OUTER_BOUND( '', #148, .T. );
#97 = FACE_OUTER_BOUND( '', #149, .T. );
#98 = CYLINDRICAL_SURFACE( '', #150, 7.75000000000000 );
#99 = SURFACE_STYLE_USAGE( .BOTH., #151 );
#100 = FACE_OUTER_BOUND( '', #152, .T. );
#101 = FACE_OUTER_BOUND( '', #153, .T. );
#102 = CYLINDRICAL_SURFACE( '', #154, 7.20000000000000 );
#103 = SURFACE_STYLE_USAGE( .BOTH., #155 );
#104 = FACE_BOUND( '', #156, .T. );
#105 = FACE_OUTER_BOUND( '', #157, .T. );
#106 = SPHERICAL_SURFACE( '', #158, 12.9998500000000 );
#107 = SURFACE_STYLE_USAGE( .BOTH., #159 );
#108 = FACE_OUTER_BOUND( '', #160, .T. );
#109 = PLANE( '', #161 );
#110 = SURFACE_STYLE_USAGE( .BOTH., #162 );
#111 = FACE_OUTER_BOUND( '', #163, .T. );
#112 = PLANE( '', #164 );
#113 = SURFACE_STYLE_USAGE( .BOTH., #165 );
#114 = FACE_OUTER_BOUND( '', #166, .T. );
#115 = FACE_BOUND( '', #167, .T. );
#116 = PLANE( '', #168 );
#117 = SURFACE_STYLE_USAGE( .BOTH., #169 );
#118 = FACE_OUTER_BOUND( '', #170, .T. );
#119 = PLANE( '', #171 );
#120 = SURFACE_STYLE_USAGE( .BOTH., #172 );
#121 = FACE_BOUND( '', #173, .T. );
#122 = FACE_OUTER_BOUND( '', #174, .T. );
#123 = CONICAL_SURFACE( '', #175, 10.0000000000000, 1.12234211560000 );
#124 = PRODUCT_CONTEXT( '', #23, 'mechanical' );
#125 = PRODUCT_DEFINITION_FORMATION_WITH_SPECIFIED_SOURCE( ' ', 'NONE', #62, .NOT_KNOWN. );
#126 = CLOSED_SHELL( '', ( #41, #59, #51, #47, #57, #49, #61, #43, #39, #53, #45, #37, #55 ) );
#127 = CARTESIAN_POINT( '', ( 0.000000000000000, 0.000000000000000, 0.000000000000000 ) );
#128 = DIRECTION( '', ( 0.000000000000000, 0.000000000000000, 1.00000000000000 ) );
#129 = DIRECTION( '', ( 1.00000000000000, 0.000000000000000, 0.000000000000000 ) );
#130 =  ( LENGTH_UNIT(  )NAMED_UNIT( #71 )SI_UNIT( .MILLI., .METRE. ) );
#131 = SURFACE_SIDE_STYLE( '', ( #177 ) );
#132 = EDGE_LOOP( '', ( #178, #179 ) );
#133 = AXIS2_PLACEMENT_3D( '', #180, #181, #182 );
#134 = SURFACE_SIDE_STYLE( '', ( #183 ) );
#135 = EDGE_LOOP( '', ( #184, #185, #186, #187 ) );
#136 = AXIS2_PLACEMENT_3D( '', #188, #189, #190 );
#137 = SURFACE_SIDE_STYLE( '', ( #191 ) );
#138 = EDGE_LOOP( '', ( #192, #193, #194, #195, #196, #197 ) );
#139 = AXIS2_PLACEMENT_3D( '', #198, #199, #200 );
#140 = SURFACE_SIDE_STYLE( '', ( #201 ) );
#141 = EDGE_LOOP( '', ( #202 ) );
#142 = EDGE_LOOP( '', ( #203, #204, #205, #206, #207, #208, #209, #210 ) );
#143 = AXIS2_PLACEMENT_3D( '', #211, #212, #213 );
#144 = SURFACE_SIDE_STYLE( '', ( #214 ) );
#145 = EDGE_LOOP( '', ( #215, #216, #217, #218 ) );
#146 = AXIS2_PLACEMENT_3D( '', #219, #220, #221 );
#147 = SURFACE_SIDE_STYLE( '', ( #222 ) );
#148 = EDGE_LOOP( '', ( #223 ) );
#149 = EDGE_LOOP( '', ( #224 ) );
#150 = AXIS2_PLACEMENT_3D( '', #225, #226, #227 );
#151 = SURFACE_SIDE_STYLE( '', ( #228 ) );
#152 = EDGE_LOOP( '', ( #229 ) );
#153 = EDGE_LOOP( '', ( #230 ) );
#154 = AXIS2_PLACEMENT_3D( '', #231, #232, #233 );
#155 = SURFACE_SIDE_STYLE( '', ( #234 ) );
#156 = VERTEX_LOOP( '', #235 );
#157 = EDGE_LOOP( '', ( #236 ) );
#158 = AXIS2_PLACEMENT_3D( '', #237, #238, #239 );
#159 = SURFACE_SIDE_STYLE( '', ( #240 ) );
#160 = EDGE_LOOP( '', ( #241, #242 ) );
#161 = AXIS2_PLACEMENT_3D( '', #243, #244, #245 );
#162 = SURFACE_SIDE_STYLE( '', ( #246 ) );
#163 = EDGE_LOOP( '', ( #247, #248, #249, #250 ) );
#164 = AXIS2_PLACEMENT_3D( '', #251, #252, #253 );
#165 = SURFACE_SIDE_STYLE( '', ( #254 ) );
#166 = EDGE_LOOP( '', ( #255 ) );
#167 = EDGE_LOOP( '', ( #256 ) );
#168 = AXIS2_PLACEMENT_3D( '', #257, #258, #259 );
#169 = SURFACE_SIDE_STYLE( '', ( #260 ) );
#170 = EDGE_LOOP( '', ( #261, #262, #263, #264, #265, #266 ) );
#171 = AXIS2_PLACEMENT_3D( '', #267, #268, #269 );
#172 = SURFACE_SIDE_STYLE( '', ( #270 ) );
#173 = EDGE_LOOP( '', ( #271 ) );
#174 = EDGE_LOOP( '', ( #272 ) );
#175 = AXIS2_PLACEMENT_3D( '', #273, #274, #275 );
#177 = SURFACE_STYLE_FILL_AREA( #276 );
#178 = ORIENTED_EDGE( '', *, *, #277, .F. );
#179 = ORIENTED_EDGE( '', *, *, #278, .F. );
#180 = CARTESIAN_POINT( '', ( 1.39516429120775E-14, 1.43926947931643E-14, 0.000000000000000 ) );
#181 = DIRECTION( '', ( 1.00000000000000, -6.12323399573677E-17, -0.000000000000000 ) );
#182 = DIRECTION( '', ( 6.12323399573677E-17, 1.00000000000000, 0.000000000000000 ) );
#183 = SURFACE_STYLE_FILL_AREA( #279 );
#184 = ORIENTED_EDGE( '', *, *, #277, .T. );
#185 = ORIENTED_EDGE( '', *, *, #280, .T. );
#186 = ORIENTED_EDGE( '', *, *, #281, .F. );
#187 = ORIENTED_EDGE( '', *, *, #282, .T. );
#188 = CARTESIAN_POINT( '', ( 1.38777878078145E-14, 1.43926947931643E-14, 0.000000000000000 ) );
#189 = DIRECTION( '', ( 1.00000000000000, -6.12323399573677E-17, -0.000000000000000 ) );
#190 = DIRECTION( '', ( 6.12323399573677E-17, 1.00000000000000, 0.000000000000000 ) );
#191 = SURFACE_STYLE_FILL_AREA( #283 );
#192 = ORIENTED_EDGE( '', *, *, #280, .F. );
#193 = ORIENTED_EDGE( '', *, *, #278, .T. );
#194 = ORIENTED_EDGE( '', *, *, #282, .F. );
#195 = ORIENTED_EDGE( '', *, *, #284, .F. );
#196 = ORIENTED_EDGE( '', *, *, #285, .F. );
#197 = ORIENTED_EDGE( '', *, *, #286, .F. );
#198 = CARTESIAN_POINT( '', ( 3.00000000000001, 0.900000000000014, 10.5000000000000 ) );
#199 = DIRECTION( '', ( 0.000000000000000, 1.00000000000000, 0.000000000000000 ) );
#200 = DIRECTION( '', ( 0.000000000000000, -0.000000000000000, 1.00000000000000 ) );
#201 = SURFACE_STYLE_FILL_AREA( #287 );
#202 = ORIENTED_EDGE( '', *, *, #288, .F. );
#203 = ORIENTED_EDGE( '', *, *, #289, .T. );
#204 = ORIENTED_EDGE( '', *, *, #290, .T. );
#205 = ORIENTED_EDGE( '', *, *, #291, .F. );
#206 = ORIENTED_EDGE( '', *, *, #284, .T. );
#207 = ORIENTED_EDGE( '', *, *, #281, .T. );
#208 = ORIENTED_EDGE( '', *, *, #286, .T. );
#209 = ORIENTED_EDGE( '', *, *, #292, .F. );
#210 = ORIENTED_EDGE( '', *, *, #293, .T. );
#211 = CARTESIAN_POINT( '', ( 90.0000000000000, 8.88178419700125E-15, 0.000000000000000 ) );
#212 = DIRECTION( '', ( -1.00000000000000, 6.12323399573677E-17, 0.000000000000000 ) );
#213 = DIRECTION( '', ( 6.12323399573677E-17, 1.00000000000000, 0.000000000000000 ) );
#214 = SURFACE_STYLE_FILL_AREA( #294 );
#215 = ORIENTED_EDGE( '', *, *, #289, .F. );
#216 = ORIENTED_EDGE( '', *, *, #295, .T. );
#217 = ORIENTED_EDGE( '', *, *, #296, .T. );
#218 = ORIENTED_EDGE( '', *, *, #297, .T. );
#219 = CARTESIAN_POINT( '', ( 1.38777878078145E-14, 1.43926947931643E-14, 0.000000000000000 ) );
#220 = DIRECTION( '', ( 1.00000000000000, -6.12323399573677E-17, -0.000000000000000 ) );
#221 = DIRECTION( '', ( 6.12323399573677E-17, 1.00000000000000, 0.000000000000000 ) );
#222 = SURFACE_STYLE_FILL_AREA( #298 );
#223 = ORIENTED_EDGE( '', *, *, #299, .F. );
#224 = ORIENTED_EDGE( '', *, *, #300, .T. );
#225 = CARTESIAN_POINT( '', ( 90.0000000000000, 8.88178419700125E-15, 0.000000000000000 ) );
#226 = DIRECTION( '', ( -1.00000000000000, 6.12323399573677E-17, 0.000000000000000 ) );
#227 = DIRECTION( '', ( 6.12323399573677E-17, 1.00000000000000, 0.000000000000000 ) );
#228 = SURFACE_STYLE_FILL_AREA( #301 );
#229 = ORIENTED_EDGE( '', *, *, #302, .F. );
#230 = ORIENTED_EDGE( '', *, *, #303, .T. );
#231 = CARTESIAN_POINT( '', ( 90.0000000000000, 8.88178419700125E-15, 0.000000000000000 ) );
#232 = DIRECTION( '', ( -1.00000000000000, 6.12323399573677E-17, 0.000000000000000 ) );
#233 = DIRECTION( '', ( 6.12323399573677E-17, 1.00000000000000, 0.000000000000000 ) );
#234 = SURFACE_STYLE_FILL_AREA( #304 );
#235 = VERTEX_POINT( '', #305 );
#236 = ORIENTED_EDGE( '', *, *, #299, .T. );
#237 = CARTESIAN_POINT( '', ( 77.0001500000001, 6.76542155630955E-14, 0.000000000000000 ) );
#238 = DIRECTION( '', ( 1.00000000000000, 0.000000000000000, 0.000000000000000 ) );
#239 = DIRECTION( '', ( 0.000000000000000, -1.00000000000000, 0.000000000000000 ) );
#240 = SURFACE_STYLE_FILL_AREA( #306 );
#241 = ORIENTED_EDGE( '', *, *, #296, .F. );
#242 = ORIENTED_EDGE( '', *, *, #307, .F. );
#243 = CARTESIAN_POINT( '', ( 1.39516429120775E-14, 1.43926947931643E-14, 0.000000000000000 ) );
#244 = DIRECTION( '', ( 1.00000000000000, -6.12323399573677E-17, -0.000000000000000 ) );
#245 = DIRECTION( '', ( 6.12323399573677E-17, 1.00000000000000, 0.000000000000000 ) );
#246 = SURFACE_STYLE_FILL_AREA( #308 );
#247 = ORIENTED_EDGE( '', *, *, #291, .T. );
#248 = ORIENTED_EDGE( '', *, *, #309, .T. );
#249 = ORIENTED_EDGE( '', *, *, #292, .T. );
#250 = ORIENTED_EDGE( '', *, *, #285, .T. );
#251 = CARTESIAN_POINT( '', ( 3.00000000000001, -0.000000000000000, -0.000000000000000 ) );
#252 = DIRECTION( '', ( -1.00000000000000, 0.000000000000000, 0.000000000000000 ) );
#253 = DIRECTION( '', ( 0.000000000000000, 0.000000000000000, 1.00000000000000 ) );
#254 = SURFACE_STYLE_FILL_AREA( #310 );
#255 = ORIENTED_EDGE( '', *, *, #300, .F. );
#256 = ORIENTED_EDGE( '', *, *, #302, .T. );
#257 = CARTESIAN_POINT( '', ( 84.5000000000000, 7.20000000000001, 0.000000000000000 ) );
#258 = DIRECTION( '', ( 1.00000000000000, -6.12323399573677E-17, -0.000000000000000 ) );
#259 = DIRECTION( '', ( 6.12323399573677E-17, 1.00000000000000, 0.000000000000000 ) );
#260 = SURFACE_STYLE_FILL_AREA( #311 );
#261 = ORIENTED_EDGE( '', *, *, #307, .T. );
#262 = ORIENTED_EDGE( '', *, *, #295, .F. );
#263 = ORIENTED_EDGE( '', *, *, #293, .F. );
#264 = ORIENTED_EDGE( '', *, *, #309, .F. );
#265 = ORIENTED_EDGE( '', *, *, #290, .F. );
#266 = ORIENTED_EDGE( '', *, *, #297, .F. );
#267 = CARTESIAN_POINT( '', ( 3.00000000000001, -0.899999999999986, -10.5000000000000 ) );
#268 = DIRECTION( '', ( 0.000000000000000, -1.00000000000000, 0.000000000000000 ) );
#269 = DIRECTION( '', ( 0.000000000000000, 0.000000000000000, -1.00000000000000 ) );
#270 = SURFACE_STYLE_FILL_AREA( #312 );
#271 = ORIENTED_EDGE( '', *, *, #303, .F. );
#272 = ORIENTED_EDGE( '', *, *, #288, .T. );
#273 = CARTESIAN_POINT( '', ( 76.0000000000000, 9.73903695640440E-15, 0.000000000000000 ) );
#274 = DIRECTION( '', ( -1.00000000000000, 6.12323399573677E-17, -0.000000000000000 ) );
#275 = DIRECTION( '', ( -6.12323399573677E-17, -1.00000000000000, 0.000000000000000 ) );
#276 = FILL_AREA_STYLE( '', ( #313 ) );
#277 = EDGE_CURVE( '', #314, #315, #316, .T. );
#278 = EDGE_CURVE( '', #315, #314, #317, .T. );
#279 = FILL_AREA_STYLE( '', ( #318 ) );
#280 = EDGE_CURVE( '', #315, #319, #320, .T. );
#281 = EDGE_CURVE( '', #321, #319, #322, .T. );
#282 = EDGE_CURVE( '', #321, #314, #323, .T. );
#283 = FILL_AREA_STYLE( '', ( #324 ) );
#284 = EDGE_CURVE( '', #325, #321, #326, .F. );
#285 = EDGE_CURVE( '', #327, #325, #328, .T. );
#286 = EDGE_CURVE( '', #319, #327, #329, .T. );
#287 = FILL_AREA_STYLE( '', ( #330 ) );
#288 = EDGE_CURVE( '', #331, #331, #332, .T. );
#289 = EDGE_CURVE( '', #333, #334, #335, .T. );
#290 = EDGE_CURVE( '', #334, #336, #337, .T. );
#291 = EDGE_CURVE( '', #325, #336, #338, .T. );
#292 = EDGE_CURVE( '', #339, #327, #340, .T. );
#293 = EDGE_CURVE( '', #339, #333, #341, .F. );
#294 = FILL_AREA_STYLE( '', ( #342 ) );
#295 = EDGE_CURVE( '', #333, #343, #344, .T. );
#296 = EDGE_CURVE( '', #343, #345, #346, .T. );
#297 = EDGE_CURVE( '', #345, #334, #347, .T. );
#298 = FILL_AREA_STYLE( '', ( #348 ) );
#299 = EDGE_CURVE( '', #349, #349, #350, .T. );
#300 = EDGE_CURVE( '', #351, #351, #352, .T. );
#301 = FILL_AREA_STYLE( '', ( #353 ) );
#302 = EDGE_CURVE( '', #354, #354, #355, .T. );
#303 = EDGE_CURVE( '', #356, #356, #357, .T. );
#304 = FILL_AREA_STYLE( '', ( #358 ) );
#305 = CARTESIAN_POINT( '', ( 90.0000000000000, 6.60621930939059E-14, 0.000000000000000 ) );
#306 = FILL_AREA_STYLE( '', ( #359 ) );
#307 = EDGE_CURVE( '', #345, #343, #360, .T. );
#308 = FILL_AREA_STYLE( '', ( #361 ) );
#309 = EDGE_CURVE( '', #336, #339, #362, .T. );
#310 = FILL_AREA_STYLE( '', ( #363 ) );
#311 = FILL_AREA_STYLE( '', ( #364 ) );
#312 = FILL_AREA_STYLE( '', ( #365 ) );
#313 = FILL_AREA_STYLE_COLOUR( '', #366 );
#314 = VERTEX_POINT( '', #367 );
#315 = VERTEX_POINT( '', #368 );
#316 = CIRCLE( '', #369, 8.46650000000000 );
#317 = LINE( '', #370, #371 );
#318 = FILL_AREA_STYLE_COLOUR( '', #372 );
#319 = VERTEX_POINT( '', #373 );
#320 = B_SPLINE_CURVE_WITH_KNOTS( '', 3, ( #374, #375, #376, #377 ), .UNSPECIFIED., .F., .F., ( 4, 4 ), ( 0.0420335464893133, 0.0442124251860489 ), .UNSPECIFIED. );
#321 = VERTEX_POINT( '', #378 );
#322 = CIRCLE( '', #379, 10.0000000000000 );
#323 = B_SPLINE_CURVE_WITH_KNOTS( '', 3, ( #380, #381, #382, #383 ), .UNSPECIFIED., .F., .F., ( 4, 4 ), ( 0.0170363399290314, 0.0192102676191475 ), .UNSPECIFIED. );
#324 = FILL_AREA_STYLE_COLOUR( '', #384 );
#325 = VERTEX_POINT( '', #385 );
#326 = LINE( '', #386, #387 );
#327 = VERTEX_POINT( '', #388 );
#328 = LINE( '', #389, #390 );
#329 = LINE( '', #391, #392 );
#330 = FILL_AREA_STYLE_COLOUR( '', #393 );
#331 = VERTEX_POINT( '', #394 );
#332 = CIRCLE( '', #395, 10.0000000000000 );
#333 = VERTEX_POINT( '', #396 );
#334 = VERTEX_POINT( '', #397 );
#335 = CIRCLE( '', #398, 10.0000000000000 );
#336 = VERTEX_POINT( '', #399 );
#337 = LINE( '', #400, #401 );
#338 = CIRCLE( '', #402, 10.0000000000000 );
#339 = VERTEX_POINT( '', #403 );
#340 = CIRCLE( '', #404, 10.0000000000000 );
#341 = LINE( '', #405, #406 );
#342 = FILL_AREA_STYLE_COLOUR( '', #407 );
#343 = VERTEX_POINT( '', #408 );
#344 = B_SPLINE_CURVE_WITH_KNOTS( '', 3, ( #409, #410, #411, #412 ), .UNSPECIFIED., .F., .F., ( 4, 4 ), ( 0.0170363399290314, 0.0192102676191475 ), .UNSPECIFIED. );
#345 = VERTEX_POINT( '', #413 );
#346 = CIRCLE( '', #414, 8.46650000000000 );
#347 = B_SPLINE_CURVE_WITH_KNOTS( '', 3, ( #415, #416, #417, #418 ), .UNSPECIFIED., .F., .F., ( 4, 4 ), ( 0.0420335464893133, 0.0442124251860489 ), .UNSPECIFIED. );
#348 = FILL_AREA_STYLE_COLOUR( '', #419 );
#349 = VERTEX_POINT( '', #420 );
#350 = CIRCLE( '', #421, 7.75000000000000 );
#351 = VERTEX_POINT( '', #422 );
#352 = CIRCLE( '', #423, 7.75000000000000 );
#353 = FILL_AREA_STYLE_COLOUR( '', #424 );
#354 = VERTEX_POINT( '', #425 );
#355 = CIRCLE( '', #426, 7.20000000000000 );
#356 = VERTEX_POINT( '', #427 );
#357 = CIRCLE( '', #428, 7.20000000000000 );
#358 = FILL_AREA_STYLE_COLOUR( '', #429 );
#359 = FILL_AREA_STYLE_COLOUR( '', #430 );
#360 = LINE( '', #431, #432 );
#361 = FILL_AREA_STYLE_COLOUR( '', #433 );
#362 = LINE( '', #434, #435 );
#363 = FILL_AREA_STYLE_COLOUR( '', #436 );
#364 = FILL_AREA_STYLE_COLOUR( '', #437 );
#365 = FILL_AREA_STYLE_COLOUR( '', #438 );
#366 = COLOUR_RGB( '', 0.689999997600000, 0.689999997600000, 0.689999997600000 );
#367 = CARTESIAN_POINT( '', ( 1.42108547152020E-14, 0.900000000000014, -8.41852850859341 ) );
#368 = CARTESIAN_POINT( '', ( 1.42108547152020E-14, 0.900000000000014, 8.41852850859341 ) );
#369 = AXIS2_PLACEMENT_3D( '', #439, #440, #441 );
#370 = CARTESIAN_POINT( '', ( 1.42108547152020E-14, 0.900000000000014, 10.5000000000000 ) );
#371 = VECTOR( '', #442, 1000.00000000000 );
#372 = COLOUR_RGB( '', 0.689999997600000, 0.689999997600000, 0.689999997600000 );
#373 = CARTESIAN_POINT( '', ( 1.53350000000002, 0.900000000000020, 9.95941765365827 ) );
#374 = CARTESIAN_POINT( '', ( 1.06855184291770E-14, 0.900000000000014, 8.41852850859341 ) );
#375 = CARTESIAN_POINT( '', ( 0.510941899449521, 0.900000000000014, 8.93238191982478 ) );
#376 = CARTESIAN_POINT( '', ( 1.02214318709476, 0.900000000000014, 9.44597717883551 ) );
#377 = CARTESIAN_POINT( '', ( 1.53350000000001, 0.900000000000014, 9.95941765365827 ) );
#378 = CARTESIAN_POINT( '', ( 1.53350000000002, 0.900000000000020, -9.95941765365827 ) );
#379 = AXIS2_PLACEMENT_3D( '', #443, #444, #445 );
#380 = CARTESIAN_POINT( '', ( 1.53350000000001, 0.900000000000014, -9.95941765365827 ) );
#381 = CARTESIAN_POINT( '', ( 1.02214317772922, 0.900000000000014, -9.44597716943180 ) );
#382 = CARTESIAN_POINT( '', ( 0.510941888387734, 0.900000000000014, -8.93238190869996 ) );
#383 = CARTESIAN_POINT( '', ( 1.64454118502801E-14, 0.900000000000014, -8.41852850859341 ) );
#384 = COLOUR_RGB( '', 0.689999997600000, 0.689999997600000, 0.689999997600000 );
#385 = CARTESIAN_POINT( '', ( 3.00000000000002, 0.900000000000014, -9.95941765365827 ) );
#386 = CARTESIAN_POINT( '', ( 90.0000000000000, 0.900000000000014, -9.95941765365827 ) );
#387 = VECTOR( '', #446, 1000.00000000000 );
#388 = CARTESIAN_POINT( '', ( 3.00000000000002, 0.900000000000014, 9.95941765365827 ) );
#389 = CARTESIAN_POINT( '', ( 3.00000000000001, 0.900000000000014, 10.5000000000000 ) );
#390 = VECTOR( '', #447, 1000.00000000000 );
#391 = CARTESIAN_POINT( '', ( 90.0000000000000, 0.900000000000014, 9.95941765365827 ) );
#392 = VECTOR( '', #448, 1000.00000000000 );
#393 = COLOUR_RGB( '', 0.689999997600000, 0.689999997600000, 0.689999997600000 );
#394 = CARTESIAN_POINT( '', ( 76.0000000000000, 10.0000000000000, 0.000000000000000 ) );
#395 = AXIS2_PLACEMENT_3D( '', #449, #450, #451 );
#396 = CARTESIAN_POINT( '', ( 1.53350000000002, -0.899999999999980, 9.95941765365827 ) );
#397 = CARTESIAN_POINT( '', ( 1.53350000000002, -0.899999999999980, -9.95941765365827 ) );
#398 = AXIS2_PLACEMENT_3D( '', #452, #453, #454 );
#399 = CARTESIAN_POINT( '', ( 3.00000000000002, -0.899999999999985, -9.95941765365827 ) );
#400 = CARTESIAN_POINT( '', ( 90.0000000000000, -0.899999999999986, -9.95941765365827 ) );
#401 = VECTOR( '', #455, 1000.00000000000 );
#402 = AXIS2_PLACEMENT_3D( '', #456, #457, #458 );
#403 = CARTESIAN_POINT( '', ( 3.00000000000002, -0.899999999999985, 9.95941765365827 ) );
#404 = AXIS2_PLACEMENT_3D( '', #459, #460, #461 );
#405 = CARTESIAN_POINT( '', ( 90.0000000000000, -0.899999999999986, 9.95941765365827 ) );
#406 = VECTOR( '', #462, 1000.00000000000 );
#407 = COLOUR_RGB( '', 0.689999997600000, 0.689999997600000, 0.689999997600000 );
#408 = CARTESIAN_POINT( '', ( 1.42108547152020E-14, -0.899999999999985, 8.41852850859341 ) );
#409 = CARTESIAN_POINT( '', ( 1.53350000000001, -0.899999999999986, 9.95941765365827 ) );
#410 = CARTESIAN_POINT( '', ( 1.02214317772922, -0.899999999999986, 9.44597716943180 ) );
#411 = CARTESIAN_POINT( '', ( 0.510941888387730, -0.899999999999986, 8.93238190869996 ) );
#412 = CARTESIAN_POINT( '', ( 1.20503297854486E-14, -0.899999999999986, 8.41852850859341 ) );
#413 = CARTESIAN_POINT( '', ( 1.42108547152020E-14, -0.899999999999985, -8.41852850859341 ) );
#414 = AXIS2_PLACEMENT_3D( '', #463, #464, #465 );
#415 = CARTESIAN_POINT( '', ( 1.08452509604183E-14, -0.899999999999986, -8.41852850859341 ) );
#416 = CARTESIAN_POINT( '', ( 0.510941899449521, -0.899999999999986, -8.93238191982478 ) );
#417 = CARTESIAN_POINT( '', ( 1.02214318709476, -0.899999999999986, -9.44597717883551 ) );
#418 = CARTESIAN_POINT( '', ( 1.53350000000001, -0.899999999999986, -9.95941765365828 ) );
#419 = COLOUR_RGB( '', 0.689999997600000, 0.689999997600000, 0.689999997600000 );
#420 = CARTESIAN_POINT( '', ( 87.4372760422829, 7.75000000000001, 0.000000000000000 ) );
#421 = AXIS2_PLACEMENT_3D( '', #466, #467, #468 );
#422 = CARTESIAN_POINT( '', ( 84.5000000000000, 7.75000000000001, 0.000000000000000 ) );
#423 = AXIS2_PLACEMENT_3D( '', #469, #470, #471 );
#424 = COLOUR_RGB( '', 0.689999997600000, 0.689999997600000, 0.689999997600000 );
#425 = CARTESIAN_POINT( '', ( 84.5000000000000, 7.20000000000001, 0.000000000000000 ) );
#426 = AXIS2_PLACEMENT_3D( '', #472, #473, #474 );
#427 = CARTESIAN_POINT( '', ( 77.3472200000000, 7.20000000000001, 0.000000000000000 ) );
#428 = AXIS2_PLACEMENT_3D( '', #475, #476, #477 );
#429 = COLOUR_RGB( '', 0.689999997600000, 0.689999997600000, 0.689999997600000 );
#430 = COLOUR_RGB( '', 0.689999997600000, 0.689999997600000, 0.689999997600000 );
#431 = CARTESIAN_POINT( '', ( 1.42108547152020E-14, -0.899999999999986, -10.5000000000000 ) );
#432 = VECTOR( '', #478, 1000.00000000000 );
#433 = COLOUR_RGB( '', 0.689999997600000, 0.689999997600000, 0.689999997600000 );
#434 = CARTESIAN_POINT( '', ( 3.00000000000001, -0.899999999999986, -10.5000000000000 ) );
#435 = VECTOR( '', #479, 1000.00000000000 );
#436 = COLOUR_RGB( '', 0.689999997600000, 0.689999997600000, 0.689999997600000 );
#437 = COLOUR_RGB( '', 0.689999997600000, 0.689999997600000, 0.689999997600000 );
#438 = COLOUR_RGB( '', 0.689999997600000, 0.689999997600000, 0.689999997600000 );
#439 = CARTESIAN_POINT( '', ( 1.38777878078145E-14, 1.43926947931643E-14, 0.000000000000000 ) );
#440 = DIRECTION( '', ( 1.00000000000000, -6.12323399573677E-17, -0.000000000000000 ) );
#441 = DIRECTION( '', ( 6.12323399573677E-17, 1.00000000000000, 0.000000000000000 ) );
#442 = DIRECTION( '', ( 0.000000000000000, 0.000000000000000, -1.00000000000000 ) );
#443 = CARTESIAN_POINT( '', ( 1.53350000000001, 1.42987949998397E-14, 0.000000000000000 ) );
#444 = DIRECTION( '', ( 1.00000000000000, -6.12323399573677E-17, -0.000000000000000 ) );
#445 = DIRECTION( '', ( 6.12323399573677E-17, 1.00000000000000, 0.000000000000000 ) );
#446 = DIRECTION( '', ( 1.00000000000000, -6.12323399573677E-17, -0.000000000000000 ) );
#447 = DIRECTION( '', ( 0.000000000000000, 0.000000000000000, -1.00000000000000 ) );
#448 = DIRECTION( '', ( 1.00000000000000, -6.12323399573677E-17, -0.000000000000000 ) );
#449 = CARTESIAN_POINT( '', ( 76.0000000000000, 9.73903695640440E-15, 0.000000000000000 ) );
#450 = DIRECTION( '', ( 1.00000000000000, -6.12323399573677E-17, -0.000000000000000 ) );
#451 = DIRECTION( '', ( 6.12323399573677E-17, 1.00000000000000, 0.000000000000000 ) );
#452 = CARTESIAN_POINT( '', ( 1.53350000000001, 1.42987949998397E-14, 0.000000000000000 ) );
#453 = DIRECTION( '', ( 1.00000000000000, -6.12323399573677E-17, -0.000000000000000 ) );
#454 = DIRECTION( '', ( 6.12323399573677E-17, 1.00000000000000, 0.000000000000000 ) );
#455 = DIRECTION( '', ( 1.00000000000000, -6.12323399573677E-17, -0.000000000000000 ) );
#456 = CARTESIAN_POINT( '', ( 3.00000000000002, 1.42089977732922E-14, 0.000000000000000 ) );
#457 = DIRECTION( '', ( -1.00000000000000, 0.000000000000000, 0.000000000000000 ) );
#458 = DIRECTION( '', ( 0.000000000000000, 0.000000000000000, 1.00000000000000 ) );
#459 = CARTESIAN_POINT( '', ( 3.00000000000002, 1.42089977732922E-14, 0.000000000000000 ) );
#460 = DIRECTION( '', ( -1.00000000000000, 0.000000000000000, 0.000000000000000 ) );
#461 = DIRECTION( '', ( 0.000000000000000, 0.000000000000000, 1.00000000000000 ) );
#462 = DIRECTION( '', ( 1.00000000000000, -6.12323399573677E-17, -0.000000000000000 ) );
#463 = CARTESIAN_POINT( '', ( 1.38777878078145E-14, 1.43926947931643E-14, 0.000000000000000 ) );
#464 = DIRECTION( '', ( 1.00000000000000, -6.12323399573677E-17, -0.000000000000000 ) );
#465 = DIRECTION( '', ( 6.12323399573677E-17, 1.00000000000000, 0.000000000000000 ) );
#466 = CARTESIAN_POINT( '', ( 87.4372760422829, 9.03870578159707E-15, 0.000000000000000 ) );
#467 = DIRECTION( '', ( 1.00000000000000, -6.12323399573677E-17, -0.000000000000000 ) );
#468 = DIRECTION( '', ( 6.12323399573677E-17, 1.00000000000000, 0.000000000000000 ) );
#469 = CARTESIAN_POINT( '', ( 84.5000000000000, 9.21856206676677E-15, 0.000000000000000 ) );
#470 = DIRECTION( '', ( 1.00000000000000, -6.12323399573677E-17, -0.000000000000000 ) );
#471 = DIRECTION( '', ( 6.12323399573677E-17, 1.00000000000000, 0.000000000000000 ) );
#472 = CARTESIAN_POINT( '', ( 84.5000000000000, 9.21856206676677E-15, 0.000000000000000 ) );
#473 = DIRECTION( '', ( 1.00000000000000, -6.12323399573677E-17, -0.000000000000000 ) );
#474 = DIRECTION( '', ( 6.12323399573677E-17, 1.00000000000000, 0.000000000000000 ) );
#475 = CARTESIAN_POINT( '', ( 77.3472200000000, 9.65654352336703E-15, 0.000000000000000 ) );
#476 = DIRECTION( '', ( 1.00000000000000, -6.12323399573677E-17, -0.000000000000000 ) );
#477 = DIRECTION( '', ( 6.12323399573677E-17, 1.00000000000000, 0.000000000000000 ) );
#478 = DIRECTION( '', ( 0.000000000000000, 0.000000000000000, 1.00000000000000 ) );
#479 = DIRECTION( '', ( 0.000000000000000, 0.000000000000000, 1.00000000000000 ) );
ENDSEC;
END-ISO-10303-21;
