ISO-10303-21;
HEADER;
FILE_DESCRIPTION( ( 'STEP AP214' ), '1' );
FILE_NAME( '//goodhand-server/Shared Folders/GoodHand Data/Kipp CAD/K1129/K1129.101215.stp', '2020-12-10T10:15:52', ( '' ), ( '' ), ' ', 'PARTsolutions', ' ' );
FILE_SCHEMA( ( 'AUTOMOTIVE_DESIGN { 1 0 10303 214 1 1 1 1 }' ) );
ENDSEC;
DATA;
#1 = MECHANICAL_DESIGN_GEOMETRIC_PRESENTATION_REPRESENTATION( ' ', ( #10, #11, #12, #13, #14, #15, #16, #17, #18, #19, #20, #21 ), #6 );
#2 = PRODUCT_DEFINITION_CONTEXT( '', #22, 'design' );
#3 = APPLICATION_PROTOCOL_DEFINITION( 'international standard', 'automotive_design', 2001, #22 );
#4 = PRODUCT_CATEGORY_RELATIONSHIP( 'NONE', 'NONE', #23, #24 );
#5 = SHAPE_DEFINITION_REPRESENTATION( #25, #26 );
#6 =  ( GEOMETRIC_REPRESENTATION_CONTEXT( 3 )GLOBAL_UNCERTAINTY_ASSIGNED_CONTEXT( ( #29 ) )GLOBAL_UNIT_ASSIGNED_CONTEXT( ( #31, #32, #33 ) )REPRESENTATION_CONTEXT( 'NONE', 'WORKSPACE' ) );
#10 = STYLED_ITEM( '', ( #35 ), #36 );
#11 = STYLED_ITEM( '', ( #37 ), #38 );
#12 = STYLED_ITEM( '', ( #39 ), #40 );
#13 = STYLED_ITEM( '', ( #41 ), #42 );
#14 = STYLED_ITEM( '', ( #43 ), #44 );
#15 = STYLED_ITEM( '', ( #45 ), #46 );
#16 = STYLED_ITEM( '', ( #47 ), #48 );
#17 = STYLED_ITEM( '', ( #49 ), #50 );
#18 = STYLED_ITEM( '', ( #51 ), #52 );
#19 = STYLED_ITEM( '', ( #53 ), #54 );
#20 = STYLED_ITEM( '', ( #55 ), #56 );
#21 = STYLED_ITEM( '', ( #57 ), #58 );
#22 = APPLICATION_CONTEXT( 'core data for automotive mechanical design processes' );
#23 = PRODUCT_CATEGORY( 'part', 'NONE' );
#24 = PRODUCT_RELATED_PRODUCT_CATEGORY( 'detail', ' ', ( #59 ) );
#25 = PRODUCT_DEFINITION_SHAPE( 'NONE', 'NONE', #60 );
#26 = ADVANCED_BREP_SHAPE_REPRESENTATION( '_K1129.101215', ( #61, #62 ), #6 );
#29 = UNCERTAINTY_MEASURE_WITH_UNIT( LENGTH_MEASURE( 0.00100000000000000 ), #31, '', '' );
#31 =  ( CONVERSION_BASED_UNIT( 'MILLIMETRE', #65 )LENGTH_UNIT(  )NAMED_UNIT( #68 ) );
#32 =  ( NAMED_UNIT( #70 )PLANE_ANGLE_UNIT(  )SI_UNIT( $, .RADIAN. ) );
#33 =  ( NAMED_UNIT( #70 )SI_UNIT( $, .STERADIAN. )SOLID_ANGLE_UNIT(  ) );
#35 = PRESENTATION_STYLE_ASSIGNMENT( ( #76 ) );
#36 = ADVANCED_FACE( '', ( #77, #78 ), #79, .F. );
#37 = PRESENTATION_STYLE_ASSIGNMENT( ( #80 ) );
#38 = ADVANCED_FACE( '', ( #81 ), #82, .T. );
#39 = PRESENTATION_STYLE_ASSIGNMENT( ( #83 ) );
#40 = ADVANCED_FACE( '', ( #84 ), #85, .T. );
#41 = PRESENTATION_STYLE_ASSIGNMENT( ( #86 ) );
#42 = ADVANCED_FACE( '', ( #87, #88 ), #89, .T. );
#43 = PRESENTATION_STYLE_ASSIGNMENT( ( #90 ) );
#44 = ADVANCED_FACE( '', ( #91 ), #92, .F. );
#45 = PRESENTATION_STYLE_ASSIGNMENT( ( #93 ) );
#46 = ADVANCED_FACE( '', ( #94 ), #95, .T. );
#47 = PRESENTATION_STYLE_ASSIGNMENT( ( #96 ) );
#48 = ADVANCED_FACE( '', ( #97 ), #98, .F. );
#49 = PRESENTATION_STYLE_ASSIGNMENT( ( #99 ) );
#50 = ADVANCED_FACE( '', ( #100 ), #101, .T. );
#51 = PRESENTATION_STYLE_ASSIGNMENT( ( #102 ) );
#52 = ADVANCED_FACE( '', ( #103, #104 ), #105, .T. );
#53 = PRESENTATION_STYLE_ASSIGNMENT( ( #106 ) );
#54 = ADVANCED_FACE( '', ( #107 ), #108, .T. );
#55 = PRESENTATION_STYLE_ASSIGNMENT( ( #109 ) );
#56 = ADVANCED_FACE( '', ( #110 ), #111, .T. );
#57 = PRESENTATION_STYLE_ASSIGNMENT( ( #112 ) );
#58 = ADVANCED_FACE( '', ( #113, #114 ), #115, .T. );
#59 = PRODUCT( '_K1129.101215', '_K1129.101215', 'PART-_K1129.101215-DESC', ( #116 ) );
#60 = PRODUCT_DEFINITION( 'NONE', 'NONE', #117, #2 );
#61 = MANIFOLD_SOLID_BREP( '_K1129.101215', #118 );
#62 = AXIS2_PLACEMENT_3D( '', #119, #120, #121 );
#65 = LENGTH_MEASURE_WITH_UNIT( LENGTH_MEASURE( 1.00000000000000 ), #122 );
#68 = DIMENSIONAL_EXPONENTS( 1.00000000000000, 0.000000000000000, 0.000000000000000, 0.000000000000000, 0.000000000000000, 0.000000000000000, 0.000000000000000 );
#70 = DIMENSIONAL_EXPONENTS( 0.000000000000000, 0.000000000000000, 0.000000000000000, 0.000000000000000, 0.000000000000000, 0.000000000000000, 0.000000000000000 );
#76 = SURFACE_STYLE_USAGE( .BOTH., #123 );
#77 = FACE_OUTER_BOUND( '', #124, .T. );
#78 = FACE_BOUND( '', #125, .T. );
#79 = PLANE( '', #126 );
#80 = SURFACE_STYLE_USAGE( .BOTH., #127 );
#81 = FACE_OUTER_BOUND( '', #128, .T. );
#82 = PLANE( '', #129 );
#83 = SURFACE_STYLE_USAGE( .BOTH., #130 );
#84 = FACE_OUTER_BOUND( '', #131, .T. );
#85 = PLANE( '', #132 );
#86 = SURFACE_STYLE_USAGE( .BOTH., #133 );
#87 = FACE_OUTER_BOUND( '', #134, .T. );
#88 = FACE_BOUND( '', #135, .T. );
#89 = CONICAL_SURFACE( '', #136, 5.65713133020000, 0.769690200100000 );
#90 = SURFACE_STYLE_USAGE( .BOTH., #137 );
#91 = FACE_OUTER_BOUND( '', #138, .T. );
#92 = PLANE( '', #139 );
#93 = SURFACE_STYLE_USAGE( .BOTH., #140 );
#94 = FACE_OUTER_BOUND( '', #141, .T. );
#95 = PLANE( '', #142 );
#96 = SURFACE_STYLE_USAGE( .BOTH., #143 );
#97 = FACE_OUTER_BOUND( '', #144, .T. );
#98 = PLANE( '', #145 );
#99 = SURFACE_STYLE_USAGE( .BOTH., #146 );
#100 = FACE_OUTER_BOUND( '', #147, .T. );
#101 = PLANE( '', #148 );
#102 = SURFACE_STYLE_USAGE( .BOTH., #149 );
#103 = FACE_BOUND( '', #150, .T. );
#104 = FACE_OUTER_BOUND( '', #151, .T. );
#105 = CONICAL_SURFACE( '', #152, 6.14142595070000, 0.0314159265000000 );
#106 = SURFACE_STYLE_USAGE( .BOTH., #153 );
#107 = FACE_OUTER_BOUND( '', #154, .T. );
#108 = PLANE( '', #155 );
#109 = SURFACE_STYLE_USAGE( .BOTH., #156 );
#110 = FACE_OUTER_BOUND( '', #157, .T. );
#111 = PLANE( '', #158 );
#112 = SURFACE_STYLE_USAGE( .BOTH., #159 );
#113 = FACE_BOUND( '', #160, .T. );
#114 = FACE_OUTER_BOUND( '', #161, .T. );
#115 = CONICAL_SURFACE( '', #162, 5.85857404930000, 0.801106126700000 );
#116 = PRODUCT_CONTEXT( '', #22, 'mechanical' );
#117 = PRODUCT_DEFINITION_FORMATION_WITH_SPECIFIED_SOURCE( ' ', 'NONE', #59, .NOT_KNOWN. );
#118 = CLOSED_SHELL( '', ( #42, #36, #46, #50, #40, #48, #58, #52, #54, #38, #56, #44 ) );
#119 = CARTESIAN_POINT( '', ( 0.000000000000000, 0.000000000000000, 0.000000000000000 ) );
#120 = DIRECTION( '', ( 0.000000000000000, 0.000000000000000, 1.00000000000000 ) );
#121 = DIRECTION( '', ( 1.00000000000000, 0.000000000000000, 0.000000000000000 ) );
#122 =  ( LENGTH_UNIT(  )NAMED_UNIT( #68 )SI_UNIT( .MILLI., .METRE. ) );
#123 = SURFACE_SIDE_STYLE( '', ( #164 ) );
#124 = EDGE_LOOP( '', ( #165 ) );
#125 = EDGE_LOOP( '', ( #166, #167, #168, #169, #170, #171 ) );
#126 = AXIS2_PLACEMENT_3D( '', #172, #173, #174 );
#127 = SURFACE_SIDE_STYLE( '', ( #175 ) );
#128 = EDGE_LOOP( '', ( #176, #177, #178, #179 ) );
#129 = AXIS2_PLACEMENT_3D( '', #180, #181, #182 );
#130 = SURFACE_SIDE_STYLE( '', ( #183 ) );
#131 = EDGE_LOOP( '', ( #184, #185, #186, #187 ) );
#132 = AXIS2_PLACEMENT_3D( '', #188, #189, #190 );
#133 = SURFACE_SIDE_STYLE( '', ( #191 ) );
#134 = EDGE_LOOP( '', ( #192 ) );
#135 = EDGE_LOOP( '', ( #193 ) );
#136 = AXIS2_PLACEMENT_3D( '', #194, #195, #196 );
#137 = SURFACE_SIDE_STYLE( '', ( #197 ) );
#138 = EDGE_LOOP( '', ( #198, #199, #200, #201, #202, #203 ) );
#139 = AXIS2_PLACEMENT_3D( '', #204, #205, #206 );
#140 = SURFACE_SIDE_STYLE( '', ( #207 ) );
#141 = EDGE_LOOP( '', ( #208, #209, #210, #211 ) );
#142 = AXIS2_PLACEMENT_3D( '', #212, #213, #214 );
#143 = SURFACE_SIDE_STYLE( '', ( #215 ) );
#144 = EDGE_LOOP( '', ( #216 ) );
#145 = AXIS2_PLACEMENT_3D( '', #217, #218, #219 );
#146 = SURFACE_SIDE_STYLE( '', ( #220 ) );
#147 = EDGE_LOOP( '', ( #221, #222, #223, #224 ) );
#148 = AXIS2_PLACEMENT_3D( '', #225, #226, #227 );
#149 = SURFACE_SIDE_STYLE( '', ( #228 ) );
#150 = EDGE_LOOP( '', ( #229 ) );
#151 = EDGE_LOOP( '', ( #230 ) );
#152 = AXIS2_PLACEMENT_3D( '', #231, #232, #233 );
#153 = SURFACE_SIDE_STYLE( '', ( #234 ) );
#154 = EDGE_LOOP( '', ( #235, #236, #237, #238 ) );
#155 = AXIS2_PLACEMENT_3D( '', #239, #240, #241 );
#156 = SURFACE_SIDE_STYLE( '', ( #242 ) );
#157 = EDGE_LOOP( '', ( #243, #244, #245, #246 ) );
#158 = AXIS2_PLACEMENT_3D( '', #247, #248, #249 );
#159 = SURFACE_SIDE_STYLE( '', ( #250 ) );
#160 = EDGE_LOOP( '', ( #251 ) );
#161 = EDGE_LOOP( '', ( #252 ) );
#162 = AXIS2_PLACEMENT_3D( '', #253, #254, #255 );
#164 = SURFACE_STYLE_FILL_AREA( #256 );
#165 = ORIENTED_EDGE( '', *, *, #257, .F. );
#166 = ORIENTED_EDGE( '', *, *, #258, .T. );
#167 = ORIENTED_EDGE( '', *, *, #259, .T. );
#168 = ORIENTED_EDGE( '', *, *, #260, .T. );
#169 = ORIENTED_EDGE( '', *, *, #261, .T. );
#170 = ORIENTED_EDGE( '', *, *, #262, .T. );
#171 = ORIENTED_EDGE( '', *, *, #263, .T. );
#172 = CARTESIAN_POINT( '', ( 0.000000000000000, 0.000000000000000, 0.000000000000000 ) );
#173 = DIRECTION( '', ( 1.00000000000000, 0.000000000000000, -0.000000000000000 ) );
#174 = DIRECTION( '', ( -0.000000000000000, 0.000000000000000, -1.00000000000000 ) );
#175 = SURFACE_STYLE_FILL_AREA( #264 );
#176 = ORIENTED_EDGE( '', *, *, #262, .F. );
#177 = ORIENTED_EDGE( '', *, *, #265, .F. );
#178 = ORIENTED_EDGE( '', *, *, #266, .T. );
#179 = ORIENTED_EDGE( '', *, *, #267, .T. );
#180 = CARTESIAN_POINT( '', ( 5.00000000000000, 1.73205080756888, -3.00000000000000 ) );
#181 = DIRECTION( '', ( 0.000000000000000, -0.866025403784439, 0.500000000000000 ) );
#182 = DIRECTION( '', ( 0.000000000000000, -0.500000000000000, -0.866025403784439 ) );
#183 = SURFACE_STYLE_FILL_AREA( #268 );
#184 = ORIENTED_EDGE( '', *, *, #258, .F. );
#185 = ORIENTED_EDGE( '', *, *, #269, .F. );
#186 = ORIENTED_EDGE( '', *, *, #270, .T. );
#187 = ORIENTED_EDGE( '', *, *, #271, .T. );
#188 = CARTESIAN_POINT( '', ( 5.00000000000000, 1.73205080756888, 3.00000000000000 ) );
#189 = DIRECTION( '', ( 0.000000000000000, 0.000000000000000, -1.00000000000000 ) );
#190 = DIRECTION( '', ( -1.00000000000000, 0.000000000000000, 0.000000000000000 ) );
#191 = SURFACE_STYLE_FILL_AREA( #272 );
#192 = ORIENTED_EDGE( '', *, *, #273, .F. );
#193 = ORIENTED_EDGE( '', *, *, #257, .T. );
#194 = CARTESIAN_POINT( '', ( 0.000000000000000, 0.000000000000000, 0.000000000000000 ) );
#195 = DIRECTION( '', ( 1.00000000000000, -0.000000000000000, -0.000000000000000 ) );
#196 = DIRECTION( '', ( -0.000000000000000, 0.000000000000000, -1.00000000000000 ) );
#197 = SURFACE_STYLE_FILL_AREA( #274 );
#198 = ORIENTED_EDGE( '', *, *, #270, .F. );
#199 = ORIENTED_EDGE( '', *, *, #275, .F. );
#200 = ORIENTED_EDGE( '', *, *, #266, .F. );
#201 = ORIENTED_EDGE( '', *, *, #276, .F. );
#202 = ORIENTED_EDGE( '', *, *, #277, .F. );
#203 = ORIENTED_EDGE( '', *, *, #278, .F. );
#204 = CARTESIAN_POINT( '', ( 5.00000000000000, 0.000000000000000, 0.000000000000000 ) );
#205 = DIRECTION( '', ( 1.00000000000000, 0.000000000000000, 0.000000000000000 ) );
#206 = DIRECTION( '', ( 0.000000000000000, 0.000000000000000, -1.00000000000000 ) );
#207 = SURFACE_STYLE_FILL_AREA( #279 );
#208 = ORIENTED_EDGE( '', *, *, #259, .F. );
#209 = ORIENTED_EDGE( '', *, *, #271, .F. );
#210 = ORIENTED_EDGE( '', *, *, #278, .T. );
#211 = ORIENTED_EDGE( '', *, *, #280, .T. );
#212 = CARTESIAN_POINT( '', ( 5.00000000000000, -1.73205080756888, 3.00000000000000 ) );
#213 = DIRECTION( '', ( 0.000000000000000, 0.866025403784439, -0.500000000000000 ) );
#214 = DIRECTION( '', ( 0.000000000000000, 0.500000000000000, 0.866025403784439 ) );
#215 = SURFACE_STYLE_FILL_AREA( #281 );
#216 = ORIENTED_EDGE( '', *, *, #282, .T. );
#217 = CARTESIAN_POINT( '', ( 10.0000000000000, 5.34286866978324, 0.000000000000000 ) );
#218 = DIRECTION( '', ( -1.00000000000000, 0.000000000000000, 0.000000000000000 ) );
#219 = DIRECTION( '', ( 0.000000000000000, 0.000000000000000, 1.00000000000000 ) );
#220 = SURFACE_STYLE_FILL_AREA( #283 );
#221 = ORIENTED_EDGE( '', *, *, #260, .F. );
#222 = ORIENTED_EDGE( '', *, *, #280, .F. );
#223 = ORIENTED_EDGE( '', *, *, #277, .T. );
#224 = ORIENTED_EDGE( '', *, *, #284, .T. );
#225 = CARTESIAN_POINT( '', ( 5.00000000000000, -3.46410161513775, 0.000000000000000 ) );
#226 = DIRECTION( '', ( -0.000000000000000, 0.866025403784439, 0.500000000000000 ) );
#227 = DIRECTION( '', ( 0.000000000000000, -0.500000000000000, 0.866025403784439 ) );
#228 = SURFACE_STYLE_FILL_AREA( #285 );
#229 = ORIENTED_EDGE( '', *, *, #286, .F. );
#230 = ORIENTED_EDGE( '', *, *, #273, .T. );
#231 = CARTESIAN_POINT( '', ( 0.499753280182865, 0.000000000000000, 0.000000000000000 ) );
#232 = DIRECTION( '', ( -1.00000000000000, 0.000000000000000, -0.000000000000000 ) );
#233 = DIRECTION( '', ( 0.000000000000000, 0.000000000000000, 1.00000000000000 ) );
#234 = SURFACE_STYLE_FILL_AREA( #287 );
#235 = ORIENTED_EDGE( '', *, *, #261, .F. );
#236 = ORIENTED_EDGE( '', *, *, #284, .F. );
#237 = ORIENTED_EDGE( '', *, *, #276, .T. );
#238 = ORIENTED_EDGE( '', *, *, #265, .T. );
#239 = CARTESIAN_POINT( '', ( 5.00000000000000, -1.73205080756888, -3.00000000000000 ) );
#240 = DIRECTION( '', ( 0.000000000000000, 0.000000000000000, 1.00000000000000 ) );
#241 = DIRECTION( '', ( 1.00000000000000, 0.000000000000000, -0.000000000000000 ) );
#242 = SURFACE_STYLE_FILL_AREA( #288 );
#243 = ORIENTED_EDGE( '', *, *, #263, .F. );
#244 = ORIENTED_EDGE( '', *, *, #267, .F. );
#245 = ORIENTED_EDGE( '', *, *, #275, .T. );
#246 = ORIENTED_EDGE( '', *, *, #269, .T. );
#247 = CARTESIAN_POINT( '', ( 5.00000000000000, 3.46410161513775, 0.000000000000000 ) );
#248 = DIRECTION( '', ( 0.000000000000000, -0.866025403784439, -0.500000000000000 ) );
#249 = DIRECTION( '', ( 0.000000000000000, 0.500000000000000, -0.866025403784439 ) );
#250 = SURFACE_STYLE_FILL_AREA( #289 );
#251 = ORIENTED_EDGE( '', *, *, #282, .F. );
#252 = ORIENTED_EDGE( '', *, *, #286, .T. );
#253 = CARTESIAN_POINT( '', ( 9.50024671981713, 0.000000000000000, 0.000000000000000 ) );
#254 = DIRECTION( '', ( -1.00000000000000, 0.000000000000000, -0.000000000000000 ) );
#255 = DIRECTION( '', ( 0.000000000000000, 0.000000000000000, 1.00000000000000 ) );
#256 = FILL_AREA_STYLE( '', ( #290 ) );
#257 = EDGE_CURVE( '', #291, #291, #292, .T. );
#258 = EDGE_CURVE( '', #293, #294, #295, .T. );
#259 = EDGE_CURVE( '', #294, #296, #297, .T. );
#260 = EDGE_CURVE( '', #296, #298, #299, .T. );
#261 = EDGE_CURVE( '', #298, #300, #301, .T. );
#262 = EDGE_CURVE( '', #300, #302, #303, .T. );
#263 = EDGE_CURVE( '', #302, #293, #304, .T. );
#264 = FILL_AREA_STYLE( '', ( #305 ) );
#265 = EDGE_CURVE( '', #306, #300, #307, .T. );
#266 = EDGE_CURVE( '', #306, #308, #309, .T. );
#267 = EDGE_CURVE( '', #308, #302, #310, .T. );
#268 = FILL_AREA_STYLE( '', ( #311 ) );
#269 = EDGE_CURVE( '', #312, #293, #313, .T. );
#270 = EDGE_CURVE( '', #312, #314, #315, .T. );
#271 = EDGE_CURVE( '', #314, #294, #316, .T. );
#272 = FILL_AREA_STYLE( '', ( #317 ) );
#273 = EDGE_CURVE( '', #318, #318, #319, .T. );
#274 = FILL_AREA_STYLE( '', ( #320 ) );
#275 = EDGE_CURVE( '', #308, #312, #321, .T. );
#276 = EDGE_CURVE( '', #322, #306, #323, .T. );
#277 = EDGE_CURVE( '', #324, #322, #325, .T. );
#278 = EDGE_CURVE( '', #314, #324, #326, .T. );
#279 = FILL_AREA_STYLE( '', ( #327 ) );
#280 = EDGE_CURVE( '', #324, #296, #328, .T. );
#281 = FILL_AREA_STYLE( '', ( #329 ) );
#282 = EDGE_CURVE( '', #330, #330, #331, .T. );
#283 = FILL_AREA_STYLE( '', ( #332 ) );
#284 = EDGE_CURVE( '', #322, #298, #333, .T. );
#285 = FILL_AREA_STYLE( '', ( #334 ) );
#286 = EDGE_CURVE( '', #335, #335, #336, .T. );
#287 = FILL_AREA_STYLE( '', ( #337 ) );
#288 = FILL_AREA_STYLE( '', ( #338 ) );
#289 = FILL_AREA_STYLE( '', ( #339 ) );
#290 = FILL_AREA_STYLE_COLOUR( '', #340 );
#291 = VERTEX_POINT( '', #341 );
#292 = CIRCLE( '', #342, 5.65713133020000 );
#293 = VERTEX_POINT( '', #343 );
#294 = VERTEX_POINT( '', #344 );
#295 = LINE( '', #345, #346 );
#296 = VERTEX_POINT( '', #347 );
#297 = LINE( '', #348, #349 );
#298 = VERTEX_POINT( '', #350 );
#299 = LINE( '', #351, #352 );
#300 = VERTEX_POINT( '', #353 );
#301 = LINE( '', #354, #355 );
#302 = VERTEX_POINT( '', #356 );
#303 = LINE( '', #357, #358 );
#304 = LINE( '', #359, #360 );
#305 = FILL_AREA_STYLE_COLOUR( '', #361 );
#306 = VERTEX_POINT( '', #362 );
#307 = LINE( '', #363, #364 );
#308 = VERTEX_POINT( '', #365 );
#309 = LINE( '', #366, #367 );
#310 = LINE( '', #368, #369 );
#311 = FILL_AREA_STYLE_COLOUR( '', #370 );
#312 = VERTEX_POINT( '', #371 );
#313 = LINE( '', #372, #373 );
#314 = VERTEX_POINT( '', #374 );
#315 = LINE( '', #375, #376 );
#316 = LINE( '', #377, #378 );
#317 = FILL_AREA_STYLE_COLOUR( '', #379 );
#318 = VERTEX_POINT( '', #380 );
#319 = CIRCLE( '', #381, 6.14142595070000 );
#320 = FILL_AREA_STYLE_COLOUR( '', #382 );
#321 = LINE( '', #383, #384 );
#322 = VERTEX_POINT( '', #385 );
#323 = LINE( '', #386, #387 );
#324 = VERTEX_POINT( '', #388 );
#325 = LINE( '', #389, #390 );
#326 = LINE( '', #391, #392 );
#327 = FILL_AREA_STYLE_COLOUR( '', #393 );
#328 = LINE( '', #394, #395 );
#329 = FILL_AREA_STYLE_COLOUR( '', #396 );
#330 = VERTEX_POINT( '', #397 );
#331 = CIRCLE( '', #398, 5.34286866980000 );
#332 = FILL_AREA_STYLE_COLOUR( '', #399 );
#333 = LINE( '', #400, #401 );
#334 = FILL_AREA_STYLE_COLOUR( '', #402 );
#335 = VERTEX_POINT( '', #403 );
#336 = CIRCLE( '', #404, 5.85857404930000 );
#337 = FILL_AREA_STYLE_COLOUR( '', #405 );
#338 = FILL_AREA_STYLE_COLOUR( '', #406 );
#339 = FILL_AREA_STYLE_COLOUR( '', #407 );
#340 = COLOUR_RGB( '', 0.689999997600000, 0.689999997600000, 0.689999997600000 );
#341 = CARTESIAN_POINT( '', ( 0.000000000000000, 0.000000000000000, -5.65713133021675 ) );
#342 = AXIS2_PLACEMENT_3D( '', #408, #409, #410 );
#343 = CARTESIAN_POINT( '', ( 0.000000000000000, 1.73205080756888, 3.00000000000000 ) );
#344 = CARTESIAN_POINT( '', ( 0.000000000000000, -1.73205080756888, 3.00000000000000 ) );
#345 = CARTESIAN_POINT( '', ( 0.000000000000000, 1.73205080756888, 3.00000000000000 ) );
#346 = VECTOR( '', #411, 1000.00000000000 );
#347 = CARTESIAN_POINT( '', ( 0.000000000000000, -3.46410161513775, 0.000000000000000 ) );
#348 = CARTESIAN_POINT( '', ( 0.000000000000000, -1.73205080756888, 3.00000000000000 ) );
#349 = VECTOR( '', #412, 1000.00000000000 );
#350 = CARTESIAN_POINT( '', ( 0.000000000000000, -1.73205080756888, -3.00000000000000 ) );
#351 = CARTESIAN_POINT( '', ( 0.000000000000000, -3.46410161513775, 0.000000000000000 ) );
#352 = VECTOR( '', #413, 1000.00000000000 );
#353 = CARTESIAN_POINT( '', ( 0.000000000000000, 1.73205080756888, -3.00000000000000 ) );
#354 = CARTESIAN_POINT( '', ( 0.000000000000000, -1.73205080756888, -3.00000000000000 ) );
#355 = VECTOR( '', #414, 1000.00000000000 );
#356 = CARTESIAN_POINT( '', ( 0.000000000000000, 3.46410161513775, 0.000000000000000 ) );
#357 = CARTESIAN_POINT( '', ( 0.000000000000000, 1.73205080756888, -3.00000000000000 ) );
#358 = VECTOR( '', #415, 1000.00000000000 );
#359 = CARTESIAN_POINT( '', ( 0.000000000000000, 3.46410161513775, 0.000000000000000 ) );
#360 = VECTOR( '', #416, 1000.00000000000 );
#361 = COLOUR_RGB( '', 0.689999997600000, 0.689999997600000, 0.689999997600000 );
#362 = CARTESIAN_POINT( '', ( 5.00000000000000, 1.73205080756888, -3.00000000000000 ) );
#363 = CARTESIAN_POINT( '', ( 5.00000000000000, 1.73205080756888, -3.00000000000000 ) );
#364 = VECTOR( '', #417, 1000.00000000000 );
#365 = CARTESIAN_POINT( '', ( 5.00000000000000, 3.46410161513775, 0.000000000000000 ) );
#366 = CARTESIAN_POINT( '', ( 5.00000000000000, 1.73205080756888, -3.00000000000000 ) );
#367 = VECTOR( '', #418, 1000.00000000000 );
#368 = CARTESIAN_POINT( '', ( 5.00000000000000, 3.46410161513775, 0.000000000000000 ) );
#369 = VECTOR( '', #419, 1000.00000000000 );
#370 = COLOUR_RGB( '', 0.689999997600000, 0.689999997600000, 0.689999997600000 );
#371 = CARTESIAN_POINT( '', ( 5.00000000000000, 1.73205080756888, 3.00000000000000 ) );
#372 = CARTESIAN_POINT( '', ( 5.00000000000000, 1.73205080756888, 3.00000000000000 ) );
#373 = VECTOR( '', #420, 1000.00000000000 );
#374 = CARTESIAN_POINT( '', ( 5.00000000000000, -1.73205080756888, 3.00000000000000 ) );
#375 = CARTESIAN_POINT( '', ( 5.00000000000000, 1.73205080756888, 3.00000000000000 ) );
#376 = VECTOR( '', #421, 1000.00000000000 );
#377 = CARTESIAN_POINT( '', ( 5.00000000000000, -1.73205080756888, 3.00000000000000 ) );
#378 = VECTOR( '', #422, 1000.00000000000 );
#379 = COLOUR_RGB( '', 0.689999997600000, 0.689999997600000, 0.689999997600000 );
#380 = CARTESIAN_POINT( '', ( 0.499753280182865, 0.000000000000000, -6.14142595067769 ) );
#381 = AXIS2_PLACEMENT_3D( '', #423, #424, #425 );
#382 = COLOUR_RGB( '', 0.689999997600000, 0.689999997600000, 0.689999997600000 );
#383 = CARTESIAN_POINT( '', ( 5.00000000000000, 3.46410161513775, 0.000000000000000 ) );
#384 = VECTOR( '', #426, 1000.00000000000 );
#385 = CARTESIAN_POINT( '', ( 5.00000000000000, -1.73205080756888, -3.00000000000000 ) );
#386 = CARTESIAN_POINT( '', ( 5.00000000000000, -1.73205080756888, -3.00000000000000 ) );
#387 = VECTOR( '', #427, 1000.00000000000 );
#388 = CARTESIAN_POINT( '', ( 5.00000000000000, -3.46410161513775, 0.000000000000000 ) );
#389 = CARTESIAN_POINT( '', ( 5.00000000000000, -3.46410161513775, 0.000000000000000 ) );
#390 = VECTOR( '', #428, 1000.00000000000 );
#391 = CARTESIAN_POINT( '', ( 5.00000000000000, -1.73205080756888, 3.00000000000000 ) );
#392 = VECTOR( '', #429, 1000.00000000000 );
#393 = COLOUR_RGB( '', 0.689999997600000, 0.689999997600000, 0.689999997600000 );
#394 = CARTESIAN_POINT( '', ( 5.00000000000000, -3.46410161513775, 0.000000000000000 ) );
#395 = VECTOR( '', #430, 1000.00000000000 );
#396 = COLOUR_RGB( '', 0.689999997600000, 0.689999997600000, 0.689999997600000 );
#397 = CARTESIAN_POINT( '', ( 10.0000000000000, 0.000000000000000, -5.34286866978324 ) );
#398 = AXIS2_PLACEMENT_3D( '', #431, #432, #433 );
#399 = COLOUR_RGB( '', 0.689999997600000, 0.689999997600000, 0.689999997600000 );
#400 = CARTESIAN_POINT( '', ( 5.00000000000000, -1.73205080756888, -3.00000000000000 ) );
#401 = VECTOR( '', #434, 1000.00000000000 );
#402 = COLOUR_RGB( '', 0.689999997600000, 0.689999997600000, 0.689999997600000 );
#403 = CARTESIAN_POINT( '', ( 9.50024671981713, 0.000000000000000, -5.85857404932231 ) );
#404 = AXIS2_PLACEMENT_3D( '', #435, #436, #437 );
#405 = COLOUR_RGB( '', 0.689999997600000, 0.689999997600000, 0.689999997600000 );
#406 = COLOUR_RGB( '', 0.689999997600000, 0.689999997600000, 0.689999997600000 );
#407 = COLOUR_RGB( '', 0.689999997600000, 0.689999997600000, 0.689999997600000 );
#408 = CARTESIAN_POINT( '', ( 0.000000000000000, 0.000000000000000, 0.000000000000000 ) );
#409 = DIRECTION( '', ( 1.00000000000000, 0.000000000000000, -0.000000000000000 ) );
#410 = DIRECTION( '', ( -0.000000000000000, 0.000000000000000, -1.00000000000000 ) );
#411 = DIRECTION( '', ( 0.000000000000000, -1.00000000000000, 0.000000000000000 ) );
#412 = DIRECTION( '', ( 0.000000000000000, -0.500000000000000, -0.866025403784439 ) );
#413 = DIRECTION( '', ( 0.000000000000000, 0.500000000000000, -0.866025403784439 ) );
#414 = DIRECTION( '', ( 0.000000000000000, 1.00000000000000, 0.000000000000000 ) );
#415 = DIRECTION( '', ( 0.000000000000000, 0.500000000000000, 0.866025403784439 ) );
#416 = DIRECTION( '', ( 0.000000000000000, -0.500000000000000, 0.866025403784439 ) );
#417 = DIRECTION( '', ( -1.00000000000000, -0.000000000000000, -0.000000000000000 ) );
#418 = DIRECTION( '', ( 0.000000000000000, 0.500000000000000, 0.866025403784439 ) );
#419 = DIRECTION( '', ( -1.00000000000000, -0.000000000000000, -0.000000000000000 ) );
#420 = DIRECTION( '', ( -1.00000000000000, -0.000000000000000, -0.000000000000000 ) );
#421 = DIRECTION( '', ( 0.000000000000000, -1.00000000000000, 0.000000000000000 ) );
#422 = DIRECTION( '', ( -1.00000000000000, -0.000000000000000, -0.000000000000000 ) );
#423 = CARTESIAN_POINT( '', ( 0.499753280182865, 0.000000000000000, 0.000000000000000 ) );
#424 = DIRECTION( '', ( 1.00000000000000, 0.000000000000000, -0.000000000000000 ) );
#425 = DIRECTION( '', ( -0.000000000000000, 0.000000000000000, -1.00000000000000 ) );
#426 = DIRECTION( '', ( 0.000000000000000, -0.500000000000000, 0.866025403784439 ) );
#427 = DIRECTION( '', ( 0.000000000000000, 1.00000000000000, 0.000000000000000 ) );
#428 = DIRECTION( '', ( 0.000000000000000, 0.500000000000000, -0.866025403784439 ) );
#429 = DIRECTION( '', ( 0.000000000000000, -0.500000000000000, -0.866025403784439 ) );
#430 = DIRECTION( '', ( -1.00000000000000, -0.000000000000000, -0.000000000000000 ) );
#431 = CARTESIAN_POINT( '', ( 10.0000000000000, 0.000000000000000, 0.000000000000000 ) );
#432 = DIRECTION( '', ( 1.00000000000000, 0.000000000000000, -0.000000000000000 ) );
#433 = DIRECTION( '', ( -0.000000000000000, 0.000000000000000, -1.00000000000000 ) );
#434 = DIRECTION( '', ( -1.00000000000000, -0.000000000000000, -0.000000000000000 ) );
#435 = CARTESIAN_POINT( '', ( 9.50024671981713, 0.000000000000000, 0.000000000000000 ) );
#436 = DIRECTION( '', ( 1.00000000000000, 0.000000000000000, -0.000000000000000 ) );
#437 = DIRECTION( '', ( -0.000000000000000, 0.000000000000000, -1.00000000000000 ) );
ENDSEC;
END-ISO-10303-21;
