ISO-10303-21;
HEADER;
FILE_DESCRIPTION( ( 'STEP AP214' ), '1' );
FILE_NAME( '//goodhand-server/Shared Folders/GoodHand Data/Kipp CAD/K0163/K0163.1360X32.stp', '2020-11-26T10:30:04', ( '' ), ( '' ), ' ', 'PARTsolutions', ' ' );
FILE_SCHEMA( ( 'AUTOMOTIVE_DESIGN { 1 0 10303 214 1 1 1 1 }' ) );
ENDSEC;
DATA;
#1 = MECHANICAL_DESIGN_GEOMETRIC_PRESENTATION_REPRESENTATION( ' ', ( #10, #11, #12, #13, #14, #15, #16, #17, #18, #19, #20, #21, #22, #23, #24 ), #6 );
#2 = PRODUCT_DEFINITION_CONTEXT( '', #25, 'design' );
#3 = APPLICATION_PROTOCOL_DEFINITION( 'international standard', 'automotive_design', 2001, #25 );
#4 = PRODUCT_CATEGORY_RELATIONSHIP( 'NONE', 'NONE', #26, #27 );
#5 = SHAPE_DEFINITION_REPRESENTATION( #28, #29 );
#6 =  ( GEOMETRIC_REPRESENTATION_CONTEXT( 3 )GLOBAL_UNCERTAINTY_ASSIGNED_CONTEXT( ( #32 ) )GLOBAL_UNIT_ASSIGNED_CONTEXT( ( #34, #35, #36 ) )REPRESENTATION_CONTEXT( 'NONE', 'WORKSPACE' ) );
#10 = STYLED_ITEM( '', ( #38 ), #39 );
#11 = STYLED_ITEM( '', ( #40 ), #41 );
#12 = STYLED_ITEM( '', ( #42 ), #43 );
#13 = STYLED_ITEM( '', ( #44 ), #45 );
#14 = STYLED_ITEM( '', ( #46 ), #47 );
#15 = STYLED_ITEM( '', ( #48 ), #49 );
#16 = STYLED_ITEM( '', ( #50 ), #51 );
#17 = STYLED_ITEM( '', ( #52 ), #53 );
#18 = STYLED_ITEM( '', ( #54 ), #55 );
#19 = STYLED_ITEM( '', ( #56 ), #57 );
#20 = STYLED_ITEM( '', ( #58 ), #59 );
#21 = STYLED_ITEM( '', ( #60 ), #61 );
#22 = STYLED_ITEM( '', ( #62 ), #63 );
#23 = STYLED_ITEM( '', ( #64 ), #65 );
#24 = STYLED_ITEM( '', ( #66 ), #67 );
#25 = APPLICATION_CONTEXT( 'core data for automotive mechanical design processes' );
#26 = PRODUCT_CATEGORY( 'part', 'NONE' );
#27 = PRODUCT_RELATED_PRODUCT_CATEGORY( 'detail', ' ', ( #68 ) );
#28 = PRODUCT_DEFINITION_SHAPE( 'NONE', 'NONE', #69 );
#29 = ADVANCED_BREP_SHAPE_REPRESENTATION( '_K0163.1360X32', ( #70, #71 ), #6 );
#32 = UNCERTAINTY_MEASURE_WITH_UNIT( LENGTH_MEASURE( 0.00100000000000000 ), #34, '', '' );
#34 =  ( CONVERSION_BASED_UNIT( 'MILLIMETRE', #74 )LENGTH_UNIT(  )NAMED_UNIT( #77 ) );
#35 =  ( NAMED_UNIT( #79 )PLANE_ANGLE_UNIT(  )SI_UNIT( $, .RADIAN. ) );
#36 =  ( NAMED_UNIT( #79 )SI_UNIT( $, .STERADIAN. )SOLID_ANGLE_UNIT(  ) );
#38 = PRESENTATION_STYLE_ASSIGNMENT( ( #85 ) );
#39 = ADVANCED_FACE( '', ( #86, #87 ), #88, .F. );
#40 = PRESENTATION_STYLE_ASSIGNMENT( ( #89 ) );
#41 = ADVANCED_FACE( '', ( #90 ), #91, .T. );
#42 = PRESENTATION_STYLE_ASSIGNMENT( ( #92 ) );
#43 = ADVANCED_FACE( '', ( #93, #94 ), #95, .F. );
#44 = PRESENTATION_STYLE_ASSIGNMENT( ( #96 ) );
#45 = ADVANCED_FACE( '', ( #97 ), #98, .T. );
#46 = PRESENTATION_STYLE_ASSIGNMENT( ( #99 ) );
#47 = ADVANCED_FACE( '', ( #100 ), #101, .F. );
#48 = PRESENTATION_STYLE_ASSIGNMENT( ( #102 ) );
#49 = ADVANCED_FACE( '', ( #103, #104 ), #105, .F. );
#50 = PRESENTATION_STYLE_ASSIGNMENT( ( #106 ) );
#51 = ADVANCED_FACE( '', ( #107, #108 ), #109, .F. );
#52 = PRESENTATION_STYLE_ASSIGNMENT( ( #110 ) );
#53 = ADVANCED_FACE( '', ( #111, #112 ), #113, .F. );
#54 = PRESENTATION_STYLE_ASSIGNMENT( ( #114 ) );
#55 = ADVANCED_FACE( '', ( #115, #116 ), #117, .F. );
#56 = PRESENTATION_STYLE_ASSIGNMENT( ( #118 ) );
#57 = ADVANCED_FACE( '', ( #119, #120 ), #121, .T. );
#58 = PRESENTATION_STYLE_ASSIGNMENT( ( #122 ) );
#59 = ADVANCED_FACE( '', ( #123, #124 ), #125, .T. );
#60 = PRESENTATION_STYLE_ASSIGNMENT( ( #126 ) );
#61 = ADVANCED_FACE( '', ( #127, #128, #129 ), #130, .T. );
#62 = PRESENTATION_STYLE_ASSIGNMENT( ( #131 ) );
#63 = ADVANCED_FACE( '', ( #132, #133 ), #134, .T. );
#64 = PRESENTATION_STYLE_ASSIGNMENT( ( #135 ) );
#65 = ADVANCED_FACE( '', ( #136 ), #137, .T. );
#66 = PRESENTATION_STYLE_ASSIGNMENT( ( #138 ) );
#67 = ADVANCED_FACE( '', ( #139, #140 ), #141, .T. );
#68 = PRODUCT( '_K0163.1360X32', '_K0163.1360X32', 'PART-_K0163.1360X32-DESC', ( #142 ) );
#69 = PRODUCT_DEFINITION( 'NONE', 'NONE', #143, #2 );
#70 = MANIFOLD_SOLID_BREP( '_K0163.1360X32', #144 );
#71 = AXIS2_PLACEMENT_3D( '', #145, #146, #147 );
#74 = LENGTH_MEASURE_WITH_UNIT( LENGTH_MEASURE( 1.00000000000000 ), #148 );
#77 = DIMENSIONAL_EXPONENTS( 1.00000000000000, 0.000000000000000, 0.000000000000000, 0.000000000000000, 0.000000000000000, 0.000000000000000, 0.000000000000000 );
#79 = DIMENSIONAL_EXPONENTS( 0.000000000000000, 0.000000000000000, 0.000000000000000, 0.000000000000000, 0.000000000000000, 0.000000000000000, 0.000000000000000 );
#85 = SURFACE_STYLE_USAGE( .BOTH., #149 );
#86 = FACE_BOUND( '', #150, .T. );
#87 = FACE_OUTER_BOUND( '', #151, .T. );
#88 = CONICAL_SURFACE( '', #152, 162.000000000000, 0.560437519600000 );
#89 = SURFACE_STYLE_USAGE( .BOTH., #153 );
#90 = FACE_OUTER_BOUND( '', #154, .T. );
#91 = PLANE( '', #155 );
#92 = SURFACE_STYLE_USAGE( .BOTH., #156 );
#93 = FACE_BOUND( '', #157, .T. );
#94 = FACE_OUTER_BOUND( '', #158, .T. );
#95 = CONICAL_SURFACE( '', #159, 159.500000000000, 0.636508215800000 );
#96 = SURFACE_STYLE_USAGE( .BOTH., #160 );
#97 = FACE_OUTER_BOUND( '', #161, .T. );
#98 = PLANE( '', #162 );
#99 = SURFACE_STYLE_USAGE( .BOTH., #163 );
#100 = FACE_OUTER_BOUND( '', #164, .T. );
#101 = CYLINDRICAL_SURFACE( '', #165, 16.0000000000000 );
#102 = SURFACE_STYLE_USAGE( .BOTH., #166 );
#103 = FACE_BOUND( '', #167, .T. );
#104 = FACE_OUTER_BOUND( '', #168, .T. );
#105 = PLANE( '', #169 );
#106 = SURFACE_STYLE_USAGE( .BOTH., #170 );
#107 = FACE_OUTER_BOUND( '', #171, .T. );
#108 = FACE_BOUND( '', #172, .T. );
#109 = CONICAL_SURFACE( '', #173, 31.5000000000000, 1.31179052760000 );
#110 = SURFACE_STYLE_USAGE( .BOTH., #174 );
#111 = FACE_OUTER_BOUND( '', #175, .T. );
#112 = FACE_BOUND( '', #176, .T. );
#113 = PLANE( '', #177 );
#114 = SURFACE_STYLE_USAGE( .BOTH., #178 );
#115 = FACE_OUTER_BOUND( '', #179, .T. );
#116 = FACE_BOUND( '', #180, .T. );
#117 = CONICAL_SURFACE( '', #181, 158.500000000000, 0.478830845400000 );
#118 = SURFACE_STYLE_USAGE( .BOTH., #182 );
#119 = FACE_BOUND( '', #183, .T. );
#120 = FACE_OUTER_BOUND( '', #184, .T. );
#121 = CONICAL_SURFACE( '', #185, 151.000000000000, 1.28973576920000 );
#122 = SURFACE_STYLE_USAGE( .BOTH., #186 );
#123 = FACE_OUTER_BOUND( '', #187, .T. );
#124 = FACE_OUTER_BOUND( '', #188, .T. );
#125 = CYLINDRICAL_SURFACE( '', #189, 31.5000000000000 );
#126 = SURFACE_STYLE_USAGE( .BOTH., #190 );
#127 = FACE_BOUND( '', #191, .T. );
#128 = FACE_OUTER_BOUND( '', #192, .T. );
#129 = FACE_OUTER_BOUND( '', #193, .T. );
#130 = TOROIDAL_SURFACE( '', #194, 162.750000000000, 17.2500000000000 );
#131 = SURFACE_STYLE_USAGE( .BOTH., #195 );
#132 = FACE_OUTER_BOUND( '', #196, .T. );
#133 = FACE_OUTER_BOUND( '', #197, .T. );
#134 = CYLINDRICAL_SURFACE( '', #198, 31.5000000000000 );
#135 = SURFACE_STYLE_USAGE( .BOTH., #199 );
#136 = FACE_OUTER_BOUND( '', #200, .T. );
#137 = PLANE( '', #201 );
#138 = SURFACE_STYLE_USAGE( .BOTH., #202 );
#139 = FACE_OUTER_BOUND( '', #203, .T. );
#140 = FACE_OUTER_BOUND( '', #204, .T. );
#141 = TOROIDAL_SURFACE( '', #205, 162.235754524500, 15.0000000000000 );
#142 = PRODUCT_CONTEXT( '', #25, 'mechanical' );
#143 = PRODUCT_DEFINITION_FORMATION_WITH_SPECIFIED_SOURCE( ' ', 'NONE', #68, .NOT_KNOWN. );
#144 = CLOSED_SHELL( '', ( #53, #41, #45, #47, #65, #49, #59, #57, #43, #39, #61, #55, #67, #51, #63 ) );
#145 = CARTESIAN_POINT( '', ( 0.000000000000000, 0.000000000000000, 0.000000000000000 ) );
#146 = DIRECTION( '', ( 0.000000000000000, 0.000000000000000, 1.00000000000000 ) );
#147 = DIRECTION( '', ( 1.00000000000000, 0.000000000000000, 0.000000000000000 ) );
#148 =  ( LENGTH_UNIT(  )NAMED_UNIT( #77 )SI_UNIT( .MILLI., .METRE. ) );
#149 = SURFACE_SIDE_STYLE( '', ( #207 ) );
#150 = EDGE_LOOP( '', ( #208 ) );
#151 = EDGE_LOOP( '', ( #209 ) );
#152 = AXIS2_PLACEMENT_3D( '', #210, #211, #212 );
#153 = SURFACE_SIDE_STYLE( '', ( #213 ) );
#154 = EDGE_LOOP( '', ( #214, #215, #216, #217 ) );
#155 = AXIS2_PLACEMENT_3D( '', #218, #219, #220 );
#156 = SURFACE_SIDE_STYLE( '', ( #221 ) );
#157 = EDGE_LOOP( '', ( #222 ) );
#158 = EDGE_LOOP( '', ( #223 ) );
#159 = AXIS2_PLACEMENT_3D( '', #224, #225, #226 );
#160 = SURFACE_SIDE_STYLE( '', ( #227 ) );
#161 = EDGE_LOOP( '', ( #228, #229, #230, #231 ) );
#162 = AXIS2_PLACEMENT_3D( '', #232, #233, #234 );
#163 = SURFACE_SIDE_STYLE( '', ( #235 ) );
#164 = EDGE_LOOP( '', ( #236, #237, #238, #239 ) );
#165 = AXIS2_PLACEMENT_3D( '', #240, #241, #242 );
#166 = SURFACE_SIDE_STYLE( '', ( #243 ) );
#167 = EDGE_LOOP( '', ( #244, #245, #246, #247 ) );
#168 = EDGE_LOOP( '', ( #248 ) );
#169 = AXIS2_PLACEMENT_3D( '', #249, #250, #251 );
#170 = SURFACE_SIDE_STYLE( '', ( #252 ) );
#171 = EDGE_LOOP( '', ( #253 ) );
#172 = EDGE_LOOP( '', ( #254 ) );
#173 = AXIS2_PLACEMENT_3D( '', #255, #256, #257 );
#174 = SURFACE_SIDE_STYLE( '', ( #258 ) );
#175 = EDGE_LOOP( '', ( #259 ) );
#176 = EDGE_LOOP( '', ( #260, #261, #262, #263 ) );
#177 = AXIS2_PLACEMENT_3D( '', #264, #265, #266 );
#178 = SURFACE_SIDE_STYLE( '', ( #267 ) );
#179 = EDGE_LOOP( '', ( #268 ) );
#180 = EDGE_LOOP( '', ( #269 ) );
#181 = AXIS2_PLACEMENT_3D( '', #270, #271, #272 );
#182 = SURFACE_SIDE_STYLE( '', ( #273 ) );
#183 = EDGE_LOOP( '', ( #274 ) );
#184 = EDGE_LOOP( '', ( #275 ) );
#185 = AXIS2_PLACEMENT_3D( '', #276, #277, #278 );
#186 = SURFACE_SIDE_STYLE( '', ( #279 ) );
#187 = EDGE_LOOP( '', ( #280 ) );
#188 = EDGE_LOOP( '', ( #281 ) );
#189 = AXIS2_PLACEMENT_3D( '', #282, #283, #284 );
#190 = SURFACE_SIDE_STYLE( '', ( #285 ) );
#191 = VERTEX_LOOP( '', #286 );
#192 = EDGE_LOOP( '', ( #287 ) );
#193 = EDGE_LOOP( '', ( #288 ) );
#194 = AXIS2_PLACEMENT_3D( '', #289, #290, #291 );
#195 = SURFACE_SIDE_STYLE( '', ( #292 ) );
#196 = EDGE_LOOP( '', ( #293 ) );
#197 = EDGE_LOOP( '', ( #294 ) );
#198 = AXIS2_PLACEMENT_3D( '', #295, #296, #297 );
#199 = SURFACE_SIDE_STYLE( '', ( #298 ) );
#200 = EDGE_LOOP( '', ( #299, #300, #301, #302 ) );
#201 = AXIS2_PLACEMENT_3D( '', #303, #304, #305 );
#202 = SURFACE_SIDE_STYLE( '', ( #306 ) );
#203 = EDGE_LOOP( '', ( #307 ) );
#204 = EDGE_LOOP( '', ( #308 ) );
#205 = AXIS2_PLACEMENT_3D( '', #309, #310, #311 );
#207 = SURFACE_STYLE_FILL_AREA( #312 );
#208 = ORIENTED_EDGE( '', *, *, #313, .F. );
#209 = ORIENTED_EDGE( '', *, *, #314, .T. );
#210 = CARTESIAN_POINT( '', ( 38.5163120603859, 0.000000000000000, 0.000000000000000 ) );
#211 = DIRECTION( '', ( -1.00000000000000, -0.000000000000000, -0.000000000000000 ) );
#212 = DIRECTION( '', ( 0.000000000000000, 0.000000000000000, 1.00000000000000 ) );
#213 = SURFACE_STYLE_FILL_AREA( #315 );
#214 = ORIENTED_EDGE( '', *, *, #316, .T. );
#215 = ORIENTED_EDGE( '', *, *, #317, .T. );
#216 = ORIENTED_EDGE( '', *, *, #318, .F. );
#217 = ORIENTED_EDGE( '', *, *, #319, .F. );
#218 = CARTESIAN_POINT( '', ( 52.5000000000000, 19.3000000000000, -4.99999999999999 ) );
#219 = DIRECTION( '', ( 0.000000000000000, -1.00000000000000, 0.000000000000000 ) );
#220 = DIRECTION( '', ( 0.000000000000000, 0.000000000000000, -1.00000000000000 ) );
#221 = SURFACE_STYLE_FILL_AREA( #320 );
#222 = ORIENTED_EDGE( '', *, *, #321, .F. );
#223 = ORIENTED_EDGE( '', *, *, #313, .T. );
#224 = CARTESIAN_POINT( '', ( 42.5000000000000, 0.000000000000000, 0.000000000000000 ) );
#225 = DIRECTION( '', ( -1.00000000000000, -0.000000000000000, -0.000000000000000 ) );
#226 = DIRECTION( '', ( 0.000000000000000, 0.000000000000000, 1.00000000000000 ) );
#227 = SURFACE_STYLE_FILL_AREA( #322 );
#228 = ORIENTED_EDGE( '', *, *, #323, .T. );
#229 = ORIENTED_EDGE( '', *, *, #319, .T. );
#230 = ORIENTED_EDGE( '', *, *, #324, .F. );
#231 = ORIENTED_EDGE( '', *, *, #325, .F. );
#232 = CARTESIAN_POINT( '', ( 52.5000000000000, 15.1986841535707, -5.00000000000000 ) );
#233 = DIRECTION( '', ( 0.000000000000000, -1.69187016160882E-15, 1.00000000000000 ) );
#234 = DIRECTION( '', ( 0.000000000000000, -1.00000000000000, -1.69187016160882E-15 ) );
#235 = SURFACE_STYLE_FILL_AREA( #326 );
#236 = ORIENTED_EDGE( '', *, *, #327, .T. );
#237 = ORIENTED_EDGE( '', *, *, #325, .T. );
#238 = ORIENTED_EDGE( '', *, *, #328, .T. );
#239 = ORIENTED_EDGE( '', *, *, #329, .F. );
#240 = CARTESIAN_POINT( '', ( 52.5000000000000, -9.75781955236954E-16, -5.63785129692462E-15 ) );
#241 = DIRECTION( '', ( 1.00000000000000, -0.000000000000000, -0.000000000000000 ) );
#242 = DIRECTION( '', ( 0.000000000000000, 0.000000000000000, 1.00000000000000 ) );
#243 = SURFACE_STYLE_FILL_AREA( #330 );
#244 = ORIENTED_EDGE( '', *, *, #331, .T. );
#245 = ORIENTED_EDGE( '', *, *, #328, .F. );
#246 = ORIENTED_EDGE( '', *, *, #324, .T. );
#247 = ORIENTED_EDGE( '', *, *, #318, .T. );
#248 = ORIENTED_EDGE( '', *, *, #332, .T. );
#249 = CARTESIAN_POINT( '', ( 0.000000000000000, -31.5000000000000, 0.000000000000000 ) );
#250 = DIRECTION( '', ( 1.00000000000000, 0.000000000000000, 0.000000000000000 ) );
#251 = DIRECTION( '', ( 0.000000000000000, 0.000000000000000, -1.00000000000000 ) );
#252 = SURFACE_STYLE_FILL_AREA( #333 );
#253 = ORIENTED_EDGE( '', *, *, #334, .F. );
#254 = ORIENTED_EDGE( '', *, *, #335, .T. );
#255 = CARTESIAN_POINT( '', ( 29.5000000000000, 0.000000000000000, 0.000000000000000 ) );
#256 = DIRECTION( '', ( 1.00000000000000, -0.000000000000000, 0.000000000000000 ) );
#257 = DIRECTION( '', ( 0.000000000000000, 0.000000000000000, -1.00000000000000 ) );
#258 = SURFACE_STYLE_FILL_AREA( #336 );
#259 = ORIENTED_EDGE( '', *, *, #337, .F. );
#260 = ORIENTED_EDGE( '', *, *, #338, .F. );
#261 = ORIENTED_EDGE( '', *, *, #316, .F. );
#262 = ORIENTED_EDGE( '', *, *, #323, .F. );
#263 = ORIENTED_EDGE( '', *, *, #327, .F. );
#264 = CARTESIAN_POINT( '', ( 35.0000000000000, 0.000000000000000, 0.000000000000000 ) );
#265 = DIRECTION( '', ( -1.00000000000000, 0.000000000000000, 0.000000000000000 ) );
#266 = DIRECTION( '', ( 0.000000000000000, 0.000000000000000, 1.00000000000000 ) );
#267 = SURFACE_STYLE_FILL_AREA( #339 );
#268 = ORIENTED_EDGE( '', *, *, #340, .F. );
#269 = ORIENTED_EDGE( '', *, *, #341, .T. );
#270 = CARTESIAN_POINT( '', ( 69.0000000000000, 0.000000000000000, 0.000000000000000 ) );
#271 = DIRECTION( '', ( 1.00000000000000, -0.000000000000000, 0.000000000000000 ) );
#272 = DIRECTION( '', ( 0.000000000000000, 0.000000000000000, -1.00000000000000 ) );
#273 = SURFACE_STYLE_FILL_AREA( #342 );
#274 = ORIENTED_EDGE( '', *, *, #343, .F. );
#275 = ORIENTED_EDGE( '', *, *, #321, .T. );
#276 = CARTESIAN_POINT( '', ( 54.0000000000000, 0.000000000000000, 0.000000000000000 ) );
#277 = DIRECTION( '', ( 1.00000000000000, -0.000000000000000, 0.000000000000000 ) );
#278 = DIRECTION( '', ( 0.000000000000000, 0.000000000000000, -1.00000000000000 ) );
#279 = SURFACE_STYLE_FILL_AREA( #344 );
#280 = ORIENTED_EDGE( '', *, *, #332, .F. );
#281 = ORIENTED_EDGE( '', *, *, #343, .T. );
#282 = CARTESIAN_POINT( '', ( 0.000000000000000, 0.000000000000000, 0.000000000000000 ) );
#283 = DIRECTION( '', ( 1.00000000000000, -0.000000000000000, -0.000000000000000 ) );
#284 = DIRECTION( '', ( 0.000000000000000, 0.000000000000000, 1.00000000000000 ) );
#285 = SURFACE_STYLE_FILL_AREA( #345 );
#286 = VERTEX_POINT( '', #346 );
#287 = ORIENTED_EDGE( '', *, *, #340, .T. );
#288 = ORIENTED_EDGE( '', *, *, #314, .F. );
#289 = CARTESIAN_POINT( '', ( 55.7500000000000, 0.000000000000000, 0.000000000000000 ) );
#290 = DIRECTION( '', ( -1.00000000000000, 0.000000000000000, 0.000000000000000 ) );
#291 = DIRECTION( '', ( 0.000000000000000, 0.000000000000000, 1.00000000000000 ) );
#292 = SURFACE_STYLE_FILL_AREA( #347 );
#293 = ORIENTED_EDGE( '', *, *, #335, .F. );
#294 = ORIENTED_EDGE( '', *, *, #337, .T. );
#295 = CARTESIAN_POINT( '', ( 0.000000000000000, 0.000000000000000, 0.000000000000000 ) );
#296 = DIRECTION( '', ( 1.00000000000000, -0.000000000000000, -0.000000000000000 ) );
#297 = DIRECTION( '', ( 0.000000000000000, 0.000000000000000, 1.00000000000000 ) );
#298 = SURFACE_STYLE_FILL_AREA( #348 );
#299 = ORIENTED_EDGE( '', *, *, #338, .T. );
#300 = ORIENTED_EDGE( '', *, *, #329, .T. );
#301 = ORIENTED_EDGE( '', *, *, #331, .F. );
#302 = ORIENTED_EDGE( '', *, *, #317, .F. );
#303 = CARTESIAN_POINT( '', ( 52.5000000000000, 19.3000000000000, 5.00000000000000 ) );
#304 = DIRECTION( '', ( 0.000000000000000, 0.000000000000000, -1.00000000000000 ) );
#305 = DIRECTION( '', ( -1.00000000000000, 0.000000000000000, 0.000000000000000 ) );
#306 = SURFACE_STYLE_FILL_AREA( #349 );
#307 = ORIENTED_EDGE( '', *, *, #334, .T. );
#308 = ORIENTED_EDGE( '', *, *, #341, .F. );
#309 = CARTESIAN_POINT( '', ( 54.4726417359203, 0.000000000000000, 0.000000000000000 ) );
#310 = DIRECTION( '', ( -1.00000000000000, 0.000000000000000, 0.000000000000000 ) );
#311 = DIRECTION( '', ( 0.000000000000000, 0.000000000000000, 1.00000000000000 ) );
#312 = FILL_AREA_STYLE( '', ( #350 ) );
#313 = EDGE_CURVE( '', #351, #351, #352, .T. );
#314 = EDGE_CURVE( '', #353, #353, #354, .T. );
#315 = FILL_AREA_STYLE( '', ( #355 ) );
#316 = EDGE_CURVE( '', #356, #357, #358, .T. );
#317 = EDGE_CURVE( '', #357, #359, #360, .T. );
#318 = EDGE_CURVE( '', #361, #359, #362, .T. );
#319 = EDGE_CURVE( '', #356, #361, #363, .T. );
#320 = FILL_AREA_STYLE( '', ( #364 ) );
#321 = EDGE_CURVE( '', #365, #365, #366, .T. );
#322 = FILL_AREA_STYLE( '', ( #367 ) );
#323 = EDGE_CURVE( '', #368, #356, #369, .T. );
#324 = EDGE_CURVE( '', #370, #361, #371, .T. );
#325 = EDGE_CURVE( '', #368, #370, #372, .T. );
#326 = FILL_AREA_STYLE( '', ( #373 ) );
#327 = EDGE_CURVE( '', #374, #368, #375, .F. );
#328 = EDGE_CURVE( '', #370, #376, #377, .F. );
#329 = EDGE_CURVE( '', #374, #376, #378, .T. );
#330 = FILL_AREA_STYLE( '', ( #379 ) );
#331 = EDGE_CURVE( '', #359, #376, #380, .T. );
#332 = EDGE_CURVE( '', #381, #381, #382, .T. );
#333 = FILL_AREA_STYLE( '', ( #383 ) );
#334 = EDGE_CURVE( '', #384, #384, #385, .T. );
#335 = EDGE_CURVE( '', #386, #386, #387, .T. );
#336 = FILL_AREA_STYLE( '', ( #388 ) );
#337 = EDGE_CURVE( '', #389, #389, #390, .T. );
#338 = EDGE_CURVE( '', #357, #374, #391, .T. );
#339 = FILL_AREA_STYLE( '', ( #392 ) );
#340 = EDGE_CURVE( '', #393, #393, #394, .T. );
#341 = EDGE_CURVE( '', #395, #395, #396, .T. );
#342 = FILL_AREA_STYLE( '', ( #397 ) );
#343 = EDGE_CURVE( '', #398, #398, #399, .T. );
#344 = FILL_AREA_STYLE( '', ( #400 ) );
#345 = FILL_AREA_STYLE( '', ( #401 ) );
#346 = CARTESIAN_POINT( '', ( 55.7500000000000, 0.000000000000000, 180.000000000000 ) );
#347 = FILL_AREA_STYLE( '', ( #402 ) );
#348 = FILL_AREA_STYLE( '', ( #403 ) );
#349 = FILL_AREA_STYLE( '', ( #404 ) );
#350 = FILL_AREA_STYLE_COLOUR( '', #405 );
#351 = VERTEX_POINT( '', #406 );
#352 = CIRCLE( '', #407, 159.500000000000 );
#353 = VERTEX_POINT( '', #408 );
#354 = CIRCLE( '', #409, 162.000000000000 );
#355 = FILL_AREA_STYLE_COLOUR( '', #410 );
#356 = VERTEX_POINT( '', #411 );
#357 = VERTEX_POINT( '', #412 );
#358 = LINE( '', #413, #414 );
#359 = VERTEX_POINT( '', #415 );
#360 = LINE( '', #416, #417 );
#361 = VERTEX_POINT( '', #418 );
#362 = LINE( '', #419, #420 );
#363 = LINE( '', #421, #422 );
#364 = FILL_AREA_STYLE_COLOUR( '', #423 );
#365 = VERTEX_POINT( '', #424 );
#366 = CIRCLE( '', #425, 151.000000000000 );
#367 = FILL_AREA_STYLE_COLOUR( '', #426 );
#368 = VERTEX_POINT( '', #427 );
#369 = LINE( '', #428, #429 );
#370 = VERTEX_POINT( '', #430 );
#371 = LINE( '', #431, #432 );
#372 = LINE( '', #433, #434 );
#373 = FILL_AREA_STYLE_COLOUR( '', #435 );
#374 = VERTEX_POINT( '', #436 );
#375 = CIRCLE( '', #437, 16.0000000000000 );
#376 = VERTEX_POINT( '', #438 );
#377 = CIRCLE( '', #439, 16.0000000000000 );
#378 = LINE( '', #440, #441 );
#379 = FILL_AREA_STYLE_COLOUR( '', #442 );
#380 = LINE( '', #443, #444 );
#381 = VERTEX_POINT( '', #445 );
#382 = CIRCLE( '', #446, 31.5000000000000 );
#383 = FILL_AREA_STYLE_COLOUR( '', #447 );
#384 = VERTEX_POINT( '', #448 );
#385 = CIRCLE( '', #449, 148.500000000000 );
#386 = VERTEX_POINT( '', #450 );
#387 = CIRCLE( '', #451, 31.5000000000000 );
#388 = FILL_AREA_STYLE_COLOUR( '', #452 );
#389 = VERTEX_POINT( '', #453 );
#390 = CIRCLE( '', #454, 31.5000000000000 );
#391 = LINE( '', #455, #456 );
#392 = FILL_AREA_STYLE_COLOUR( '', #457 );
#393 = VERTEX_POINT( '', #458 );
#394 = CIRCLE( '', #459, 160.500000000000 );
#395 = VERTEX_POINT( '', #460 );
#396 = CIRCLE( '', #461, 158.500000000000 );
#397 = FILL_AREA_STYLE_COLOUR( '', #462 );
#398 = VERTEX_POINT( '', #463 );
#399 = CIRCLE( '', #464, 31.5000000000000 );
#400 = FILL_AREA_STYLE_COLOUR( '', #465 );
#401 = FILL_AREA_STYLE_COLOUR( '', #466 );
#402 = FILL_AREA_STYLE_COLOUR( '', #467 );
#403 = FILL_AREA_STYLE_COLOUR( '', #468 );
#404 = FILL_AREA_STYLE_COLOUR( '', #469 );
#405 = COLOUR_RGB( '', 0.689999997600000, 0.689999997600000, 0.689999997600000 );
#406 = CARTESIAN_POINT( '', ( 42.5000000000000, 0.000000000000000, 159.500000000000 ) );
#407 = AXIS2_PLACEMENT_3D( '', #470, #471, #472 );
#408 = CARTESIAN_POINT( '', ( 38.5163120603859, 0.000000000000000, 162.000000000000 ) );
#409 = AXIS2_PLACEMENT_3D( '', #473, #474, #475 );
#410 = COLOUR_RGB( '', 0.689999997600000, 0.689999997600000, 0.689999997600000 );
#411 = CARTESIAN_POINT( '', ( 35.0000000000000, 19.3000000000000, -4.99999999999999 ) );
#412 = CARTESIAN_POINT( '', ( 35.0000000000000, 19.3000000000000, 5.00000000000000 ) );
#413 = CARTESIAN_POINT( '', ( 35.0000000000000, 19.3000000000000, 0.000000000000000 ) );
#414 = VECTOR( '', #476, 1000.00000000000 );
#415 = CARTESIAN_POINT( '', ( 0.000000000000000, 19.3000000000000, 5.00000000000000 ) );
#416 = CARTESIAN_POINT( '', ( 52.5000000000000, 19.3000000000000, 5.00000000000000 ) );
#417 = VECTOR( '', #477, 1000.00000000000 );
#418 = CARTESIAN_POINT( '', ( 0.000000000000000, 19.3000000000000, -4.99999999999999 ) );
#419 = CARTESIAN_POINT( '', ( 0.000000000000000, 19.3000000000000, -4.99999999999999 ) );
#420 = VECTOR( '', #478, 1000.00000000000 );
#421 = CARTESIAN_POINT( '', ( 52.5000000000000, 19.3000000000000, -4.99999999999999 ) );
#422 = VECTOR( '', #479, 1000.00000000000 );
#423 = COLOUR_RGB( '', 0.689999997600000, 0.689999997600000, 0.689999997600000 );
#424 = CARTESIAN_POINT( '', ( 54.0000000000000, 0.000000000000000, 151.000000000000 ) );
#425 = AXIS2_PLACEMENT_3D( '', #480, #481, #482 );
#426 = COLOUR_RGB( '', 0.689999997600000, 0.689999997600000, 0.689999997600000 );
#427 = CARTESIAN_POINT( '', ( 35.0000000000000, 15.1986841535707, -5.00000000000000 ) );
#428 = CARTESIAN_POINT( '', ( 35.0000000000000, 8.45935080804416E-15, -5.00000000000003 ) );
#429 = VECTOR( '', #483, 1000.00000000000 );
#430 = CARTESIAN_POINT( '', ( 0.000000000000000, 15.1986841535707, -5.00000000000000 ) );
#431 = CARTESIAN_POINT( '', ( 0.000000000000000, 15.1986841535707, -5.00000000000000 ) );
#432 = VECTOR( '', #484, 1000.00000000000 );
#433 = CARTESIAN_POINT( '', ( 52.5000000000000, 15.1986841535707, -5.00000000000000 ) );
#434 = VECTOR( '', #485, 1000.00000000000 );
#435 = COLOUR_RGB( '', 0.689999997600000, 0.689999997600000, 0.689999997600000 );
#436 = CARTESIAN_POINT( '', ( 35.0000000000000, 15.1986841535707, 5.00000000000000 ) );
#437 = AXIS2_PLACEMENT_3D( '', #486, #487, #488 );
#438 = CARTESIAN_POINT( '', ( 0.000000000000000, 15.1986841535707, 5.00000000000000 ) );
#439 = AXIS2_PLACEMENT_3D( '', #489, #490, #491 );
#440 = CARTESIAN_POINT( '', ( 52.5000000000000, 15.1986841535707, 5.00000000000000 ) );
#441 = VECTOR( '', #492, 1000.00000000000 );
#442 = COLOUR_RGB( '', 0.689999997600000, 0.689999997600000, 0.689999997600000 );
#443 = CARTESIAN_POINT( '', ( 0.000000000000000, 19.3000000000000, 5.00000000000000 ) );
#444 = VECTOR( '', #493, 1000.00000000000 );
#445 = CARTESIAN_POINT( '', ( 0.000000000000000, 0.000000000000000, 31.5000000000000 ) );
#446 = AXIS2_PLACEMENT_3D( '', #494, #495, #496 );
#447 = COLOUR_RGB( '', 0.689999997600000, 0.689999997600000, 0.689999997600000 );
#448 = CARTESIAN_POINT( '', ( 60.5000000000000, 0.000000000000000, 148.500000000000 ) );
#449 = AXIS2_PLACEMENT_3D( '', #497, #498, #499 );
#450 = CARTESIAN_POINT( '', ( 29.5000000000000, 0.000000000000000, 31.5000000000000 ) );
#451 = AXIS2_PLACEMENT_3D( '', #500, #501, #502 );
#452 = COLOUR_RGB( '', 0.689999997600000, 0.689999997600000, 0.689999997600000 );
#453 = CARTESIAN_POINT( '', ( 35.0000000000000, 0.000000000000000, 31.5000000000000 ) );
#454 = AXIS2_PLACEMENT_3D( '', #503, #504, #505 );
#455 = CARTESIAN_POINT( '', ( 35.0000000000000, 0.000000000000000, 5.00000000000000 ) );
#456 = VECTOR( '', #506, 1000.00000000000 );
#457 = COLOUR_RGB( '', 0.689999997600000, 0.689999997600000, 0.689999997600000 );
#458 = CARTESIAN_POINT( '', ( 72.8526313764871, 0.000000000000000, 160.500000000000 ) );
#459 = AXIS2_PLACEMENT_3D( '', #507, #508, #509 );
#460 = CARTESIAN_POINT( '', ( 69.0000000000000, 0.000000000000000, 158.500000000000 ) );
#461 = AXIS2_PLACEMENT_3D( '', #510, #511, #512 );
#462 = COLOUR_RGB( '', 0.689999997600000, 0.689999997600000, 0.689999997600000 );
#463 = CARTESIAN_POINT( '', ( 19.5000000000000, 0.000000000000000, 31.5000000000000 ) );
#464 = AXIS2_PLACEMENT_3D( '', #513, #514, #515 );
#465 = COLOUR_RGB( '', 0.689999997600000, 0.689999997600000, 0.689999997600000 );
#466 = COLOUR_RGB( '', 0.689999997600000, 0.689999997600000, 0.689999997600000 );
#467 = COLOUR_RGB( '', 0.689999997600000, 0.689999997600000, 0.689999997600000 );
#468 = COLOUR_RGB( '', 0.689999997600000, 0.689999997600000, 0.689999997600000 );
#469 = COLOUR_RGB( '', 0.689999997600000, 0.689999997600000, 0.689999997600000 );
#470 = CARTESIAN_POINT( '', ( 42.5000000000000, 0.000000000000000, 0.000000000000000 ) );
#471 = DIRECTION( '', ( -1.00000000000000, 0.000000000000000, 0.000000000000000 ) );
#472 = DIRECTION( '', ( 0.000000000000000, 0.000000000000000, 1.00000000000000 ) );
#473 = CARTESIAN_POINT( '', ( 38.5163120603859, 0.000000000000000, 0.000000000000000 ) );
#474 = DIRECTION( '', ( -1.00000000000000, 0.000000000000000, 0.000000000000000 ) );
#475 = DIRECTION( '', ( 0.000000000000000, 0.000000000000000, 1.00000000000000 ) );
#476 = DIRECTION( '', ( 0.000000000000000, 0.000000000000000, 1.00000000000000 ) );
#477 = DIRECTION( '', ( -1.00000000000000, -0.000000000000000, -0.000000000000000 ) );
#478 = DIRECTION( '', ( 0.000000000000000, 0.000000000000000, 1.00000000000000 ) );
#479 = DIRECTION( '', ( -1.00000000000000, -0.000000000000000, -0.000000000000000 ) );
#480 = CARTESIAN_POINT( '', ( 54.0000000000000, 0.000000000000000, 0.000000000000000 ) );
#481 = DIRECTION( '', ( -1.00000000000000, 0.000000000000000, 0.000000000000000 ) );
#482 = DIRECTION( '', ( 0.000000000000000, 0.000000000000000, 1.00000000000000 ) );
#483 = DIRECTION( '', ( 0.000000000000000, 1.00000000000000, 1.69187016160882E-15 ) );
#484 = DIRECTION( '', ( 0.000000000000000, 1.00000000000000, 1.69187016160882E-15 ) );
#485 = DIRECTION( '', ( -1.00000000000000, -0.000000000000000, -0.000000000000000 ) );
#486 = CARTESIAN_POINT( '', ( 35.0000000000000, -9.75781955236954E-16, -5.63785129692462E-15 ) );
#487 = DIRECTION( '', ( -1.00000000000000, 0.000000000000000, 0.000000000000000 ) );
#488 = DIRECTION( '', ( 0.000000000000000, 0.000000000000000, 1.00000000000000 ) );
#489 = CARTESIAN_POINT( '', ( 0.000000000000000, -9.75781955236954E-16, -5.63785129692462E-15 ) );
#490 = DIRECTION( '', ( 1.00000000000000, 0.000000000000000, 0.000000000000000 ) );
#491 = DIRECTION( '', ( 0.000000000000000, 0.000000000000000, -1.00000000000000 ) );
#492 = DIRECTION( '', ( -1.00000000000000, -0.000000000000000, -0.000000000000000 ) );
#493 = DIRECTION( '', ( 0.000000000000000, -1.00000000000000, 0.000000000000000 ) );
#494 = CARTESIAN_POINT( '', ( 0.000000000000000, 0.000000000000000, 0.000000000000000 ) );
#495 = DIRECTION( '', ( -1.00000000000000, 0.000000000000000, 0.000000000000000 ) );
#496 = DIRECTION( '', ( 0.000000000000000, 0.000000000000000, 1.00000000000000 ) );
#497 = CARTESIAN_POINT( '', ( 60.5000000000000, 0.000000000000000, 0.000000000000000 ) );
#498 = DIRECTION( '', ( -1.00000000000000, 0.000000000000000, 0.000000000000000 ) );
#499 = DIRECTION( '', ( 0.000000000000000, 0.000000000000000, 1.00000000000000 ) );
#500 = CARTESIAN_POINT( '', ( 29.5000000000000, 0.000000000000000, 0.000000000000000 ) );
#501 = DIRECTION( '', ( -1.00000000000000, 0.000000000000000, 0.000000000000000 ) );
#502 = DIRECTION( '', ( 0.000000000000000, 0.000000000000000, 1.00000000000000 ) );
#503 = CARTESIAN_POINT( '', ( 35.0000000000000, 0.000000000000000, 0.000000000000000 ) );
#504 = DIRECTION( '', ( -1.00000000000000, 0.000000000000000, 0.000000000000000 ) );
#505 = DIRECTION( '', ( 0.000000000000000, 0.000000000000000, 1.00000000000000 ) );
#506 = DIRECTION( '', ( 0.000000000000000, -1.00000000000000, 0.000000000000000 ) );
#507 = CARTESIAN_POINT( '', ( 72.8526313764871, 0.000000000000000, 0.000000000000000 ) );
#508 = DIRECTION( '', ( -1.00000000000000, 0.000000000000000, 0.000000000000000 ) );
#509 = DIRECTION( '', ( 0.000000000000000, 0.000000000000000, 1.00000000000000 ) );
#510 = CARTESIAN_POINT( '', ( 69.0000000000000, 0.000000000000000, 0.000000000000000 ) );
#511 = DIRECTION( '', ( -1.00000000000000, 0.000000000000000, 0.000000000000000 ) );
#512 = DIRECTION( '', ( 0.000000000000000, 0.000000000000000, 1.00000000000000 ) );
#513 = CARTESIAN_POINT( '', ( 19.5000000000000, 0.000000000000000, 0.000000000000000 ) );
#514 = DIRECTION( '', ( -1.00000000000000, 0.000000000000000, 0.000000000000000 ) );
#515 = DIRECTION( '', ( 0.000000000000000, 0.000000000000000, 1.00000000000000 ) );
ENDSEC;
END-ISO-10303-21;
