ISO-10303-21;
HEADER;
FILE_DESCRIPTION( ( 'STEP AP214' ), '1' );
FILE_NAME( '//goodhand-server/Shared Folders/GoodHand Data/Kipp CAD/K0163/K0163.1120X14.stp', '2020-11-26T10:29:46', ( '' ), ( '' ), ' ', 'PARTsolutions', ' ' );
FILE_SCHEMA( ( 'AUTOMOTIVE_DESIGN { 1 0 10303 214 1 1 1 1 }' ) );
ENDSEC;
DATA;
#1 = MECHANICAL_DESIGN_GEOMETRIC_PRESENTATION_REPRESENTATION( ' ', ( #10, #11, #12, #13, #14, #15, #16, #17, #18, #19, #20, #21, #22, #23, #24 ), #6 );
#2 = PRODUCT_DEFINITION_CONTEXT( '', #25, 'design' );
#3 = APPLICATION_PROTOCOL_DEFINITION( 'international standard', 'automotive_design', 2001, #25 );
#4 = PRODUCT_CATEGORY_RELATIONSHIP( 'NONE', 'NONE', #26, #27 );
#5 = SHAPE_DEFINITION_REPRESENTATION( #28, #29 );
#6 =  ( GEOMETRIC_REPRESENTATION_CONTEXT( 3 )GLOBAL_UNCERTAINTY_ASSIGNED_CONTEXT( ( #32 ) )GLOBAL_UNIT_ASSIGNED_CONTEXT( ( #34, #35, #36 ) )REPRESENTATION_CONTEXT( 'NONE', 'WORKSPACE' ) );
#10 = STYLED_ITEM( '', ( #38 ), #39 );
#11 = STYLED_ITEM( '', ( #40 ), #41 );
#12 = STYLED_ITEM( '', ( #42 ), #43 );
#13 = STYLED_ITEM( '', ( #44 ), #45 );
#14 = STYLED_ITEM( '', ( #46 ), #47 );
#15 = STYLED_ITEM( '', ( #48 ), #49 );
#16 = STYLED_ITEM( '', ( #50 ), #51 );
#17 = STYLED_ITEM( '', ( #52 ), #53 );
#18 = STYLED_ITEM( '', ( #54 ), #55 );
#19 = STYLED_ITEM( '', ( #56 ), #57 );
#20 = STYLED_ITEM( '', ( #58 ), #59 );
#21 = STYLED_ITEM( '', ( #60 ), #61 );
#22 = STYLED_ITEM( '', ( #62 ), #63 );
#23 = STYLED_ITEM( '', ( #64 ), #65 );
#24 = STYLED_ITEM( '', ( #66 ), #67 );
#25 = APPLICATION_CONTEXT( 'core data for automotive mechanical design processes' );
#26 = PRODUCT_CATEGORY( 'part', 'NONE' );
#27 = PRODUCT_RELATED_PRODUCT_CATEGORY( 'detail', ' ', ( #68 ) );
#28 = PRODUCT_DEFINITION_SHAPE( 'NONE', 'NONE', #69 );
#29 = ADVANCED_BREP_SHAPE_REPRESENTATION( '_K0163.1120X14', ( #70, #71 ), #6 );
#32 = UNCERTAINTY_MEASURE_WITH_UNIT( LENGTH_MEASURE( 0.00100000000000000 ), #34, '', '' );
#34 =  ( CONVERSION_BASED_UNIT( 'MILLIMETRE', #74 )LENGTH_UNIT(  )NAMED_UNIT( #77 ) );
#35 =  ( NAMED_UNIT( #79 )PLANE_ANGLE_UNIT(  )SI_UNIT( $, .RADIAN. ) );
#36 =  ( NAMED_UNIT( #79 )SI_UNIT( $, .STERADIAN. )SOLID_ANGLE_UNIT(  ) );
#38 = PRESENTATION_STYLE_ASSIGNMENT( ( #85 ) );
#39 = ADVANCED_FACE( '', ( #86, #87, #88 ), #89, .T. );
#40 = PRESENTATION_STYLE_ASSIGNMENT( ( #90 ) );
#41 = ADVANCED_FACE( '', ( #91 ), #92, .T. );
#42 = PRESENTATION_STYLE_ASSIGNMENT( ( #93 ) );
#43 = ADVANCED_FACE( '', ( #94, #95 ), #96, .F. );
#44 = PRESENTATION_STYLE_ASSIGNMENT( ( #97 ) );
#45 = ADVANCED_FACE( '', ( #98 ), #99, .T. );
#46 = PRESENTATION_STYLE_ASSIGNMENT( ( #100 ) );
#47 = ADVANCED_FACE( '', ( #101, #102 ), #103, .F. );
#48 = PRESENTATION_STYLE_ASSIGNMENT( ( #104 ) );
#49 = ADVANCED_FACE( '', ( #105, #106 ), #107, .T. );
#50 = PRESENTATION_STYLE_ASSIGNMENT( ( #108 ) );
#51 = ADVANCED_FACE( '', ( #109, #110 ), #111, .T. );
#52 = PRESENTATION_STYLE_ASSIGNMENT( ( #112 ) );
#53 = ADVANCED_FACE( '', ( #113, #114 ), #115, .F. );
#54 = PRESENTATION_STYLE_ASSIGNMENT( ( #116 ) );
#55 = ADVANCED_FACE( '', ( #117, #118 ), #119, .F. );
#56 = PRESENTATION_STYLE_ASSIGNMENT( ( #120 ) );
#57 = ADVANCED_FACE( '', ( #121, #122 ), #123, .F. );
#58 = PRESENTATION_STYLE_ASSIGNMENT( ( #124 ) );
#59 = ADVANCED_FACE( '', ( #125 ), #126, .F. );
#60 = PRESENTATION_STYLE_ASSIGNMENT( ( #127 ) );
#61 = ADVANCED_FACE( '', ( #128 ), #129, .T. );
#62 = PRESENTATION_STYLE_ASSIGNMENT( ( #130 ) );
#63 = ADVANCED_FACE( '', ( #131, #132 ), #133, .T. );
#64 = PRESENTATION_STYLE_ASSIGNMENT( ( #134 ) );
#65 = ADVANCED_FACE( '', ( #135, #136 ), #137, .T. );
#66 = PRESENTATION_STYLE_ASSIGNMENT( ( #138 ) );
#67 = ADVANCED_FACE( '', ( #139, #140 ), #141, .F. );
#68 = PRODUCT( '_K0163.1120X14', '_K0163.1120X14', 'PART-_K0163.1120X14-DESC', ( #142 ) );
#69 = PRODUCT_DEFINITION( 'NONE', 'NONE', #143, #2 );
#70 = MANIFOLD_SOLID_BREP( '_K0163.1120X14', #144 );
#71 = AXIS2_PLACEMENT_3D( '', #145, #146, #147 );
#74 = LENGTH_MEASURE_WITH_UNIT( LENGTH_MEASURE( 1.00000000000000 ), #148 );
#77 = DIMENSIONAL_EXPONENTS( 1.00000000000000, 0.000000000000000, 0.000000000000000, 0.000000000000000, 0.000000000000000, 0.000000000000000, 0.000000000000000 );
#79 = DIMENSIONAL_EXPONENTS( 0.000000000000000, 0.000000000000000, 0.000000000000000, 0.000000000000000, 0.000000000000000, 0.000000000000000, 0.000000000000000 );
#85 = SURFACE_STYLE_USAGE( .BOTH., #149 );
#86 = FACE_BOUND( '', #150, .T. );
#87 = FACE_OUTER_BOUND( '', #151, .T. );
#88 = FACE_OUTER_BOUND( '', #152, .T. );
#89 = TOROIDAL_SURFACE( '', #153, 52.0000000000000, 8.00000000000000 );
#90 = SURFACE_STYLE_USAGE( .BOTH., #154 );
#91 = FACE_OUTER_BOUND( '', #155, .T. );
#92 = PLANE( '', #156 );
#93 = SURFACE_STYLE_USAGE( .BOTH., #157 );
#94 = FACE_BOUND( '', #158, .T. );
#95 = FACE_OUTER_BOUND( '', #159, .T. );
#96 = CONICAL_SURFACE( '', #160, 51.0000000000000, 0.389352174000000 );
#97 = SURFACE_STYLE_USAGE( .BOTH., #161 );
#98 = FACE_OUTER_BOUND( '', #162, .T. );
#99 = PLANE( '', #163 );
#100 = SURFACE_STYLE_USAGE( .BOTH., #164 );
#101 = FACE_OUTER_BOUND( '', #165, .T. );
#102 = FACE_BOUND( '', #166, .T. );
#103 = CONICAL_SURFACE( '', #167, 13.5000000000000, 1.32208633770000 );
#104 = SURFACE_STYLE_USAGE( .BOTH., #168 );
#105 = FACE_BOUND( '', #169, .T. );
#106 = FACE_OUTER_BOUND( '', #170, .T. );
#107 = CONICAL_SURFACE( '', #171, 46.0000000000000, 1.28641155020000 );
#108 = SURFACE_STYLE_USAGE( .BOTH., #172 );
#109 = FACE_OUTER_BOUND( '', #173, .T. );
#110 = FACE_OUTER_BOUND( '', #174, .T. );
#111 = TOROIDAL_SURFACE( '', #175, 49.9999371535000, 5.00000000000000 );
#112 = SURFACE_STYLE_USAGE( .BOTH., #176 );
#113 = FACE_BOUND( '', #177, .T. );
#114 = FACE_OUTER_BOUND( '', #178, .T. );
#115 = PLANE( '', #179 );
#116 = SURFACE_STYLE_USAGE( .BOTH., #180 );
#117 = FACE_BOUND( '', #181, .T. );
#118 = FACE_OUTER_BOUND( '', #182, .T. );
#119 = CONICAL_SURFACE( '', #183, 50.0000000000000, 1.10714871780000 );
#120 = SURFACE_STYLE_USAGE( .BOTH., #184 );
#121 = FACE_OUTER_BOUND( '', #185, .T. );
#122 = FACE_BOUND( '', #186, .T. );
#123 = CONICAL_SURFACE( '', #187, 50.5000000000000, 0.382675352600000 );
#124 = SURFACE_STYLE_USAGE( .BOTH., #188 );
#125 = FACE_OUTER_BOUND( '', #189, .T. );
#126 = CYLINDRICAL_SURFACE( '', #190, 7.00000000000000 );
#127 = SURFACE_STYLE_USAGE( .BOTH., #191 );
#128 = FACE_OUTER_BOUND( '', #192, .T. );
#129 = PLANE( '', #193 );
#130 = SURFACE_STYLE_USAGE( .BOTH., #194 );
#131 = FACE_OUTER_BOUND( '', #195, .T. );
#132 = FACE_OUTER_BOUND( '', #196, .T. );
#133 = CYLINDRICAL_SURFACE( '', #197, 13.5000000000000 );
#134 = SURFACE_STYLE_USAGE( .BOTH., #198 );
#135 = FACE_OUTER_BOUND( '', #199, .T. );
#136 = FACE_OUTER_BOUND( '', #200, .T. );
#137 = CYLINDRICAL_SURFACE( '', #201, 13.5000000000000 );
#138 = SURFACE_STYLE_USAGE( .BOTH., #202 );
#139 = FACE_OUTER_BOUND( '', #203, .T. );
#140 = FACE_BOUND( '', #204, .T. );
#141 = PLANE( '', #205 );
#142 = PRODUCT_CONTEXT( '', #25, 'mechanical' );
#143 = PRODUCT_DEFINITION_FORMATION_WITH_SPECIFIED_SOURCE( ' ', 'NONE', #68, .NOT_KNOWN. );
#144 = CLOSED_SHELL( '', ( #67, #45, #61, #59, #41, #53, #65, #49, #55, #43, #39, #57, #51, #47, #63 ) );
#145 = CARTESIAN_POINT( '', ( 0.000000000000000, 0.000000000000000, 0.000000000000000 ) );
#146 = DIRECTION( '', ( 0.000000000000000, 0.000000000000000, 1.00000000000000 ) );
#147 = DIRECTION( '', ( 1.00000000000000, 0.000000000000000, 0.000000000000000 ) );
#148 =  ( LENGTH_UNIT(  )NAMED_UNIT( #77 )SI_UNIT( .MILLI., .METRE. ) );
#149 = SURFACE_SIDE_STYLE( '', ( #207 ) );
#150 = VERTEX_LOOP( '', #208 );
#151 = EDGE_LOOP( '', ( #209 ) );
#152 = EDGE_LOOP( '', ( #210 ) );
#153 = AXIS2_PLACEMENT_3D( '', #211, #212, #213 );
#154 = SURFACE_SIDE_STYLE( '', ( #214 ) );
#155 = EDGE_LOOP( '', ( #215, #216, #217, #218 ) );
#156 = AXIS2_PLACEMENT_3D( '', #219, #220, #221 );
#157 = SURFACE_SIDE_STYLE( '', ( #222 ) );
#158 = EDGE_LOOP( '', ( #223 ) );
#159 = EDGE_LOOP( '', ( #224 ) );
#160 = AXIS2_PLACEMENT_3D( '', #225, #226, #227 );
#161 = SURFACE_SIDE_STYLE( '', ( #228 ) );
#162 = EDGE_LOOP( '', ( #229, #230, #231, #232 ) );
#163 = AXIS2_PLACEMENT_3D( '', #233, #234, #235 );
#164 = SURFACE_SIDE_STYLE( '', ( #236 ) );
#165 = EDGE_LOOP( '', ( #237 ) );
#166 = EDGE_LOOP( '', ( #238 ) );
#167 = AXIS2_PLACEMENT_3D( '', #239, #240, #241 );
#168 = SURFACE_SIDE_STYLE( '', ( #242 ) );
#169 = EDGE_LOOP( '', ( #243 ) );
#170 = EDGE_LOOP( '', ( #244 ) );
#171 = AXIS2_PLACEMENT_3D( '', #245, #246, #247 );
#172 = SURFACE_SIDE_STYLE( '', ( #248 ) );
#173 = EDGE_LOOP( '', ( #249 ) );
#174 = EDGE_LOOP( '', ( #250 ) );
#175 = AXIS2_PLACEMENT_3D( '', #251, #252, #253 );
#176 = SURFACE_SIDE_STYLE( '', ( #254 ) );
#177 = EDGE_LOOP( '', ( #255, #256, #257, #258 ) );
#178 = EDGE_LOOP( '', ( #259 ) );
#179 = AXIS2_PLACEMENT_3D( '', #260, #261, #262 );
#180 = SURFACE_SIDE_STYLE( '', ( #263 ) );
#181 = EDGE_LOOP( '', ( #264 ) );
#182 = EDGE_LOOP( '', ( #265 ) );
#183 = AXIS2_PLACEMENT_3D( '', #266, #267, #268 );
#184 = SURFACE_SIDE_STYLE( '', ( #269 ) );
#185 = EDGE_LOOP( '', ( #270 ) );
#186 = EDGE_LOOP( '', ( #271 ) );
#187 = AXIS2_PLACEMENT_3D( '', #272, #273, #274 );
#188 = SURFACE_SIDE_STYLE( '', ( #275 ) );
#189 = EDGE_LOOP( '', ( #276, #277, #278, #279 ) );
#190 = AXIS2_PLACEMENT_3D( '', #280, #281, #282 );
#191 = SURFACE_SIDE_STYLE( '', ( #283 ) );
#192 = EDGE_LOOP( '', ( #284, #285, #286, #287 ) );
#193 = AXIS2_PLACEMENT_3D( '', #288, #289, #290 );
#194 = SURFACE_SIDE_STYLE( '', ( #291 ) );
#195 = EDGE_LOOP( '', ( #292 ) );
#196 = EDGE_LOOP( '', ( #293 ) );
#197 = AXIS2_PLACEMENT_3D( '', #294, #295, #296 );
#198 = SURFACE_SIDE_STYLE( '', ( #297 ) );
#199 = EDGE_LOOP( '', ( #298 ) );
#200 = EDGE_LOOP( '', ( #299 ) );
#201 = AXIS2_PLACEMENT_3D( '', #300, #301, #302 );
#202 = SURFACE_SIDE_STYLE( '', ( #303 ) );
#203 = EDGE_LOOP( '', ( #304 ) );
#204 = EDGE_LOOP( '', ( #305, #306, #307, #308 ) );
#205 = AXIS2_PLACEMENT_3D( '', #309, #310, #311 );
#207 = SURFACE_STYLE_FILL_AREA( #312 );
#208 = VERTEX_POINT( '', #313 );
#209 = ORIENTED_EDGE( '', *, *, #314, .T. );
#210 = ORIENTED_EDGE( '', *, *, #315, .F. );
#211 = CARTESIAN_POINT( '', ( 22.0000000000000, 0.000000000000000, 0.000000000000000 ) );
#212 = DIRECTION( '', ( -1.00000000000000, 0.000000000000000, 0.000000000000000 ) );
#213 = DIRECTION( '', ( 0.000000000000000, 0.000000000000000, 1.00000000000000 ) );
#214 = SURFACE_STYLE_FILL_AREA( #316 );
#215 = ORIENTED_EDGE( '', *, *, #317, .T. );
#216 = ORIENTED_EDGE( '', *, *, #318, .T. );
#217 = ORIENTED_EDGE( '', *, *, #319, .F. );
#218 = ORIENTED_EDGE( '', *, *, #320, .F. );
#219 = CARTESIAN_POINT( '', ( 27.0000000000000, 9.30000000000000, 2.50000000000000 ) );
#220 = DIRECTION( '', ( 0.000000000000000, 0.000000000000000, -1.00000000000000 ) );
#221 = DIRECTION( '', ( -1.00000000000000, 0.000000000000000, 0.000000000000000 ) );
#222 = SURFACE_STYLE_FILL_AREA( #321 );
#223 = ORIENTED_EDGE( '', *, *, #322, .F. );
#224 = ORIENTED_EDGE( '', *, *, #315, .T. );
#225 = CARTESIAN_POINT( '', ( 14.0627460668062, 0.000000000000000, 0.000000000000000 ) );
#226 = DIRECTION( '', ( -1.00000000000000, -0.000000000000000, -0.000000000000000 ) );
#227 = DIRECTION( '', ( 0.000000000000000, 0.000000000000000, 1.00000000000000 ) );
#228 = SURFACE_STYLE_FILL_AREA( #323 );
#229 = ORIENTED_EDGE( '', *, *, #324, .T. );
#230 = ORIENTED_EDGE( '', *, *, #320, .T. );
#231 = ORIENTED_EDGE( '', *, *, #325, .F. );
#232 = ORIENTED_EDGE( '', *, *, #326, .F. );
#233 = CARTESIAN_POINT( '', ( 27.0000000000000, 9.30000000000000, -2.49999999999999 ) );
#234 = DIRECTION( '', ( 0.000000000000000, -1.00000000000000, 0.000000000000000 ) );
#235 = DIRECTION( '', ( 0.000000000000000, 0.000000000000000, -1.00000000000000 ) );
#236 = SURFACE_STYLE_FILL_AREA( #327 );
#237 = ORIENTED_EDGE( '', *, *, #328, .F. );
#238 = ORIENTED_EDGE( '', *, *, #329, .T. );
#239 = CARTESIAN_POINT( '', ( 14.5000000000000, 0.000000000000000, 0.000000000000000 ) );
#240 = DIRECTION( '', ( 1.00000000000000, -0.000000000000000, 0.000000000000000 ) );
#241 = DIRECTION( '', ( 0.000000000000000, 0.000000000000000, -1.00000000000000 ) );
#242 = SURFACE_STYLE_FILL_AREA( #330 );
#243 = ORIENTED_EDGE( '', *, *, #331, .F. );
#244 = ORIENTED_EDGE( '', *, *, #332, .T. );
#245 = CARTESIAN_POINT( '', ( 18.5000000000000, 0.000000000000000, 0.000000000000000 ) );
#246 = DIRECTION( '', ( 1.00000000000000, -0.000000000000000, 0.000000000000000 ) );
#247 = DIRECTION( '', ( 0.000000000000000, 0.000000000000000, -1.00000000000000 ) );
#248 = SURFACE_STYLE_FILL_AREA( #333 );
#249 = ORIENTED_EDGE( '', *, *, #328, .T. );
#250 = ORIENTED_EDGE( '', *, *, #334, .F. );
#251 = CARTESIAN_POINT( '', ( 22.5250691311817, 0.000000000000000, 0.000000000000000 ) );
#252 = DIRECTION( '', ( -1.00000000000000, 0.000000000000000, 0.000000000000000 ) );
#253 = DIRECTION( '', ( 0.000000000000000, 0.000000000000000, 1.00000000000000 ) );
#254 = SURFACE_STYLE_FILL_AREA( #335 );
#255 = ORIENTED_EDGE( '', *, *, #319, .T. );
#256 = ORIENTED_EDGE( '', *, *, #336, .F. );
#257 = ORIENTED_EDGE( '', *, *, #337, .T. );
#258 = ORIENTED_EDGE( '', *, *, #325, .T. );
#259 = ORIENTED_EDGE( '', *, *, #338, .T. );
#260 = CARTESIAN_POINT( '', ( 0.000000000000000, -13.5000000000000, 0.000000000000000 ) );
#261 = DIRECTION( '', ( 1.00000000000000, 0.000000000000000, 0.000000000000000 ) );
#262 = DIRECTION( '', ( 0.000000000000000, 0.000000000000000, -1.00000000000000 ) );
#263 = SURFACE_STYLE_FILL_AREA( #339 );
#264 = ORIENTED_EDGE( '', *, *, #332, .F. );
#265 = ORIENTED_EDGE( '', *, *, #322, .T. );
#266 = CARTESIAN_POINT( '', ( 16.5000000000000, 0.000000000000000, 0.000000000000000 ) );
#267 = DIRECTION( '', ( -1.00000000000000, -0.000000000000000, -0.000000000000000 ) );
#268 = DIRECTION( '', ( 0.000000000000000, 0.000000000000000, 1.00000000000000 ) );
#269 = SURFACE_STYLE_FILL_AREA( #340 );
#270 = ORIENTED_EDGE( '', *, *, #314, .F. );
#271 = ORIENTED_EDGE( '', *, *, #334, .T. );
#272 = CARTESIAN_POINT( '', ( 27.5000000000000, 0.000000000000000, 0.000000000000000 ) );
#273 = DIRECTION( '', ( 1.00000000000000, -0.000000000000000, 0.000000000000000 ) );
#274 = DIRECTION( '', ( 0.000000000000000, 0.000000000000000, -1.00000000000000 ) );
#275 = SURFACE_STYLE_FILL_AREA( #341 );
#276 = ORIENTED_EDGE( '', *, *, #342, .T. );
#277 = ORIENTED_EDGE( '', *, *, #343, .T. );
#278 = ORIENTED_EDGE( '', *, *, #336, .T. );
#279 = ORIENTED_EDGE( '', *, *, #318, .F. );
#280 = CARTESIAN_POINT( '', ( 27.0000000000000, 5.42101086242752E-16, 0.000000000000000 ) );
#281 = DIRECTION( '', ( 1.00000000000000, -0.000000000000000, -0.000000000000000 ) );
#282 = DIRECTION( '', ( 0.000000000000000, 0.000000000000000, 1.00000000000000 ) );
#283 = SURFACE_STYLE_FILL_AREA( #344 );
#284 = ORIENTED_EDGE( '', *, *, #345, .T. );
#285 = ORIENTED_EDGE( '', *, *, #326, .T. );
#286 = ORIENTED_EDGE( '', *, *, #337, .F. );
#287 = ORIENTED_EDGE( '', *, *, #343, .F. );
#288 = CARTESIAN_POINT( '', ( 27.0000000000000, 6.53834841531101, -2.50000000000000 ) );
#289 = DIRECTION( '', ( 0.000000000000000, -2.51258846060723E-15, 1.00000000000000 ) );
#290 = DIRECTION( '', ( 0.000000000000000, -1.00000000000000, -2.51258846060723E-15 ) );
#291 = SURFACE_STYLE_FILL_AREA( #346 );
#292 = ORIENTED_EDGE( '', *, *, #329, .F. );
#293 = ORIENTED_EDGE( '', *, *, #347, .T. );
#294 = CARTESIAN_POINT( '', ( 0.000000000000000, 0.000000000000000, 0.000000000000000 ) );
#295 = DIRECTION( '', ( 1.00000000000000, -0.000000000000000, -0.000000000000000 ) );
#296 = DIRECTION( '', ( 0.000000000000000, 0.000000000000000, 1.00000000000000 ) );
#297 = SURFACE_STYLE_FILL_AREA( #348 );
#298 = ORIENTED_EDGE( '', *, *, #338, .F. );
#299 = ORIENTED_EDGE( '', *, *, #331, .T. );
#300 = CARTESIAN_POINT( '', ( 0.000000000000000, 0.000000000000000, 0.000000000000000 ) );
#301 = DIRECTION( '', ( 1.00000000000000, -0.000000000000000, -0.000000000000000 ) );
#302 = DIRECTION( '', ( 0.000000000000000, 0.000000000000000, 1.00000000000000 ) );
#303 = SURFACE_STYLE_FILL_AREA( #349 );
#304 = ORIENTED_EDGE( '', *, *, #347, .F. );
#305 = ORIENTED_EDGE( '', *, *, #317, .F. );
#306 = ORIENTED_EDGE( '', *, *, #324, .F. );
#307 = ORIENTED_EDGE( '', *, *, #345, .F. );
#308 = ORIENTED_EDGE( '', *, *, #342, .F. );
#309 = CARTESIAN_POINT( '', ( 18.0000000000000, 0.000000000000000, 0.000000000000000 ) );
#310 = DIRECTION( '', ( -1.00000000000000, 0.000000000000000, 0.000000000000000 ) );
#311 = DIRECTION( '', ( 0.000000000000000, 0.000000000000000, 1.00000000000000 ) );
#312 = FILL_AREA_STYLE( '', ( #350 ) );
#313 = CARTESIAN_POINT( '', ( 22.0000000000000, 0.000000000000000, 60.0000000000000 ) );
#314 = EDGE_CURVE( '', #351, #351, #352, .T. );
#315 = EDGE_CURVE( '', #353, #353, #354, .T. );
#316 = FILL_AREA_STYLE( '', ( #355 ) );
#317 = EDGE_CURVE( '', #356, #357, #358, .T. );
#318 = EDGE_CURVE( '', #357, #359, #360, .T. );
#319 = EDGE_CURVE( '', #361, #359, #362, .T. );
#320 = EDGE_CURVE( '', #356, #361, #363, .T. );
#321 = FILL_AREA_STYLE( '', ( #364 ) );
#322 = EDGE_CURVE( '', #365, #365, #366, .T. );
#323 = FILL_AREA_STYLE( '', ( #367 ) );
#324 = EDGE_CURVE( '', #368, #356, #369, .T. );
#325 = EDGE_CURVE( '', #370, #361, #371, .T. );
#326 = EDGE_CURVE( '', #368, #370, #372, .T. );
#327 = FILL_AREA_STYLE( '', ( #373 ) );
#328 = EDGE_CURVE( '', #374, #374, #375, .T. );
#329 = EDGE_CURVE( '', #376, #376, #377, .T. );
#330 = FILL_AREA_STYLE( '', ( #378 ) );
#331 = EDGE_CURVE( '', #379, #379, #380, .T. );
#332 = EDGE_CURVE( '', #381, #381, #382, .T. );
#333 = FILL_AREA_STYLE( '', ( #383 ) );
#334 = EDGE_CURVE( '', #384, #384, #385, .T. );
#335 = FILL_AREA_STYLE( '', ( #386 ) );
#336 = EDGE_CURVE( '', #387, #359, #388, .F. );
#337 = EDGE_CURVE( '', #387, #370, #389, .T. );
#338 = EDGE_CURVE( '', #390, #390, #391, .T. );
#339 = FILL_AREA_STYLE( '', ( #392 ) );
#340 = FILL_AREA_STYLE( '', ( #393 ) );
#341 = FILL_AREA_STYLE( '', ( #394 ) );
#342 = EDGE_CURVE( '', #357, #395, #396, .F. );
#343 = EDGE_CURVE( '', #395, #387, #397, .T. );
#344 = FILL_AREA_STYLE( '', ( #398 ) );
#345 = EDGE_CURVE( '', #395, #368, #399, .T. );
#346 = FILL_AREA_STYLE( '', ( #400 ) );
#347 = EDGE_CURVE( '', #401, #401, #402, .T. );
#348 = FILL_AREA_STYLE( '', ( #403 ) );
#349 = FILL_AREA_STYLE( '', ( #404 ) );
#350 = FILL_AREA_STYLE_COLOUR( '', #405 );
#351 = VERTEX_POINT( '', #406 );
#352 = CIRCLE( '', #407, 51.5000000000000 );
#353 = VERTEX_POINT( '', #408 );
#354 = CIRCLE( '', #409, 51.0000000000000 );
#355 = FILL_AREA_STYLE_COLOUR( '', #410 );
#356 = VERTEX_POINT( '', #411 );
#357 = VERTEX_POINT( '', #412 );
#358 = LINE( '', #413, #414 );
#359 = VERTEX_POINT( '', #415 );
#360 = LINE( '', #416, #417 );
#361 = VERTEX_POINT( '', #418 );
#362 = LINE( '', #419, #420 );
#363 = LINE( '', #421, #422 );
#364 = FILL_AREA_STYLE_COLOUR( '', #423 );
#365 = VERTEX_POINT( '', #424 );
#366 = CIRCLE( '', #425, 50.0000000000000 );
#367 = FILL_AREA_STYLE_COLOUR( '', #426 );
#368 = VERTEX_POINT( '', #427 );
#369 = LINE( '', #428, #429 );
#370 = VERTEX_POINT( '', #430 );
#371 = LINE( '', #431, #432 );
#372 = LINE( '', #433, #434 );
#373 = FILL_AREA_STYLE_COLOUR( '', #435 );
#374 = VERTEX_POINT( '', #436 );
#375 = CIRCLE( '', #437, 45.0000000000000 );
#376 = VERTEX_POINT( '', #438 );
#377 = CIRCLE( '', #439, 13.5000000000000 );
#378 = FILL_AREA_STYLE_COLOUR( '', #440 );
#379 = VERTEX_POINT( '', #441 );
#380 = CIRCLE( '', #442, 13.5000000000000 );
#381 = VERTEX_POINT( '', #443 );
#382 = CIRCLE( '', #444, 46.0000000000000 );
#383 = FILL_AREA_STYLE_COLOUR( '', #445 );
#384 = VERTEX_POINT( '', #446 );
#385 = CIRCLE( '', #447, 50.5000000000000 );
#386 = FILL_AREA_STYLE_COLOUR( '', #448 );
#387 = VERTEX_POINT( '', #449 );
#388 = CIRCLE( '', #450, 7.00000000000000 );
#389 = LINE( '', #451, #452 );
#390 = VERTEX_POINT( '', #453 );
#391 = CIRCLE( '', #454, 13.5000000000000 );
#392 = FILL_AREA_STYLE_COLOUR( '', #455 );
#393 = FILL_AREA_STYLE_COLOUR( '', #456 );
#394 = FILL_AREA_STYLE_COLOUR( '', #457 );
#395 = VERTEX_POINT( '', #458 );
#396 = CIRCLE( '', #459, 7.00000000000000 );
#397 = LINE( '', #460, #461 );
#398 = FILL_AREA_STYLE_COLOUR( '', #462 );
#399 = LINE( '', #463, #464 );
#400 = FILL_AREA_STYLE_COLOUR( '', #465 );
#401 = VERTEX_POINT( '', #466 );
#402 = CIRCLE( '', #467, 13.5000000000000 );
#403 = FILL_AREA_STYLE_COLOUR( '', #468 );
#404 = FILL_AREA_STYLE_COLOUR( '', #469 );
#405 = COLOUR_RGB( '', 0.689999997600000, 0.689999997600000, 0.689999997600000 );
#406 = CARTESIAN_POINT( '', ( 29.9843597113357, 0.000000000000000, 51.5000000000000 ) );
#407 = AXIS2_PLACEMENT_3D( '', #470, #471, #472 );
#408 = CARTESIAN_POINT( '', ( 14.0627460668062, 0.000000000000000, 51.0000000000000 ) );
#409 = AXIS2_PLACEMENT_3D( '', #473, #474, #475 );
#410 = COLOUR_RGB( '', 0.689999997600000, 0.689999997600000, 0.689999997600000 );
#411 = CARTESIAN_POINT( '', ( 18.0000000000000, 9.30000000000000, 2.50000000000000 ) );
#412 = CARTESIAN_POINT( '', ( 18.0000000000000, 6.53834841531101, 2.50000000000000 ) );
#413 = CARTESIAN_POINT( '', ( 18.0000000000000, 0.000000000000000, 2.50000000000000 ) );
#414 = VECTOR( '', #476, 1000.00000000000 );
#415 = CARTESIAN_POINT( '', ( 0.000000000000000, 6.53834841531101, 2.50000000000000 ) );
#416 = CARTESIAN_POINT( '', ( 27.0000000000000, 6.53834841531101, 2.50000000000000 ) );
#417 = VECTOR( '', #477, 1000.00000000000 );
#418 = CARTESIAN_POINT( '', ( 0.000000000000000, 9.30000000000000, 2.50000000000000 ) );
#419 = CARTESIAN_POINT( '', ( 0.000000000000000, 9.30000000000000, 2.50000000000000 ) );
#420 = VECTOR( '', #478, 1000.00000000000 );
#421 = CARTESIAN_POINT( '', ( 27.0000000000000, 9.30000000000000, 2.50000000000000 ) );
#422 = VECTOR( '', #479, 1000.00000000000 );
#423 = COLOUR_RGB( '', 0.689999997600000, 0.689999997600000, 0.689999997600000 );
#424 = CARTESIAN_POINT( '', ( 16.5000000000000, 0.000000000000000, 50.0000000000000 ) );
#425 = AXIS2_PLACEMENT_3D( '', #480, #481, #482 );
#426 = COLOUR_RGB( '', 0.689999997600000, 0.689999997600000, 0.689999997600000 );
#427 = CARTESIAN_POINT( '', ( 18.0000000000000, 9.30000000000000, -2.49999999999999 ) );
#428 = CARTESIAN_POINT( '', ( 18.0000000000000, 9.30000000000000, 0.000000000000000 ) );
#429 = VECTOR( '', #483, 1000.00000000000 );
#430 = CARTESIAN_POINT( '', ( 0.000000000000000, 9.30000000000000, -2.49999999999999 ) );
#431 = CARTESIAN_POINT( '', ( 0.000000000000000, 9.30000000000000, -2.49999999999999 ) );
#432 = VECTOR( '', #484, 1000.00000000000 );
#433 = CARTESIAN_POINT( '', ( 27.0000000000000, 9.30000000000000, -2.49999999999999 ) );
#434 = VECTOR( '', #485, 1000.00000000000 );
#435 = COLOUR_RGB( '', 0.689999997600000, 0.689999997600000, 0.689999997600000 );
#436 = CARTESIAN_POINT( '', ( 22.5000000000000, 0.000000000000000, 45.0000000000000 ) );
#437 = AXIS2_PLACEMENT_3D( '', #486, #487, #488 );
#438 = CARTESIAN_POINT( '', ( 14.5000000000000, 0.000000000000000, 13.5000000000000 ) );
#439 = AXIS2_PLACEMENT_3D( '', #489, #490, #491 );
#440 = COLOUR_RGB( '', 0.689999997600000, 0.689999997600000, 0.689999997600000 );
#441 = CARTESIAN_POINT( '', ( 9.00000000000000, 0.000000000000000, 13.5000000000000 ) );
#442 = AXIS2_PLACEMENT_3D( '', #492, #493, #494 );
#443 = CARTESIAN_POINT( '', ( 18.5000000000000, 0.000000000000000, 46.0000000000000 ) );
#444 = AXIS2_PLACEMENT_3D( '', #495, #496, #497 );
#445 = COLOUR_RGB( '', 0.689999997600000, 0.689999997600000, 0.689999997600000 );
#446 = CARTESIAN_POINT( '', ( 27.5000000000000, 0.000000000000000, 50.5000000000000 ) );
#447 = AXIS2_PLACEMENT_3D( '', #498, #499, #500 );
#448 = COLOUR_RGB( '', 0.689999997600000, 0.689999997600000, 0.689999997600000 );
#449 = CARTESIAN_POINT( '', ( 0.000000000000000, 6.53834841531101, -2.50000000000000 ) );
#450 = AXIS2_PLACEMENT_3D( '', #501, #502, #503 );
#451 = CARTESIAN_POINT( '', ( 0.000000000000000, 6.53834841531101, -2.50000000000000 ) );
#452 = VECTOR( '', #504, 1000.00000000000 );
#453 = CARTESIAN_POINT( '', ( 0.000000000000000, 0.000000000000000, 13.5000000000000 ) );
#454 = AXIS2_PLACEMENT_3D( '', #505, #506, #507 );
#455 = COLOUR_RGB( '', 0.689999997600000, 0.689999997600000, 0.689999997600000 );
#456 = COLOUR_RGB( '', 0.689999997600000, 0.689999997600000, 0.689999997600000 );
#457 = COLOUR_RGB( '', 0.689999997600000, 0.689999997600000, 0.689999997600000 );
#458 = CARTESIAN_POINT( '', ( 18.0000000000000, 6.53834841531101, -2.50000000000000 ) );
#459 = AXIS2_PLACEMENT_3D( '', #508, #509, #510 );
#460 = CARTESIAN_POINT( '', ( 27.0000000000000, 6.53834841531101, -2.50000000000000 ) );
#461 = VECTOR( '', #511, 1000.00000000000 );
#462 = COLOUR_RGB( '', 0.689999997600000, 0.689999997600000, 0.689999997600000 );
#463 = CARTESIAN_POINT( '', ( 18.0000000000000, 6.28147115151812E-15, -2.50000000000002 ) );
#464 = VECTOR( '', #512, 1000.00000000000 );
#465 = COLOUR_RGB( '', 0.689999997600000, 0.689999997600000, 0.689999997600000 );
#466 = CARTESIAN_POINT( '', ( 18.0000000000000, 0.000000000000000, 13.5000000000000 ) );
#467 = AXIS2_PLACEMENT_3D( '', #513, #514, #515 );
#468 = COLOUR_RGB( '', 0.689999997600000, 0.689999997600000, 0.689999997600000 );
#469 = COLOUR_RGB( '', 0.689999997600000, 0.689999997600000, 0.689999997600000 );
#470 = CARTESIAN_POINT( '', ( 29.9843597113357, 0.000000000000000, 0.000000000000000 ) );
#471 = DIRECTION( '', ( -1.00000000000000, 0.000000000000000, 0.000000000000000 ) );
#472 = DIRECTION( '', ( 0.000000000000000, 0.000000000000000, 1.00000000000000 ) );
#473 = CARTESIAN_POINT( '', ( 14.0627460668062, 0.000000000000000, 0.000000000000000 ) );
#474 = DIRECTION( '', ( -1.00000000000000, 0.000000000000000, 0.000000000000000 ) );
#475 = DIRECTION( '', ( 0.000000000000000, 0.000000000000000, 1.00000000000000 ) );
#476 = DIRECTION( '', ( 0.000000000000000, -1.00000000000000, 0.000000000000000 ) );
#477 = DIRECTION( '', ( -1.00000000000000, -0.000000000000000, -0.000000000000000 ) );
#478 = DIRECTION( '', ( 0.000000000000000, -1.00000000000000, 0.000000000000000 ) );
#479 = DIRECTION( '', ( -1.00000000000000, -0.000000000000000, -0.000000000000000 ) );
#480 = CARTESIAN_POINT( '', ( 16.5000000000000, 0.000000000000000, 0.000000000000000 ) );
#481 = DIRECTION( '', ( -1.00000000000000, 0.000000000000000, 0.000000000000000 ) );
#482 = DIRECTION( '', ( 0.000000000000000, 0.000000000000000, 1.00000000000000 ) );
#483 = DIRECTION( '', ( 0.000000000000000, 0.000000000000000, 1.00000000000000 ) );
#484 = DIRECTION( '', ( 0.000000000000000, 0.000000000000000, 1.00000000000000 ) );
#485 = DIRECTION( '', ( -1.00000000000000, -0.000000000000000, -0.000000000000000 ) );
#486 = CARTESIAN_POINT( '', ( 22.5000000000000, 0.000000000000000, 0.000000000000000 ) );
#487 = DIRECTION( '', ( -1.00000000000000, 0.000000000000000, 0.000000000000000 ) );
#488 = DIRECTION( '', ( 0.000000000000000, 0.000000000000000, 1.00000000000000 ) );
#489 = CARTESIAN_POINT( '', ( 14.5000000000000, 0.000000000000000, 0.000000000000000 ) );
#490 = DIRECTION( '', ( -1.00000000000000, 0.000000000000000, 0.000000000000000 ) );
#491 = DIRECTION( '', ( 0.000000000000000, 0.000000000000000, 1.00000000000000 ) );
#492 = CARTESIAN_POINT( '', ( 9.00000000000000, 0.000000000000000, 0.000000000000000 ) );
#493 = DIRECTION( '', ( -1.00000000000000, 0.000000000000000, 0.000000000000000 ) );
#494 = DIRECTION( '', ( 0.000000000000000, 0.000000000000000, 1.00000000000000 ) );
#495 = CARTESIAN_POINT( '', ( 18.5000000000000, 0.000000000000000, 0.000000000000000 ) );
#496 = DIRECTION( '', ( -1.00000000000000, 0.000000000000000, 0.000000000000000 ) );
#497 = DIRECTION( '', ( 0.000000000000000, 0.000000000000000, 1.00000000000000 ) );
#498 = CARTESIAN_POINT( '', ( 27.5000000000000, 0.000000000000000, 0.000000000000000 ) );
#499 = DIRECTION( '', ( -1.00000000000000, 0.000000000000000, 0.000000000000000 ) );
#500 = DIRECTION( '', ( 0.000000000000000, 0.000000000000000, 1.00000000000000 ) );
#501 = CARTESIAN_POINT( '', ( 0.000000000000000, 5.42101086242752E-16, 0.000000000000000 ) );
#502 = DIRECTION( '', ( 1.00000000000000, 0.000000000000000, 0.000000000000000 ) );
#503 = DIRECTION( '', ( 0.000000000000000, 0.000000000000000, -1.00000000000000 ) );
#504 = DIRECTION( '', ( 0.000000000000000, 1.00000000000000, 2.51258846060723E-15 ) );
#505 = CARTESIAN_POINT( '', ( 0.000000000000000, 0.000000000000000, 0.000000000000000 ) );
#506 = DIRECTION( '', ( -1.00000000000000, 0.000000000000000, 0.000000000000000 ) );
#507 = DIRECTION( '', ( 0.000000000000000, 0.000000000000000, 1.00000000000000 ) );
#508 = CARTESIAN_POINT( '', ( 18.0000000000000, 5.42101086242752E-16, 0.000000000000000 ) );
#509 = DIRECTION( '', ( -1.00000000000000, 0.000000000000000, 0.000000000000000 ) );
#510 = DIRECTION( '', ( 0.000000000000000, 0.000000000000000, 1.00000000000000 ) );
#511 = DIRECTION( '', ( -1.00000000000000, -0.000000000000000, -0.000000000000000 ) );
#512 = DIRECTION( '', ( 0.000000000000000, 1.00000000000000, 2.51258846060723E-15 ) );
#513 = CARTESIAN_POINT( '', ( 18.0000000000000, 0.000000000000000, 0.000000000000000 ) );
#514 = DIRECTION( '', ( -1.00000000000000, 0.000000000000000, 0.000000000000000 ) );
#515 = DIRECTION( '', ( 0.000000000000000, 0.000000000000000, 1.00000000000000 ) );
ENDSEC;
END-ISO-10303-21;
