ISO-10303-21;
HEADER;
FILE_DESCRIPTION( ( 'STEP AP214' ), '1' );
FILE_NAME( '//goodhand-server/Shared Folders/GoodHand Data/Kipp CAD/K0676/K0676.3008X050.stp', '2020-12-09T11:10:08', ( '' ), ( '' ), ' ', 'PARTsolutions', ' ' );
FILE_SCHEMA( ( 'AUTOMOTIVE_DESIGN { 1 0 10303 214 1 1 1 1 }' ) );
ENDSEC;
DATA;
#1 = MECHANICAL_DESIGN_GEOMETRIC_PRESENTATION_REPRESENTATION( ' ', ( #10, #11, #12, #13, #14, #15, #16, #17, #18, #19, #20 ), #6 );
#2 = PRODUCT_DEFINITION_CONTEXT( '', #21, 'design' );
#3 = APPLICATION_PROTOCOL_DEFINITION( 'international standard', 'automotive_design', 2001, #21 );
#4 = PRODUCT_CATEGORY_RELATIONSHIP( 'NONE', 'NONE', #22, #23 );
#5 = SHAPE_DEFINITION_REPRESENTATION( #24, #25 );
#6 =  ( GEOMETRIC_REPRESENTATION_CONTEXT( 3 )GLOBAL_UNCERTAINTY_ASSIGNED_CONTEXT( ( #28 ) )GLOBAL_UNIT_ASSIGNED_CONTEXT( ( #30, #31, #32 ) )REPRESENTATION_CONTEXT( 'NONE', 'WORKSPACE' ) );
#10 = STYLED_ITEM( '', ( #34 ), #35 );
#11 = STYLED_ITEM( '', ( #36 ), #37 );
#12 = STYLED_ITEM( '', ( #38 ), #39 );
#13 = STYLED_ITEM( '', ( #40 ), #41 );
#14 = STYLED_ITEM( '', ( #42 ), #43 );
#15 = STYLED_ITEM( '', ( #44 ), #45 );
#16 = STYLED_ITEM( '', ( #46 ), #47 );
#17 = STYLED_ITEM( '', ( #48 ), #49 );
#18 = STYLED_ITEM( '', ( #50 ), #51 );
#19 = STYLED_ITEM( '', ( #52 ), #53 );
#20 = STYLED_ITEM( '', ( #54 ), #55 );
#21 = APPLICATION_CONTEXT( 'core data for automotive mechanical design processes' );
#22 = PRODUCT_CATEGORY( 'part', 'NONE' );
#23 = PRODUCT_RELATED_PRODUCT_CATEGORY( 'detail', ' ', ( #56 ) );
#24 = PRODUCT_DEFINITION_SHAPE( 'NONE', 'NONE', #57 );
#25 = ADVANCED_BREP_SHAPE_REPRESENTATION( '_K0676.3008X050', ( #58, #59 ), #6 );
#28 = UNCERTAINTY_MEASURE_WITH_UNIT( LENGTH_MEASURE( 0.00100000000000000 ), #30, '', '' );
#30 =  ( CONVERSION_BASED_UNIT( 'MILLIMETRE', #62 )LENGTH_UNIT(  )NAMED_UNIT( #65 ) );
#31 =  ( NAMED_UNIT( #67 )PLANE_ANGLE_UNIT(  )SI_UNIT( $, .RADIAN. ) );
#32 =  ( NAMED_UNIT( #67 )SI_UNIT( $, .STERADIAN. )SOLID_ANGLE_UNIT(  ) );
#34 = PRESENTATION_STYLE_ASSIGNMENT( ( #73 ) );
#35 = ADVANCED_FACE( '', ( #74 ), #75, .F. );
#36 = PRESENTATION_STYLE_ASSIGNMENT( ( #76 ) );
#37 = ADVANCED_FACE( '', ( #77 ), #78, .T. );
#38 = PRESENTATION_STYLE_ASSIGNMENT( ( #79 ) );
#39 = ADVANCED_FACE( '', ( #80 ), #81, .T. );
#40 = PRESENTATION_STYLE_ASSIGNMENT( ( #82 ) );
#41 = ADVANCED_FACE( '', ( #83, #84 ), #85, .T. );
#42 = PRESENTATION_STYLE_ASSIGNMENT( ( #86 ) );
#43 = ADVANCED_FACE( '', ( #87, #88 ), #89, .T. );
#44 = PRESENTATION_STYLE_ASSIGNMENT( ( #90 ) );
#45 = ADVANCED_FACE( '', ( #91, #92 ), #93, .T. );
#46 = PRESENTATION_STYLE_ASSIGNMENT( ( #94 ) );
#47 = ADVANCED_FACE( '', ( #95 ), #96, .T. );
#48 = PRESENTATION_STYLE_ASSIGNMENT( ( #97 ) );
#49 = ADVANCED_FACE( '', ( #98 ), #99, .F. );
#50 = PRESENTATION_STYLE_ASSIGNMENT( ( #100 ) );
#51 = ADVANCED_FACE( '', ( #101 ), #102, .T. );
#52 = PRESENTATION_STYLE_ASSIGNMENT( ( #103 ) );
#53 = ADVANCED_FACE( '', ( #104 ), #105, .T. );
#54 = PRESENTATION_STYLE_ASSIGNMENT( ( #106 ) );
#55 = ADVANCED_FACE( '', ( #107 ), #108, .T. );
#56 = PRODUCT( '_K0676.3008X050', '_K0676.3008X050', 'PART-_K0676.3008X050-DESC', ( #109 ) );
#57 = PRODUCT_DEFINITION( 'NONE', 'NONE', #110, #2 );
#58 = MANIFOLD_SOLID_BREP( '_K0676.3008X050', #111 );
#59 = AXIS2_PLACEMENT_3D( '', #112, #113, #114 );
#62 = LENGTH_MEASURE_WITH_UNIT( LENGTH_MEASURE( 1.00000000000000 ), #115 );
#65 = DIMENSIONAL_EXPONENTS( 1.00000000000000, 0.000000000000000, 0.000000000000000, 0.000000000000000, 0.000000000000000, 0.000000000000000, 0.000000000000000 );
#67 = DIMENSIONAL_EXPONENTS( 0.000000000000000, 0.000000000000000, 0.000000000000000, 0.000000000000000, 0.000000000000000, 0.000000000000000, 0.000000000000000 );
#73 = SURFACE_STYLE_USAGE( .BOTH., #116 );
#74 = FACE_OUTER_BOUND( '', #117, .T. );
#75 = PLANE( '', #118 );
#76 = SURFACE_STYLE_USAGE( .BOTH., #119 );
#77 = FACE_OUTER_BOUND( '', #120, .T. );
#78 = PLANE( '', #121 );
#79 = SURFACE_STYLE_USAGE( .BOTH., #122 );
#80 = FACE_OUTER_BOUND( '', #123, .T. );
#81 = PLANE( '', #124 );
#82 = SURFACE_STYLE_USAGE( .BOTH., #125 );
#83 = FACE_OUTER_BOUND( '', #126, .T. );
#84 = FACE_BOUND( '', #127, .T. );
#85 = CONICAL_SURFACE( '', #128, 3.23300000000000, 0.785398163400000 );
#86 = SURFACE_STYLE_USAGE( .BOTH., #129 );
#87 = FACE_BOUND( '', #130, .T. );
#88 = FACE_OUTER_BOUND( '', #131, .T. );
#89 = PLANE( '', #132 );
#90 = SURFACE_STYLE_USAGE( .BOTH., #133 );
#91 = FACE_OUTER_BOUND( '', #134, .T. );
#92 = FACE_OUTER_BOUND( '', #135, .T. );
#93 = CYLINDRICAL_SURFACE( '', #136, 4.00000000000000 );
#94 = SURFACE_STYLE_USAGE( .BOTH., #137 );
#95 = FACE_OUTER_BOUND( '', #138, .T. );
#96 = PLANE( '', #139 );
#97 = SURFACE_STYLE_USAGE( .BOTH., #140 );
#98 = FACE_OUTER_BOUND( '', #141, .T. );
#99 = PLANE( '', #142 );
#100 = SURFACE_STYLE_USAGE( .BOTH., #143 );
#101 = FACE_OUTER_BOUND( '', #144, .T. );
#102 = PLANE( '', #145 );
#103 = SURFACE_STYLE_USAGE( .BOTH., #146 );
#104 = FACE_OUTER_BOUND( '', #147, .T. );
#105 = PLANE( '', #148 );
#106 = SURFACE_STYLE_USAGE( .BOTH., #149 );
#107 = FACE_OUTER_BOUND( '', #150, .T. );
#108 = PLANE( '', #151 );
#109 = PRODUCT_CONTEXT( '', #21, 'mechanical' );
#110 = PRODUCT_DEFINITION_FORMATION_WITH_SPECIFIED_SOURCE( ' ', 'NONE', #56, .NOT_KNOWN. );
#111 = CLOSED_SHELL( '', ( #47, #35, #55, #51, #53, #37, #39, #43, #49, #41, #45 ) );
#112 = CARTESIAN_POINT( '', ( 0.000000000000000, 0.000000000000000, 0.000000000000000 ) );
#113 = DIRECTION( '', ( 0.000000000000000, 0.000000000000000, 1.00000000000000 ) );
#114 = DIRECTION( '', ( 1.00000000000000, 0.000000000000000, 0.000000000000000 ) );
#115 =  ( LENGTH_UNIT(  )NAMED_UNIT( #65 )SI_UNIT( .MILLI., .METRE. ) );
#116 = SURFACE_SIDE_STYLE( '', ( #153 ) );
#117 = EDGE_LOOP( '', ( #154, #155, #156, #157, #158, #159 ) );
#118 = AXIS2_PLACEMENT_3D( '', #160, #161, #162 );
#119 = SURFACE_SIDE_STYLE( '', ( #163 ) );
#120 = EDGE_LOOP( '', ( #164, #165, #166, #167 ) );
#121 = AXIS2_PLACEMENT_3D( '', #168, #169, #170 );
#122 = SURFACE_SIDE_STYLE( '', ( #171 ) );
#123 = EDGE_LOOP( '', ( #172, #173, #174, #175 ) );
#124 = AXIS2_PLACEMENT_3D( '', #176, #177, #178 );
#125 = SURFACE_SIDE_STYLE( '', ( #179 ) );
#126 = EDGE_LOOP( '', ( #180 ) );
#127 = EDGE_LOOP( '', ( #181 ) );
#128 = AXIS2_PLACEMENT_3D( '', #182, #183, #184 );
#129 = SURFACE_SIDE_STYLE( '', ( #185 ) );
#130 = EDGE_LOOP( '', ( #186 ) );
#131 = EDGE_LOOP( '', ( #187, #188, #189, #190, #191, #192 ) );
#132 = AXIS2_PLACEMENT_3D( '', #193, #194, #195 );
#133 = SURFACE_SIDE_STYLE( '', ( #196 ) );
#134 = EDGE_LOOP( '', ( #197 ) );
#135 = EDGE_LOOP( '', ( #198 ) );
#136 = AXIS2_PLACEMENT_3D( '', #199, #200, #201 );
#137 = SURFACE_SIDE_STYLE( '', ( #202 ) );
#138 = EDGE_LOOP( '', ( #203, #204, #205, #206 ) );
#139 = AXIS2_PLACEMENT_3D( '', #207, #208, #209 );
#140 = SURFACE_SIDE_STYLE( '', ( #210 ) );
#141 = EDGE_LOOP( '', ( #211 ) );
#142 = AXIS2_PLACEMENT_3D( '', #212, #213, #214 );
#143 = SURFACE_SIDE_STYLE( '', ( #215 ) );
#144 = EDGE_LOOP( '', ( #216, #217, #218, #219 ) );
#145 = AXIS2_PLACEMENT_3D( '', #220, #221, #222 );
#146 = SURFACE_SIDE_STYLE( '', ( #223 ) );
#147 = EDGE_LOOP( '', ( #224, #225, #226, #227 ) );
#148 = AXIS2_PLACEMENT_3D( '', #228, #229, #230 );
#149 = SURFACE_SIDE_STYLE( '', ( #231 ) );
#150 = EDGE_LOOP( '', ( #232, #233, #234, #235 ) );
#151 = AXIS2_PLACEMENT_3D( '', #236, #237, #238 );
#153 = SURFACE_STYLE_FILL_AREA( #239 );
#154 = ORIENTED_EDGE( '', *, *, #240, .F. );
#155 = ORIENTED_EDGE( '', *, *, #241, .F. );
#156 = ORIENTED_EDGE( '', *, *, #242, .F. );
#157 = ORIENTED_EDGE( '', *, *, #243, .F. );
#158 = ORIENTED_EDGE( '', *, *, #244, .F. );
#159 = ORIENTED_EDGE( '', *, *, #245, .F. );
#160 = CARTESIAN_POINT( '', ( 0.000000000000000, 0.000000000000000, 0.000000000000000 ) );
#161 = DIRECTION( '', ( 0.000000000000000, 1.00000000000000, 0.000000000000000 ) );
#162 = DIRECTION( '', ( 0.000000000000000, -0.000000000000000, 1.00000000000000 ) );
#163 = SURFACE_STYLE_FILL_AREA( #246 );
#164 = ORIENTED_EDGE( '', *, *, #247, .F. );
#165 = ORIENTED_EDGE( '', *, *, #248, .F. );
#166 = ORIENTED_EDGE( '', *, *, #244, .T. );
#167 = ORIENTED_EDGE( '', *, *, #249, .T. );
#168 = CARTESIAN_POINT( '', ( 0.000000000000000, 8.00000000000000, 17.3205080756888 ) );
#169 = DIRECTION( '', ( 0.499524110790929, -0.0436193873653360, 0.865201139495554 ) );
#170 = DIRECTION( '', ( 0.866025403784439, -2.42136240865198E-18, -0.500000000000000 ) );
#171 = SURFACE_STYLE_FILL_AREA( #250 );
#172 = ORIENTED_EDGE( '', *, *, #251, .F. );
#173 = ORIENTED_EDGE( '', *, *, #249, .F. );
#174 = ORIENTED_EDGE( '', *, *, #243, .T. );
#175 = ORIENTED_EDGE( '', *, *, #252, .T. );
#176 = CARTESIAN_POINT( '', ( 15.0000000000000, 8.00000000000000, 8.66025403784439 ) );
#177 = DIRECTION( '', ( 0.999048221581858, -0.0436193873653360, 0.000000000000000 ) );
#178 = DIRECTION( '', ( 0.0436193873653360, 0.999048221581858, 0.000000000000000 ) );
#179 = SURFACE_STYLE_FILL_AREA( #253 );
#180 = ORIENTED_EDGE( '', *, *, #254, .F. );
#181 = ORIENTED_EDGE( '', *, *, #255, .T. );
#182 = CARTESIAN_POINT( '', ( 0.000000000000000, 58.0000000000000, 0.000000000000000 ) );
#183 = DIRECTION( '', ( -0.000000000000000, -1.00000000000000, -0.000000000000000 ) );
#184 = DIRECTION( '', ( 0.000000000000000, 0.000000000000000, -1.00000000000000 ) );
#185 = SURFACE_STYLE_FILL_AREA( #256 );
#186 = ORIENTED_EDGE( '', *, *, #257, .T. );
#187 = ORIENTED_EDGE( '', *, *, #258, .T. );
#188 = ORIENTED_EDGE( '', *, *, #259, .T. );
#189 = ORIENTED_EDGE( '', *, *, #247, .T. );
#190 = ORIENTED_EDGE( '', *, *, #251, .T. );
#191 = ORIENTED_EDGE( '', *, *, #260, .T. );
#192 = ORIENTED_EDGE( '', *, *, #261, .T. );
#193 = CARTESIAN_POINT( '', ( 0.000000000000000, 8.00000000000000, 0.000000000000000 ) );
#194 = DIRECTION( '', ( 0.000000000000000, 1.00000000000000, 0.000000000000000 ) );
#195 = DIRECTION( '', ( 0.000000000000000, -0.000000000000000, 1.00000000000000 ) );
#196 = SURFACE_STYLE_FILL_AREA( #262 );
#197 = ORIENTED_EDGE( '', *, *, #257, .F. );
#198 = ORIENTED_EDGE( '', *, *, #254, .T. );
#199 = CARTESIAN_POINT( '', ( 0.000000000000000, 8.00000000000000, 0.000000000000000 ) );
#200 = DIRECTION( '', ( -0.000000000000000, 1.00000000000000, 0.000000000000000 ) );
#201 = DIRECTION( '', ( 0.000000000000000, 0.000000000000000, -1.00000000000000 ) );
#202 = SURFACE_STYLE_FILL_AREA( #263 );
#203 = ORIENTED_EDGE( '', *, *, #261, .F. );
#204 = ORIENTED_EDGE( '', *, *, #264, .F. );
#205 = ORIENTED_EDGE( '', *, *, #241, .T. );
#206 = ORIENTED_EDGE( '', *, *, #265, .T. );
#207 = CARTESIAN_POINT( '', ( 0.000000000000000, 8.00000000000000, -17.3205080756888 ) );
#208 = DIRECTION( '', ( -0.499524110790929, -0.0436193873653360, -0.865201139495554 ) );
#209 = DIRECTION( '', ( -0.866025403784439, -2.42136240865198E-18, 0.500000000000000 ) );
#210 = SURFACE_STYLE_FILL_AREA( #266 );
#211 = ORIENTED_EDGE( '', *, *, #255, .F. );
#212 = CARTESIAN_POINT( '', ( 0.000000000000000, 58.0000000000000, 0.000000000000000 ) );
#213 = DIRECTION( '', ( 0.000000000000000, -1.00000000000000, -0.000000000000000 ) );
#214 = DIRECTION( '', ( 0.000000000000000, 0.000000000000000, -1.00000000000000 ) );
#215 = SURFACE_STYLE_FILL_AREA( #267 );
#216 = ORIENTED_EDGE( '', *, *, #258, .F. );
#217 = ORIENTED_EDGE( '', *, *, #265, .F. );
#218 = ORIENTED_EDGE( '', *, *, #240, .T. );
#219 = ORIENTED_EDGE( '', *, *, #268, .T. );
#220 = CARTESIAN_POINT( '', ( -15.0000000000000, 8.00000000000000, -8.66025403784439 ) );
#221 = DIRECTION( '', ( -0.999048221581858, -0.0436193873653360, 0.000000000000000 ) );
#222 = DIRECTION( '', ( 0.0436193873653360, -0.999048221581858, 0.000000000000000 ) );
#223 = SURFACE_STYLE_FILL_AREA( #269 );
#224 = ORIENTED_EDGE( '', *, *, #259, .F. );
#225 = ORIENTED_EDGE( '', *, *, #268, .F. );
#226 = ORIENTED_EDGE( '', *, *, #245, .T. );
#227 = ORIENTED_EDGE( '', *, *, #248, .T. );
#228 = CARTESIAN_POINT( '', ( -15.0000000000000, 8.00000000000000, 8.66025403784439 ) );
#229 = DIRECTION( '', ( -0.499524110790929, -0.0436193873653360, 0.865201139495554 ) );
#230 = DIRECTION( '', ( 0.866025403784439, 2.42136240865198E-18, 0.500000000000000 ) );
#231 = SURFACE_STYLE_FILL_AREA( #270 );
#232 = ORIENTED_EDGE( '', *, *, #260, .F. );
#233 = ORIENTED_EDGE( '', *, *, #252, .F. );
#234 = ORIENTED_EDGE( '', *, *, #242, .T. );
#235 = ORIENTED_EDGE( '', *, *, #264, .T. );
#236 = CARTESIAN_POINT( '', ( 15.0000000000000, 8.00000000000000, -8.66025403784439 ) );
#237 = DIRECTION( '', ( 0.499524110790929, -0.0436193873653360, -0.865201139495554 ) );
#238 = DIRECTION( '', ( -0.866025403784439, 2.42136240865198E-18, -0.500000000000000 ) );
#239 = FILL_AREA_STYLE( '', ( #271 ) );
#240 = EDGE_CURVE( '', #272, #273, #274, .T. );
#241 = EDGE_CURVE( '', #275, #272, #276, .T. );
#242 = EDGE_CURVE( '', #277, #275, #278, .T. );
#243 = EDGE_CURVE( '', #279, #277, #280, .T. );
#244 = EDGE_CURVE( '', #281, #279, #282, .T. );
#245 = EDGE_CURVE( '', #273, #281, #283, .T. );
#246 = FILL_AREA_STYLE( '', ( #284 ) );
#247 = EDGE_CURVE( '', #285, #286, #287, .T. );
#248 = EDGE_CURVE( '', #281, #285, #288, .T. );
#249 = EDGE_CURVE( '', #279, #286, #289, .T. );
#250 = FILL_AREA_STYLE( '', ( #290 ) );
#251 = EDGE_CURVE( '', #286, #291, #292, .T. );
#252 = EDGE_CURVE( '', #277, #291, #293, .T. );
#253 = FILL_AREA_STYLE( '', ( #294 ) );
#254 = EDGE_CURVE( '', #295, #295, #296, .T. );
#255 = EDGE_CURVE( '', #297, #297, #298, .T. );
#256 = FILL_AREA_STYLE( '', ( #299 ) );
#257 = EDGE_CURVE( '', #300, #300, #301, .T. );
#258 = EDGE_CURVE( '', #302, #303, #304, .T. );
#259 = EDGE_CURVE( '', #303, #285, #305, .T. );
#260 = EDGE_CURVE( '', #291, #306, #307, .T. );
#261 = EDGE_CURVE( '', #306, #302, #308, .T. );
#262 = FILL_AREA_STYLE( '', ( #309 ) );
#263 = FILL_AREA_STYLE( '', ( #310 ) );
#264 = EDGE_CURVE( '', #275, #306, #311, .T. );
#265 = EDGE_CURVE( '', #272, #302, #312, .T. );
#266 = FILL_AREA_STYLE( '', ( #313 ) );
#267 = FILL_AREA_STYLE( '', ( #314 ) );
#268 = EDGE_CURVE( '', #273, #303, #315, .T. );
#269 = FILL_AREA_STYLE( '', ( #316 ) );
#270 = FILL_AREA_STYLE( '', ( #317 ) );
#271 = FILL_AREA_STYLE_COLOUR( '', #318 );
#272 = VERTEX_POINT( '', #319 );
#273 = VERTEX_POINT( '', #320 );
#274 = LINE( '', #321, #322 );
#275 = VERTEX_POINT( '', #323 );
#276 = LINE( '', #324, #325 );
#277 = VERTEX_POINT( '', #326 );
#278 = LINE( '', #327, #328 );
#279 = VERTEX_POINT( '', #329 );
#280 = LINE( '', #330, #331 );
#281 = VERTEX_POINT( '', #332 );
#282 = LINE( '', #333, #334 );
#283 = LINE( '', #335, #336 );
#284 = FILL_AREA_STYLE_COLOUR( '', #337 );
#285 = VERTEX_POINT( '', #338 );
#286 = VERTEX_POINT( '', #339 );
#287 = LINE( '', #340, #341 );
#288 = LINE( '', #342, #343 );
#289 = LINE( '', #344, #345 );
#290 = FILL_AREA_STYLE_COLOUR( '', #346 );
#291 = VERTEX_POINT( '', #347 );
#292 = LINE( '', #348, #349 );
#293 = LINE( '', #350, #351 );
#294 = FILL_AREA_STYLE_COLOUR( '', #352 );
#295 = VERTEX_POINT( '', #353 );
#296 = CIRCLE( '', #354, 4.00000000000000 );
#297 = VERTEX_POINT( '', #355 );
#298 = CIRCLE( '', #356, 3.23300000000000 );
#299 = FILL_AREA_STYLE_COLOUR( '', #357 );
#300 = VERTEX_POINT( '', #358 );
#301 = CIRCLE( '', #359, 4.00000000000000 );
#302 = VERTEX_POINT( '', #360 );
#303 = VERTEX_POINT( '', #361 );
#304 = LINE( '', #362, #363 );
#305 = LINE( '', #364, #365 );
#306 = VERTEX_POINT( '', #366 );
#307 = LINE( '', #367, #368 );
#308 = LINE( '', #369, #370 );
#309 = FILL_AREA_STYLE_COLOUR( '', #371 );
#310 = FILL_AREA_STYLE_COLOUR( '', #372 );
#311 = LINE( '', #373, #374 );
#312 = LINE( '', #375, #376 );
#313 = FILL_AREA_STYLE_COLOUR( '', #377 );
#314 = FILL_AREA_STYLE_COLOUR( '', #378 );
#315 = LINE( '', #379, #380 );
#316 = FILL_AREA_STYLE_COLOUR( '', #381 );
#317 = FILL_AREA_STYLE_COLOUR( '', #382 );
#318 = COLOUR_RGB( '', 0.689999997600000, 0.689999997600000, 0.689999997600000 );
#319 = CARTESIAN_POINT( '', ( -14.6507124567319, 0.000000000000000, -8.45859278071397 ) );
#320 = CARTESIAN_POINT( '', ( -14.6507124567319, 0.000000000000000, 8.45859278071397 ) );
#321 = CARTESIAN_POINT( '', ( -14.6507124567319, 0.000000000000000, 0.000000000000000 ) );
#322 = VECTOR( '', #383, 1000.00000000000 );
#323 = CARTESIAN_POINT( '', ( -4.39010374806836E-16, 0.000000000000000, -16.9171855614279 ) );
#324 = CARTESIAN_POINT( '', ( -7.32535622836595, 0.000000000000000, -12.6878891710710 ) );
#325 = VECTOR( '', #384, 1000.00000000000 );
#326 = CARTESIAN_POINT( '', ( 14.6507124567319, 0.000000000000000, -8.45859278071397 ) );
#327 = CARTESIAN_POINT( '', ( 7.32535622836595, 0.000000000000000, -12.6878891710710 ) );
#328 = VECTOR( '', #385, 1000.00000000000 );
#329 = CARTESIAN_POINT( '', ( 14.6507124567319, 0.000000000000000, 8.45859278071397 ) );
#330 = CARTESIAN_POINT( '', ( 14.6507124567319, 0.000000000000000, 0.000000000000000 ) );
#331 = VECTOR( '', #386, 1000.00000000000 );
#332 = CARTESIAN_POINT( '', ( 4.39010374806836E-16, 0.000000000000000, 16.9171855614279 ) );
#333 = CARTESIAN_POINT( '', ( 7.32535622836595, 0.000000000000000, 12.6878891710710 ) );
#334 = VECTOR( '', #387, 1000.00000000000 );
#335 = CARTESIAN_POINT( '', ( -7.32535622836595, 0.000000000000000, 12.6878891710710 ) );
#336 = VECTOR( '', #388, 1000.00000000000 );
#337 = COLOUR_RGB( '', 0.689999997600000, 0.689999997600000, 0.689999997600000 );
#338 = CARTESIAN_POINT( '', ( 0.000000000000000, 8.00000000000000, 17.3205080756888 ) );
#339 = CARTESIAN_POINT( '', ( 15.0000000000000, 8.00000000000000, 8.66025403784439 ) );
#340 = CARTESIAN_POINT( '', ( 0.000000000000000, 8.00000000000000, 17.3205080756888 ) );
#341 = VECTOR( '', #389, 1000.00000000000 );
#342 = CARTESIAN_POINT( '', ( 0.000000000000000, 7.56449748935085, 17.2985520797435 ) );
#343 = VECTOR( '', #390, 1000.00000000000 );
#344 = CARTESIAN_POINT( '', ( 14.9809855497460, 7.56449748935085, 8.64927603987177 ) );
#345 = VECTOR( '', #391, 1000.00000000000 );
#346 = COLOUR_RGB( '', 0.689999997600000, 0.689999997600000, 0.689999997600000 );
#347 = CARTESIAN_POINT( '', ( 15.0000000000000, 8.00000000000000, -8.66025403784439 ) );
#348 = CARTESIAN_POINT( '', ( 15.0000000000000, 8.00000000000000, 8.66025403784439 ) );
#349 = VECTOR( '', #392, 1000.00000000000 );
#350 = CARTESIAN_POINT( '', ( 14.9809855497460, 7.56449748935085, -8.64927603987177 ) );
#351 = VECTOR( '', #393, 1000.00000000000 );
#352 = COLOUR_RGB( '', 0.689999997600000, 0.689999997600000, 0.689999997600000 );
#353 = CARTESIAN_POINT( '', ( 0.000000000000000, 57.2330000000000, -4.00000000000000 ) );
#354 = AXIS2_PLACEMENT_3D( '', #394, #395, #396 );
#355 = CARTESIAN_POINT( '', ( 0.000000000000000, 58.0000000000000, -3.23300000000000 ) );
#356 = AXIS2_PLACEMENT_3D( '', #397, #398, #399 );
#357 = COLOUR_RGB( '', 0.689999997600000, 0.689999997600000, 0.689999997600000 );
#358 = CARTESIAN_POINT( '', ( 0.000000000000000, 8.00000000000000, -4.00000000000000 ) );
#359 = AXIS2_PLACEMENT_3D( '', #400, #401, #402 );
#360 = CARTESIAN_POINT( '', ( -15.0000000000000, 8.00000000000000, -8.66025403784439 ) );
#361 = CARTESIAN_POINT( '', ( -15.0000000000000, 8.00000000000000, 8.66025403784439 ) );
#362 = CARTESIAN_POINT( '', ( -15.0000000000000, 8.00000000000000, -8.66025403784439 ) );
#363 = VECTOR( '', #403, 1000.00000000000 );
#364 = CARTESIAN_POINT( '', ( -15.0000000000000, 8.00000000000000, 8.66025403784439 ) );
#365 = VECTOR( '', #404, 1000.00000000000 );
#366 = CARTESIAN_POINT( '', ( 0.000000000000000, 8.00000000000000, -17.3205080756888 ) );
#367 = CARTESIAN_POINT( '', ( 15.0000000000000, 8.00000000000000, -8.66025403784439 ) );
#368 = VECTOR( '', #405, 1000.00000000000 );
#369 = CARTESIAN_POINT( '', ( 0.000000000000000, 8.00000000000000, -17.3205080756888 ) );
#370 = VECTOR( '', #406, 1000.00000000000 );
#371 = COLOUR_RGB( '', 0.689999997600000, 0.689999997600000, 0.689999997600000 );
#372 = COLOUR_RGB( '', 0.689999997600000, 0.689999997600000, 0.689999997600000 );
#373 = CARTESIAN_POINT( '', ( 0.000000000000000, 7.56449748935085, -17.2985520797435 ) );
#374 = VECTOR( '', #407, 1000.00000000000 );
#375 = CARTESIAN_POINT( '', ( -14.9809855497460, 7.56449748935085, -8.64927603987177 ) );
#376 = VECTOR( '', #408, 1000.00000000000 );
#377 = COLOUR_RGB( '', 0.689999997600000, 0.689999997600000, 0.689999997600000 );
#378 = COLOUR_RGB( '', 0.689999997600000, 0.689999997600000, 0.689999997600000 );
#379 = CARTESIAN_POINT( '', ( -14.9809855497460, 7.56449748935085, 8.64927603987177 ) );
#380 = VECTOR( '', #409, 1000.00000000000 );
#381 = COLOUR_RGB( '', 0.689999997600000, 0.689999997600000, 0.689999997600000 );
#382 = COLOUR_RGB( '', 0.689999997600000, 0.689999997600000, 0.689999997600000 );
#383 = DIRECTION( '', ( 0.000000000000000, 0.000000000000000, 1.00000000000000 ) );
#384 = DIRECTION( '', ( -0.866025403784439, 0.000000000000000, 0.500000000000000 ) );
#385 = DIRECTION( '', ( -0.866025403784439, 0.000000000000000, -0.500000000000000 ) );
#386 = DIRECTION( '', ( 0.000000000000000, 0.000000000000000, -1.00000000000000 ) );
#387 = DIRECTION( '', ( 0.866025403784439, 0.000000000000000, -0.500000000000000 ) );
#388 = DIRECTION( '', ( 0.866025403784439, 0.000000000000000, 0.500000000000000 ) );
#389 = DIRECTION( '', ( 0.866025403784439, 0.000000000000000, -0.500000000000000 ) );
#390 = DIRECTION( '', ( 0.000000000000000, 0.998731565520054, 0.0503513657596513 ) );
#391 = DIRECTION( '', ( 0.0436055618630999, 0.998731565520054, 0.0251756828798256 ) );
#392 = DIRECTION( '', ( 0.000000000000000, 0.000000000000000, -1.00000000000000 ) );
#393 = DIRECTION( '', ( 0.0436055618630999, 0.998731565520054, -0.0251756828798256 ) );
#394 = CARTESIAN_POINT( '', ( 0.000000000000000, 57.2330000000000, 0.000000000000000 ) );
#395 = DIRECTION( '', ( 0.000000000000000, -1.00000000000000, -0.000000000000000 ) );
#396 = DIRECTION( '', ( 0.000000000000000, 0.000000000000000, -1.00000000000000 ) );
#397 = CARTESIAN_POINT( '', ( 0.000000000000000, 58.0000000000000, 0.000000000000000 ) );
#398 = DIRECTION( '', ( 0.000000000000000, -1.00000000000000, -0.000000000000000 ) );
#399 = DIRECTION( '', ( 0.000000000000000, 0.000000000000000, -1.00000000000000 ) );
#400 = CARTESIAN_POINT( '', ( 0.000000000000000, 8.00000000000000, 0.000000000000000 ) );
#401 = DIRECTION( '', ( 0.000000000000000, -1.00000000000000, -0.000000000000000 ) );
#402 = DIRECTION( '', ( 0.000000000000000, 0.000000000000000, -1.00000000000000 ) );
#403 = DIRECTION( '', ( 0.000000000000000, 0.000000000000000, 1.00000000000000 ) );
#404 = DIRECTION( '', ( 0.866025403784439, 0.000000000000000, 0.500000000000000 ) );
#405 = DIRECTION( '', ( -0.866025403784439, 0.000000000000000, -0.500000000000000 ) );
#406 = DIRECTION( '', ( -0.866025403784439, 0.000000000000000, 0.500000000000000 ) );
#407 = DIRECTION( '', ( 0.000000000000000, 0.998731565520054, -0.0503513657596513 ) );
#408 = DIRECTION( '', ( -0.0436055618630999, 0.998731565520054, -0.0251756828798256 ) );
#409 = DIRECTION( '', ( -0.0436055618630999, 0.998731565520054, 0.0251756828798256 ) );
ENDSEC;
END-ISO-10303-21;
