ISO-10303-21;
HEADER;
FILE_DESCRIPTION( ( 'STEP AP214' ), '1' );
FILE_NAME( '//goodhand-server/Shared Folders/GoodHand Data/Kipp CAD/K0712/K0712.1308.stp', '2020-12-09T12:34:36', ( '' ), ( '' ), ' ', 'PARTsolutions', ' ' );
FILE_SCHEMA( ( 'AUTOMOTIVE_DESIGN { 1 0 10303 214 1 1 1 1 }' ) );
ENDSEC;
DATA;
#1 = MECHANICAL_DESIGN_GEOMETRIC_PRESENTATION_REPRESENTATION( ' ', ( #10, #11, #12, #13, #14, #15, #16, #17, #18, #19, #20, #21, #22 ), #6 );
#2 = PRODUCT_DEFINITION_CONTEXT( '', #23, 'design' );
#3 = APPLICATION_PROTOCOL_DEFINITION( 'international standard', 'automotive_design', 2001, #23 );
#4 = PRODUCT_CATEGORY_RELATIONSHIP( 'NONE', 'NONE', #24, #25 );
#5 = SHAPE_DEFINITION_REPRESENTATION( #26, #27 );
#6 =  ( GEOMETRIC_REPRESENTATION_CONTEXT( 3 )GLOBAL_UNCERTAINTY_ASSIGNED_CONTEXT( ( #30 ) )GLOBAL_UNIT_ASSIGNED_CONTEXT( ( #32, #33, #34 ) )REPRESENTATION_CONTEXT( 'NONE', 'WORKSPACE' ) );
#10 = STYLED_ITEM( '', ( #36 ), #37 );
#11 = STYLED_ITEM( '', ( #38 ), #39 );
#12 = STYLED_ITEM( '', ( #40 ), #41 );
#13 = STYLED_ITEM( '', ( #42 ), #43 );
#14 = STYLED_ITEM( '', ( #44 ), #45 );
#15 = STYLED_ITEM( '', ( #46 ), #47 );
#16 = STYLED_ITEM( '', ( #48 ), #49 );
#17 = STYLED_ITEM( '', ( #50 ), #51 );
#18 = STYLED_ITEM( '', ( #52 ), #53 );
#19 = STYLED_ITEM( '', ( #54 ), #55 );
#20 = STYLED_ITEM( '', ( #56 ), #57 );
#21 = STYLED_ITEM( '', ( #58 ), #59 );
#22 = STYLED_ITEM( '', ( #60 ), #61 );
#23 = APPLICATION_CONTEXT( 'core data for automotive mechanical design processes' );
#24 = PRODUCT_CATEGORY( 'part', 'NONE' );
#25 = PRODUCT_RELATED_PRODUCT_CATEGORY( 'detail', ' ', ( #62 ) );
#26 = PRODUCT_DEFINITION_SHAPE( 'NONE', 'NONE', #63 );
#27 = ADVANCED_BREP_SHAPE_REPRESENTATION( '_K0712.1308', ( #64, #65 ), #6 );
#30 = UNCERTAINTY_MEASURE_WITH_UNIT( LENGTH_MEASURE( 0.00100000000000000 ), #32, '', '' );
#32 =  ( CONVERSION_BASED_UNIT( 'MILLIMETRE', #68 )LENGTH_UNIT(  )NAMED_UNIT( #71 ) );
#33 =  ( NAMED_UNIT( #73 )PLANE_ANGLE_UNIT(  )SI_UNIT( $, .RADIAN. ) );
#34 =  ( NAMED_UNIT( #73 )SI_UNIT( $, .STERADIAN. )SOLID_ANGLE_UNIT(  ) );
#36 = PRESENTATION_STYLE_ASSIGNMENT( ( #79 ) );
#37 = ADVANCED_FACE( '', ( #80, #81 ), #82, .T. );
#38 = PRESENTATION_STYLE_ASSIGNMENT( ( #83 ) );
#39 = ADVANCED_FACE( '', ( #84, #85 ), #86, .F. );
#40 = PRESENTATION_STYLE_ASSIGNMENT( ( #87 ) );
#41 = ADVANCED_FACE( '', ( #88, #89 ), #90, .T. );
#42 = PRESENTATION_STYLE_ASSIGNMENT( ( #91 ) );
#43 = ADVANCED_FACE( '', ( #92, #93 ), #94, .F. );
#44 = PRESENTATION_STYLE_ASSIGNMENT( ( #95 ) );
#45 = ADVANCED_FACE( '', ( #96, #97 ), #98, .T. );
#46 = PRESENTATION_STYLE_ASSIGNMENT( ( #99 ) );
#47 = ADVANCED_FACE( '', ( #100, #101 ), #102, .F. );
#48 = PRESENTATION_STYLE_ASSIGNMENT( ( #103 ) );
#49 = ADVANCED_FACE( '', ( #104, #105 ), #106, .F. );
#50 = PRESENTATION_STYLE_ASSIGNMENT( ( #107 ) );
#51 = ADVANCED_FACE( '', ( #108, #109 ), #110, .F. );
#52 = PRESENTATION_STYLE_ASSIGNMENT( ( #111 ) );
#53 = ADVANCED_FACE( '', ( #112, #113, #114 ), #115, .F. );
#54 = PRESENTATION_STYLE_ASSIGNMENT( ( #116 ) );
#55 = ADVANCED_FACE( '', ( #117, #118 ), #119, .F. );
#56 = PRESENTATION_STYLE_ASSIGNMENT( ( #120 ) );
#57 = ADVANCED_FACE( '', ( #121, #122 ), #123, .F. );
#58 = PRESENTATION_STYLE_ASSIGNMENT( ( #124 ) );
#59 = ADVANCED_FACE( '', ( #125, #126 ), #127, .F. );
#60 = PRESENTATION_STYLE_ASSIGNMENT( ( #128 ) );
#61 = ADVANCED_FACE( '', ( #129, #130 ), #131, .T. );
#62 = PRODUCT( '_K0712.1308', '_K0712.1308', 'PART-_K0712.1308-DESC', ( #132 ) );
#63 = PRODUCT_DEFINITION( 'NONE', 'NONE', #133, #2 );
#64 = MANIFOLD_SOLID_BREP( '_K0712.1308', #134 );
#65 = AXIS2_PLACEMENT_3D( '', #135, #136, #137 );
#68 = LENGTH_MEASURE_WITH_UNIT( LENGTH_MEASURE( 1.00000000000000 ), #138 );
#71 = DIMENSIONAL_EXPONENTS( 1.00000000000000, 0.000000000000000, 0.000000000000000, 0.000000000000000, 0.000000000000000, 0.000000000000000, 0.000000000000000 );
#73 = DIMENSIONAL_EXPONENTS( 0.000000000000000, 0.000000000000000, 0.000000000000000, 0.000000000000000, 0.000000000000000, 0.000000000000000, 0.000000000000000 );
#79 = SURFACE_STYLE_USAGE( .BOTH., #139 );
#80 = FACE_BOUND( '', #140, .T. );
#81 = FACE_OUTER_BOUND( '', #141, .T. );
#82 = SPHERICAL_SURFACE( '', #142, 11.0500000000000 );
#83 = SURFACE_STYLE_USAGE( .BOTH., #143 );
#84 = FACE_OUTER_BOUND( '', #144, .T. );
#85 = FACE_OUTER_BOUND( '', #145, .T. );
#86 = CYLINDRICAL_SURFACE( '', #146, 3.32350000000000 );
#87 = SURFACE_STYLE_USAGE( .BOTH., #147 );
#88 = FACE_OUTER_BOUND( '', #148, .T. );
#89 = FACE_OUTER_BOUND( '', #149, .T. );
#90 = CYLINDRICAL_SURFACE( '', #150, 6.50000000000000 );
#91 = SURFACE_STYLE_USAGE( .BOTH., #151 );
#92 = FACE_BOUND( '', #152, .T. );
#93 = FACE_OUTER_BOUND( '', #153, .T. );
#94 = SPHERICAL_SURFACE( '', #154, 6.50000000000000 );
#95 = SURFACE_STYLE_USAGE( .BOTH., #155 );
#96 = FACE_OUTER_BOUND( '', #156, .T. );
#97 = FACE_OUTER_BOUND( '', #157, .T. );
#98 = TOROIDAL_SURFACE( '', #158, 5.85000000000000, 0.650000000000000 );
#99 = SURFACE_STYLE_USAGE( .BOTH., #159 );
#100 = FACE_OUTER_BOUND( '', #160, .T. );
#101 = FACE_OUTER_BOUND( '', #161, .T. );
#102 = CYLINDRICAL_SURFACE( '', #162, 6.50000000000000 );
#103 = SURFACE_STYLE_USAGE( .BOTH., #163 );
#104 = FACE_OUTER_BOUND( '', #164, .T. );
#105 = FACE_OUTER_BOUND( '', #165, .T. );
#106 = TOROIDAL_SURFACE( '', #166, 7.80000000000000, 1.30000000000000 );
#107 = SURFACE_STYLE_USAGE( .BOTH., #167 );
#108 = FACE_OUTER_BOUND( '', #168, .T. );
#109 = FACE_BOUND( '', #169, .T. );
#110 = CONICAL_SURFACE( '', #170, 857.167300702100, 1.02974425870000 );
#111 = SURFACE_STYLE_USAGE( .BOTH., #171 );
#112 = FACE_BOUND( '', #172, .T. );
#113 = FACE_OUTER_BOUND( '', #173, .T. );
#114 = FACE_OUTER_BOUND( '', #174, .T. );
#115 = TOROIDAL_SURFACE( '', #175, 6.50000000000000, 0.866666666700000 );
#116 = SURFACE_STYLE_USAGE( .BOTH., #176 );
#117 = FACE_OUTER_BOUND( '', #177, .T. );
#118 = FACE_BOUND( '', #178, .T. );
#119 = CONICAL_SURFACE( '', #179, 3.32350000000000, 0.785398163400000 );
#120 = SURFACE_STYLE_USAGE( .BOTH., #180 );
#121 = FACE_BOUND( '', #181, .T. );
#122 = FACE_OUTER_BOUND( '', #182, .T. );
#123 = PLANE( '', #183 );
#124 = SURFACE_STYLE_USAGE( .BOTH., #184 );
#125 = FACE_OUTER_BOUND( '', #185, .T. );
#126 = FACE_OUTER_BOUND( '', #186, .T. );
#127 = CYLINDRICAL_SURFACE( '', #187, 6.50000000000000 );
#128 = SURFACE_STYLE_USAGE( .BOTH., #188 );
#129 = FACE_BOUND( '', #189, .T. );
#130 = FACE_OUTER_BOUND( '', #190, .T. );
#131 = PLANE( '', #191 );
#132 = PRODUCT_CONTEXT( '', #23, 'mechanical' );
#133 = PRODUCT_DEFINITION_FORMATION_WITH_SPECIFIED_SOURCE( ' ', 'NONE', #62, .NOT_KNOWN. );
#134 = CLOSED_SHELL( '', ( #51, #39, #59, #37, #49, #41, #61, #57, #45, #55, #53, #47, #43 ) );
#135 = CARTESIAN_POINT( '', ( 0.000000000000000, 0.000000000000000, 0.000000000000000 ) );
#136 = DIRECTION( '', ( 0.000000000000000, 0.000000000000000, 1.00000000000000 ) );
#137 = DIRECTION( '', ( 1.00000000000000, 0.000000000000000, 0.000000000000000 ) );
#138 =  ( LENGTH_UNIT(  )NAMED_UNIT( #71 )SI_UNIT( .MILLI., .METRE. ) );
#139 = SURFACE_SIDE_STYLE( '', ( #193 ) );
#140 = VERTEX_LOOP( '', #194 );
#141 = EDGE_LOOP( '', ( #195, #196 ) );
#142 = AXIS2_PLACEMENT_3D( '', #197, #198, #199 );
#143 = SURFACE_SIDE_STYLE( '', ( #200 ) );
#144 = EDGE_LOOP( '', ( #201 ) );
#145 = EDGE_LOOP( '', ( #202 ) );
#146 = AXIS2_PLACEMENT_3D( '', #203, #204, #205 );
#147 = SURFACE_SIDE_STYLE( '', ( #206 ) );
#148 = EDGE_LOOP( '', ( #207 ) );
#149 = EDGE_LOOP( '', ( #208 ) );
#150 = AXIS2_PLACEMENT_3D( '', #209, #210, #211 );
#151 = SURFACE_SIDE_STYLE( '', ( #212 ) );
#152 = VERTEX_LOOP( '', #213 );
#153 = EDGE_LOOP( '', ( #214 ) );
#154 = AXIS2_PLACEMENT_3D( '', #215, #216, #217 );
#155 = SURFACE_SIDE_STYLE( '', ( #218 ) );
#156 = EDGE_LOOP( '', ( #219 ) );
#157 = EDGE_LOOP( '', ( #220 ) );
#158 = AXIS2_PLACEMENT_3D( '', #221, #222, #223 );
#159 = SURFACE_SIDE_STYLE( '', ( #224 ) );
#160 = EDGE_LOOP( '', ( #225 ) );
#161 = EDGE_LOOP( '', ( #226 ) );
#162 = AXIS2_PLACEMENT_3D( '', #227, #228, #229 );
#163 = SURFACE_SIDE_STYLE( '', ( #230 ) );
#164 = EDGE_LOOP( '', ( #231 ) );
#165 = EDGE_LOOP( '', ( #232, #233 ) );
#166 = AXIS2_PLACEMENT_3D( '', #234, #235, #236 );
#167 = SURFACE_SIDE_STYLE( '', ( #237 ) );
#168 = EDGE_LOOP( '', ( #238 ) );
#169 = VERTEX_LOOP( '', #239 );
#170 = AXIS2_PLACEMENT_3D( '', #240, #241, #242 );
#171 = SURFACE_SIDE_STYLE( '', ( #243 ) );
#172 = VERTEX_LOOP( '', #244 );
#173 = EDGE_LOOP( '', ( #245 ) );
#174 = EDGE_LOOP( '', ( #246 ) );
#175 = AXIS2_PLACEMENT_3D( '', #247, #248, #249 );
#176 = SURFACE_SIDE_STYLE( '', ( #250 ) );
#177 = EDGE_LOOP( '', ( #251 ) );
#178 = EDGE_LOOP( '', ( #252 ) );
#179 = AXIS2_PLACEMENT_3D( '', #253, #254, #255 );
#180 = SURFACE_SIDE_STYLE( '', ( #256 ) );
#181 = EDGE_LOOP( '', ( #257 ) );
#182 = EDGE_LOOP( '', ( #258 ) );
#183 = AXIS2_PLACEMENT_3D( '', #259, #260, #261 );
#184 = SURFACE_SIDE_STYLE( '', ( #262 ) );
#185 = EDGE_LOOP( '', ( #263 ) );
#186 = EDGE_LOOP( '', ( #264 ) );
#187 = AXIS2_PLACEMENT_3D( '', #265, #266, #267 );
#188 = SURFACE_SIDE_STYLE( '', ( #268 ) );
#189 = EDGE_LOOP( '', ( #269 ) );
#190 = EDGE_LOOP( '', ( #270, #271 ) );
#191 = AXIS2_PLACEMENT_3D( '', #272, #273, #274 );
#193 = SURFACE_STYLE_FILL_AREA( #275 );
#194 = VERTEX_POINT( '', #276 );
#195 = ORIENTED_EDGE( '', *, *, #277, .F. );
#196 = ORIENTED_EDGE( '', *, *, #278, .T. );
#197 = CARTESIAN_POINT( '', ( -5.20417042793042E-15, 6.93889390390723E-15, 0.000000000000000 ) );
#198 = DIRECTION( '', ( 1.00000000000000, 0.000000000000000, 0.000000000000000 ) );
#199 = DIRECTION( '', ( 0.000000000000000, 1.00000000000000, 0.000000000000000 ) );
#200 = SURFACE_STYLE_FILL_AREA( #279 );
#201 = ORIENTED_EDGE( '', *, *, #280, .T. );
#202 = ORIENTED_EDGE( '', *, *, #281, .F. );
#203 = CARTESIAN_POINT( '', ( 30.0000000000000, 0.000000000000000, 0.000000000000000 ) );
#204 = DIRECTION( '', ( -1.00000000000000, -0.000000000000000, 0.000000000000000 ) );
#205 = DIRECTION( '', ( -0.000000000000000, 0.000000000000000, -1.00000000000000 ) );
#206 = SURFACE_STYLE_FILL_AREA( #282 );
#207 = ORIENTED_EDGE( '', *, *, #283, .F. );
#208 = ORIENTED_EDGE( '', *, *, #284, .T. );
#209 = CARTESIAN_POINT( '', ( 30.0000000000000, 0.000000000000000, 0.000000000000000 ) );
#210 = DIRECTION( '', ( -1.00000000000000, -0.000000000000000, 0.000000000000000 ) );
#211 = DIRECTION( '', ( -0.000000000000000, 0.000000000000000, -1.00000000000000 ) );
#212 = SURFACE_STYLE_FILL_AREA( #285 );
#213 = VERTEX_POINT( '', #286 );
#214 = ORIENTED_EDGE( '', *, *, #287, .T. );
#215 = CARTESIAN_POINT( '', ( -3.90312782094782E-15, 4.33680868994202E-15, 0.000000000000000 ) );
#216 = DIRECTION( '', ( 0.000000000000000, -1.00000000000000, 0.000000000000000 ) );
#217 = DIRECTION( '', ( 1.00000000000000, 0.000000000000000, 0.000000000000000 ) );
#218 = SURFACE_STYLE_FILL_AREA( #288 );
#219 = ORIENTED_EDGE( '', *, *, #283, .T. );
#220 = ORIENTED_EDGE( '', *, *, #289, .F. );
#221 = CARTESIAN_POINT( '', ( 29.3500000000000, 0.000000000000000, 0.000000000000000 ) );
#222 = DIRECTION( '', ( 1.00000000000000, 0.000000000000000, -0.000000000000000 ) );
#223 = DIRECTION( '', ( -0.000000000000000, 0.000000000000000, -1.00000000000000 ) );
#224 = SURFACE_STYLE_FILL_AREA( #290 );
#225 = ORIENTED_EDGE( '', *, *, #291, .T. );
#226 = ORIENTED_EDGE( '', *, *, #287, .F. );
#227 = CARTESIAN_POINT( '', ( 0.000000000000000, -13.0000000000000, 0.000000000000000 ) );
#228 = DIRECTION( '', ( -0.000000000000000, 1.00000000000000, 0.000000000000000 ) );
#229 = DIRECTION( '', ( 0.000000000000000, 0.000000000000000, -1.00000000000000 ) );
#230 = SURFACE_STYLE_FILL_AREA( #292 );
#231 = ORIENTED_EDGE( '', *, *, #284, .F. );
#232 = ORIENTED_EDGE( '', *, *, #293, .F. );
#233 = ORIENTED_EDGE( '', *, *, #277, .T. );
#234 = CARTESIAN_POINT( '', ( 9.57509791072655, 0.000000000000000, 0.000000000000000 ) );
#235 = DIRECTION( '', ( 1.00000000000000, 0.000000000000000, -0.000000000000000 ) );
#236 = DIRECTION( '', ( -0.000000000000000, 0.000000000000000, -1.00000000000000 ) );
#237 = SURFACE_STYLE_FILL_AREA( #294 );
#238 = ORIENTED_EDGE( '', *, *, #281, .T. );
#239 = VERTEX_POINT( '', #295 );
#240 = CARTESIAN_POINT( '', ( 527.041114642716, 0.000000000000000, 0.000000000000000 ) );
#241 = DIRECTION( '', ( 1.00000000000000, -0.000000000000000, -0.000000000000000 ) );
#242 = DIRECTION( '', ( -0.000000000000000, 0.000000000000000, -1.00000000000000 ) );
#243 = SURFACE_STYLE_FILL_AREA( #296 );
#244 = VERTEX_POINT( '', #297 );
#245 = ORIENTED_EDGE( '', *, *, #291, .F. );
#246 = ORIENTED_EDGE( '', *, *, #298, .T. );
#247 = CARTESIAN_POINT( '', ( 0.000000000000000, -2.60000000000000, 0.000000000000000 ) );
#248 = DIRECTION( '', ( 0.000000000000000, -1.00000000000000, -0.000000000000000 ) );
#249 = DIRECTION( '', ( 0.000000000000000, 0.000000000000000, -1.00000000000000 ) );
#250 = SURFACE_STYLE_FILL_AREA( #299 );
#251 = ORIENTED_EDGE( '', *, *, #300, .T. );
#252 = ORIENTED_EDGE( '', *, *, #280, .F. );
#253 = CARTESIAN_POINT( '', ( 29.3235000000000, 0.000000000000000, 0.000000000000000 ) );
#254 = DIRECTION( '', ( 1.00000000000000, -0.000000000000000, -0.000000000000000 ) );
#255 = DIRECTION( '', ( -0.000000000000000, 0.000000000000000, -1.00000000000000 ) );
#256 = SURFACE_STYLE_FILL_AREA( #301 );
#257 = ORIENTED_EDGE( '', *, *, #300, .F. );
#258 = ORIENTED_EDGE( '', *, *, #289, .T. );
#259 = CARTESIAN_POINT( '', ( 30.0000000000000, 5.85000000000000, 0.000000000000000 ) );
#260 = DIRECTION( '', ( -1.00000000000000, 0.000000000000000, 0.000000000000000 ) );
#261 = DIRECTION( '', ( 0.000000000000000, 0.000000000000000, 1.00000000000000 ) );
#262 = SURFACE_STYLE_FILL_AREA( #302 );
#263 = ORIENTED_EDGE( '', *, *, #303, .F. );
#264 = ORIENTED_EDGE( '', *, *, #298, .F. );
#265 = CARTESIAN_POINT( '', ( 0.000000000000000, -13.0000000000000, 0.000000000000000 ) );
#266 = DIRECTION( '', ( -0.000000000000000, 1.00000000000000, 0.000000000000000 ) );
#267 = DIRECTION( '', ( 0.000000000000000, 0.000000000000000, -1.00000000000000 ) );
#268 = SURFACE_STYLE_FILL_AREA( #304 );
#269 = ORIENTED_EDGE( '', *, *, #303, .T. );
#270 = ORIENTED_EDGE( '', *, *, #293, .T. );
#271 = ORIENTED_EDGE( '', *, *, #278, .F. );
#272 = CARTESIAN_POINT( '', ( 13.2995055002263, -6.57614274856092, 13.0000000000000 ) );
#273 = DIRECTION( '', ( 0.0436193873653360, -0.999048221581858, 0.000000000000000 ) );
#274 = DIRECTION( '', ( 0.999048221581858, 0.0436193873653360, 0.000000000000000 ) );
#275 = FILL_AREA_STYLE( '', ( #305 ) );
#276 = CARTESIAN_POINT( '', ( -11.0500000000000, 7.61551126043614E-15, 0.000000000000000 ) );
#277 = EDGE_CURVE( '', #306, #307, #308, .T. );
#278 = EDGE_CURVE( '', #306, #307, #309, .F. );
#279 = FILL_AREA_STYLE( '', ( #310 ) );
#280 = EDGE_CURVE( '', #311, #311, #312, .T. );
#281 = EDGE_CURVE( '', #313, #313, #314, .T. );
#282 = FILL_AREA_STYLE( '', ( #315 ) );
#283 = EDGE_CURVE( '', #316, #316, #317, .T. );
#284 = EDGE_CURVE( '', #318, #318, #319, .T. );
#285 = FILL_AREA_STYLE( '', ( #320 ) );
#286 = CARTESIAN_POINT( '', ( -3.50511761122493E-15, 6.50000000000000, 0.000000000000000 ) );
#287 = EDGE_CURVE( '', #321, #321, #322, .T. );
#288 = FILL_AREA_STYLE( '', ( #323 ) );
#289 = EDGE_CURVE( '', #324, #324, #325, .T. );
#290 = FILL_AREA_STYLE( '', ( #326 ) );
#291 = EDGE_CURVE( '', #327, #327, #328, .T. );
#292 = FILL_AREA_STYLE( '', ( #329 ) );
#293 = EDGE_CURVE( '', #306, #307, #330, .T. );
#294 = FILL_AREA_STYLE( '', ( #331 ) );
#295 = CARTESIAN_POINT( '', ( 12.0030397326619, 0.000000000000000, 0.000000000000000 ) );
#296 = FILL_AREA_STYLE( '', ( #332 ) );
#297 = CARTESIAN_POINT( '', ( 0.000000000000000, -2.60000000000000, -7.36666666666666 ) );
#298 = EDGE_CURVE( '', #333, #333, #334, .T. );
#299 = FILL_AREA_STYLE( '', ( #335 ) );
#300 = EDGE_CURVE( '', #336, #336, #337, .T. );
#301 = FILL_AREA_STYLE( '', ( #338 ) );
#302 = FILL_AREA_STYLE( '', ( #339 ) );
#303 = EDGE_CURVE( '', #340, #340, #341, .F. );
#304 = FILL_AREA_STYLE( '', ( #342 ) );
#305 = FILL_AREA_STYLE_COLOUR( '', #343 );
#306 = VERTEX_POINT( '', #344 );
#307 = VERTEX_POINT( '', #345 );
#308 = CIRCLE( '', #346, 6.97894736840000 );
#309 = CIRCLE( '', #347, 8.42496290790000 );
#310 = FILL_AREA_STYLE_COLOUR( '', #348 );
#311 = VERTEX_POINT( '', #349 );
#312 = CIRCLE( '', #350, 3.32350000000000 );
#313 = VERTEX_POINT( '', #351 );
#314 = CIRCLE( '', #352, 3.32350000000000 );
#315 = FILL_AREA_STYLE_COLOUR( '', #353 );
#316 = VERTEX_POINT( '', #354 );
#317 = CIRCLE( '', #355, 6.50000000000000 );
#318 = VERTEX_POINT( '', #356 );
#319 = CIRCLE( '', #357, 6.50000000000000 );
#320 = FILL_AREA_STYLE_COLOUR( '', #358 );
#321 = VERTEX_POINT( '', #359 );
#322 = CIRCLE( '', #360, 6.50000000000000 );
#323 = FILL_AREA_STYLE_COLOUR( '', #361 );
#324 = VERTEX_POINT( '', #362 );
#325 = CIRCLE( '', #363, 5.85000000000000 );
#326 = FILL_AREA_STYLE_COLOUR( '', #364 );
#327 = VERTEX_POINT( '', #365 );
#328 = CIRCLE( '', #366, 6.50000000000000 );
#329 = FILL_AREA_STYLE_COLOUR( '', #367 );
#330 = B_SPLINE_CURVE_WITH_KNOTS( '', 3, ( #368, #369, #370, #371, #372, #373, #374, #375 ), .UNSPECIFIED., .F., .F., ( 4, 2, 2, 4 ), ( 1.01495808164975E-06, 0.00164410525700026, 0.00246565040645957, 0.00328719555591888 ), .UNSPECIFIED. );
#331 = FILL_AREA_STYLE_COLOUR( '', #376 );
#332 = FILL_AREA_STYLE_COLOUR( '', #377 );
#333 = VERTEX_POINT( '', #378 );
#334 = CIRCLE( '', #379, 6.50000000000000 );
#335 = FILL_AREA_STYLE_COLOUR( '', #380 );
#336 = VERTEX_POINT( '', #381 );
#337 = CIRCLE( '', #382, 4.00000000000000 );
#338 = FILL_AREA_STYLE_COLOUR( '', #383 );
#339 = FILL_AREA_STYLE_COLOUR( '', #384 );
#340 = VERTEX_POINT( '', #385 );
#341 = ELLIPSE( '', #386, 6.50619245360000, 6.50000000000000 );
#342 = FILL_AREA_STYLE_COLOUR( '', #387 );
#343 = COLOUR_RGB( '', 0.689999997600000, 0.689999997600000, 0.689999997600000 );
#344 = CARTESIAN_POINT( '', ( 8.56719286749218, -6.78275998024395, -1.64312915548114 ) );
#345 = CARTESIAN_POINT( '', ( 8.56719286749218, -6.78275998024395, 1.64312915548114 ) );
#346 = AXIS2_PLACEMENT_3D( '', #388, #389, #390 );
#347 = AXIS2_PLACEMENT_3D( '', #391, #392, #393 );
#348 = COLOUR_RGB( '', 0.689999997600000, 0.689999997600000, 0.689999997600000 );
#349 = CARTESIAN_POINT( '', ( 29.3235000000000, 0.000000000000000, -3.32350000000000 ) );
#350 = AXIS2_PLACEMENT_3D( '', #394, #395, #396 );
#351 = CARTESIAN_POINT( '', ( 14.0000000000000, 0.000000000000000, -3.32350000000000 ) );
#352 = AXIS2_PLACEMENT_3D( '', #397, #398, #399 );
#353 = COLOUR_RGB( '', 0.689999997600000, 0.689999997600000, 0.689999997600000 );
#354 = CARTESIAN_POINT( '', ( 29.3500000000000, 0.000000000000000, -6.50000000000000 ) );
#355 = AXIS2_PLACEMENT_3D( '', #400, #401, #402 );
#356 = CARTESIAN_POINT( '', ( 9.57509791072655, 0.000000000000000, -6.50000000000000 ) );
#357 = AXIS2_PLACEMENT_3D( '', #403, #404, #405 );
#358 = COLOUR_RGB( '', 0.689999997600000, 0.689999997600000, 0.689999997600000 );
#359 = CARTESIAN_POINT( '', ( 0.000000000000000, -1.73472347597681E-15, -6.49999999999999 ) );
#360 = AXIS2_PLACEMENT_3D( '', #406, #407, #408 );
#361 = COLOUR_RGB( '', 0.689999997600000, 0.689999997600000, 0.689999997600000 );
#362 = CARTESIAN_POINT( '', ( 30.0000000000000, 0.000000000000000, -5.85000000000000 ) );
#363 = AXIS2_PLACEMENT_3D( '', #409, #410, #411 );
#364 = COLOUR_RGB( '', 0.689999997600000, 0.689999997600000, 0.689999997600000 );
#365 = CARTESIAN_POINT( '', ( 0.000000000000000, -1.73333333333333, -6.49999999999999 ) );
#366 = AXIS2_PLACEMENT_3D( '', #412, #413, #414 );
#367 = COLOUR_RGB( '', 0.689999997600000, 0.689999997600000, 0.689999997600000 );
#368 = CARTESIAN_POINT( '', ( 8.56719286749218, -6.78275998024395, -1.64312915548114 ) );
#369 = CARTESIAN_POINT( '', ( 8.67511461748396, -6.77804801487897, -1.09988134462380 ) );
#370 = CARTESIAN_POINT( '', ( 8.77640704684756, -6.77362549190346, -0.556323559744792 ) );
#371 = CARTESIAN_POINT( '', ( 8.77774278954375, -6.77356717211786, 0.266055013662811 ) );
#372 = CARTESIAN_POINT( '', ( 8.75411281489059, -6.77459887909213, 0.541306914938830 ) );
#373 = CARTESIAN_POINT( '', ( 8.67537700846009, -6.77803655864154, 1.09328246679449 ) );
#374 = CARTESIAN_POINT( '', ( 8.62170670588782, -6.78037985465803, 1.36872178743795 ) );
#375 = CARTESIAN_POINT( '', ( 8.56719286749218, -6.78275998024395, 1.64312915548114 ) );
#376 = COLOUR_RGB( '', 0.689999997600000, 0.689999997600000, 0.689999997600000 );
#377 = COLOUR_RGB( '', 0.689999997600000, 0.689999997600000, 0.689999997600000 );
#378 = CARTESIAN_POINT( '', ( 0.000000000000000, -3.46666666666667, -6.49999999999999 ) );
#379 = AXIS2_PLACEMENT_3D( '', #415, #416, #417 );
#380 = COLOUR_RGB( '', 0.689999997600000, 0.689999997600000, 0.689999997600000 );
#381 = CARTESIAN_POINT( '', ( 30.0000000000000, 0.000000000000000, -4.00000000000000 ) );
#382 = AXIS2_PLACEMENT_3D( '', #418, #419, #420 );
#383 = COLOUR_RGB( '', 0.689999997600000, 0.689999997600000, 0.689999997600000 );
#384 = COLOUR_RGB( '', 0.689999997600000, 0.689999997600000, 0.689999997600000 );
#385 = CARTESIAN_POINT( '', ( -6.49999999999999, -7.44060782782307, 0.000000000000000 ) );
#386 = AXIS2_PLACEMENT_3D( '', #421, #422, #423 );
#387 = COLOUR_RGB( '', 0.689999997600000, 0.689999997600000, 0.689999997600000 );
#388 = CARTESIAN_POINT( '', ( 8.56719286749218, 0.000000000000000, 0.000000000000000 ) );
#389 = DIRECTION( '', ( 1.00000000000000, 0.000000000000000, -0.000000000000000 ) );
#390 = DIRECTION( '', ( -0.000000000000000, 0.000000000000000, -1.00000000000000 ) );
#391 = CARTESIAN_POINT( '', ( 0.311878619662147, -7.14319478431028, 0.000000000000000 ) );
#392 = DIRECTION( '', ( 0.0436193873653360, -0.999048221581858, 0.000000000000000 ) );
#393 = DIRECTION( '', ( 0.999048221581858, 0.0436193873653360, 0.000000000000000 ) );
#394 = CARTESIAN_POINT( '', ( 29.3235000000000, 0.000000000000000, 0.000000000000000 ) );
#395 = DIRECTION( '', ( 1.00000000000000, 0.000000000000000, -0.000000000000000 ) );
#396 = DIRECTION( '', ( -0.000000000000000, 0.000000000000000, -1.00000000000000 ) );
#397 = CARTESIAN_POINT( '', ( 14.0000000000000, 0.000000000000000, 0.000000000000000 ) );
#398 = DIRECTION( '', ( 1.00000000000000, 0.000000000000000, -0.000000000000000 ) );
#399 = DIRECTION( '', ( -0.000000000000000, 0.000000000000000, -1.00000000000000 ) );
#400 = CARTESIAN_POINT( '', ( 29.3500000000000, 0.000000000000000, 0.000000000000000 ) );
#401 = DIRECTION( '', ( 1.00000000000000, 0.000000000000000, -0.000000000000000 ) );
#402 = DIRECTION( '', ( -0.000000000000000, 0.000000000000000, -1.00000000000000 ) );
#403 = CARTESIAN_POINT( '', ( 9.57509791072655, 0.000000000000000, 0.000000000000000 ) );
#404 = DIRECTION( '', ( 1.00000000000000, 0.000000000000000, -0.000000000000000 ) );
#405 = DIRECTION( '', ( -0.000000000000000, 0.000000000000000, -1.00000000000000 ) );
#406 = CARTESIAN_POINT( '', ( 0.000000000000000, -1.73472347597681E-15, 0.000000000000000 ) );
#407 = DIRECTION( '', ( 0.000000000000000, -1.00000000000000, -0.000000000000000 ) );
#408 = DIRECTION( '', ( 0.000000000000000, 0.000000000000000, -1.00000000000000 ) );
#409 = CARTESIAN_POINT( '', ( 30.0000000000000, 0.000000000000000, 0.000000000000000 ) );
#410 = DIRECTION( '', ( 1.00000000000000, 0.000000000000000, -0.000000000000000 ) );
#411 = DIRECTION( '', ( -0.000000000000000, 0.000000000000000, -1.00000000000000 ) );
#412 = CARTESIAN_POINT( '', ( 0.000000000000000, -1.73333333333333, 0.000000000000000 ) );
#413 = DIRECTION( '', ( 0.000000000000000, -1.00000000000000, -0.000000000000000 ) );
#414 = DIRECTION( '', ( 0.000000000000000, 0.000000000000000, -1.00000000000000 ) );
#415 = CARTESIAN_POINT( '', ( 0.000000000000000, -3.46666666666667, 0.000000000000000 ) );
#416 = DIRECTION( '', ( 0.000000000000000, -1.00000000000000, -0.000000000000000 ) );
#417 = DIRECTION( '', ( 0.000000000000000, 0.000000000000000, -1.00000000000000 ) );
#418 = CARTESIAN_POINT( '', ( 30.0000000000000, 0.000000000000000, 0.000000000000000 ) );
#419 = DIRECTION( '', ( 1.00000000000000, 0.000000000000000, -0.000000000000000 ) );
#420 = DIRECTION( '', ( -0.000000000000000, 0.000000000000000, -1.00000000000000 ) );
#421 = CARTESIAN_POINT( '', ( 0.000000000000000, -7.15681169891774, 0.000000000000000 ) );
#422 = DIRECTION( '', ( 0.0436193873653360, -0.999048221581858, 0.000000000000000 ) );
#423 = DIRECTION( '', ( -0.999048221581858, -0.0436193873653360, 0.000000000000000 ) );
ENDSEC;
END-ISO-10303-21;
