ISO-10303-21;
HEADER;
FILE_DESCRIPTION( ( 'STEP AP214' ), '1' );
FILE_NAME( '//goodhand-server/Shared Folders/GoodHand Data/Kipp CAD/K1129/K1129.201815.stp', '2020-12-10T10:17:19', ( '' ), ( '' ), ' ', 'PARTsolutions', ' ' );
FILE_SCHEMA( ( 'AUTOMOTIVE_DESIGN { 1 0 10303 214 1 1 1 1 }' ) );
ENDSEC;
DATA;
#1 = MECHANICAL_DESIGN_GEOMETRIC_PRESENTATION_REPRESENTATION( ' ', ( #10, #11, #12, #13, #14, #15, #16, #17, #18, #19, #20, #21 ), #6 );
#2 = PRODUCT_DEFINITION_CONTEXT( '', #22, 'design' );
#3 = APPLICATION_PROTOCOL_DEFINITION( 'international standard', 'automotive_design', 2001, #22 );
#4 = PRODUCT_CATEGORY_RELATIONSHIP( 'NONE', 'NONE', #23, #24 );
#5 = SHAPE_DEFINITION_REPRESENTATION( #25, #26 );
#6 =  ( GEOMETRIC_REPRESENTATION_CONTEXT( 3 )GLOBAL_UNCERTAINTY_ASSIGNED_CONTEXT( ( #29 ) )GLOBAL_UNIT_ASSIGNED_CONTEXT( ( #31, #32, #33 ) )REPRESENTATION_CONTEXT( 'NONE', 'WORKSPACE' ) );
#10 = STYLED_ITEM( '', ( #35 ), #36 );
#11 = STYLED_ITEM( '', ( #37 ), #38 );
#12 = STYLED_ITEM( '', ( #39 ), #40 );
#13 = STYLED_ITEM( '', ( #41 ), #42 );
#14 = STYLED_ITEM( '', ( #43 ), #44 );
#15 = STYLED_ITEM( '', ( #45 ), #46 );
#16 = STYLED_ITEM( '', ( #47 ), #48 );
#17 = STYLED_ITEM( '', ( #49 ), #50 );
#18 = STYLED_ITEM( '', ( #51 ), #52 );
#19 = STYLED_ITEM( '', ( #53 ), #54 );
#20 = STYLED_ITEM( '', ( #55 ), #56 );
#21 = STYLED_ITEM( '', ( #57 ), #58 );
#22 = APPLICATION_CONTEXT( 'core data for automotive mechanical design processes' );
#23 = PRODUCT_CATEGORY( 'part', 'NONE' );
#24 = PRODUCT_RELATED_PRODUCT_CATEGORY( 'detail', ' ', ( #59 ) );
#25 = PRODUCT_DEFINITION_SHAPE( 'NONE', 'NONE', #60 );
#26 = ADVANCED_BREP_SHAPE_REPRESENTATION( '_K1129.201815', ( #61, #62 ), #6 );
#29 = UNCERTAINTY_MEASURE_WITH_UNIT( LENGTH_MEASURE( 0.00100000000000000 ), #31, '', '' );
#31 =  ( CONVERSION_BASED_UNIT( 'MILLIMETRE', #65 )LENGTH_UNIT(  )NAMED_UNIT( #68 ) );
#32 =  ( NAMED_UNIT( #70 )PLANE_ANGLE_UNIT(  )SI_UNIT( $, .RADIAN. ) );
#33 =  ( NAMED_UNIT( #70 )SI_UNIT( $, .STERADIAN. )SOLID_ANGLE_UNIT(  ) );
#35 = PRESENTATION_STYLE_ASSIGNMENT( ( #76 ) );
#36 = ADVANCED_FACE( '', ( #77, #78 ), #79, .T. );
#37 = PRESENTATION_STYLE_ASSIGNMENT( ( #80 ) );
#38 = ADVANCED_FACE( '', ( #81, #82 ), #83, .T. );
#39 = PRESENTATION_STYLE_ASSIGNMENT( ( #84 ) );
#40 = ADVANCED_FACE( '', ( #85 ), #86, .F. );
#41 = PRESENTATION_STYLE_ASSIGNMENT( ( #87 ) );
#42 = ADVANCED_FACE( '', ( #88 ), #89, .T. );
#43 = PRESENTATION_STYLE_ASSIGNMENT( ( #90 ) );
#44 = ADVANCED_FACE( '', ( #91, #92 ), #93, .T. );
#45 = PRESENTATION_STYLE_ASSIGNMENT( ( #94 ) );
#46 = ADVANCED_FACE( '', ( #95, #96 ), #97, .F. );
#47 = PRESENTATION_STYLE_ASSIGNMENT( ( #98 ) );
#48 = ADVANCED_FACE( '', ( #99 ), #100, .T. );
#49 = PRESENTATION_STYLE_ASSIGNMENT( ( #101 ) );
#50 = ADVANCED_FACE( '', ( #102 ), #103, .T. );
#51 = PRESENTATION_STYLE_ASSIGNMENT( ( #104 ) );
#52 = ADVANCED_FACE( '', ( #105 ), #106, .T. );
#53 = PRESENTATION_STYLE_ASSIGNMENT( ( #107 ) );
#54 = ADVANCED_FACE( '', ( #108 ), #109, .T. );
#55 = PRESENTATION_STYLE_ASSIGNMENT( ( #110 ) );
#56 = ADVANCED_FACE( '', ( #111 ), #112, .F. );
#57 = PRESENTATION_STYLE_ASSIGNMENT( ( #113 ) );
#58 = ADVANCED_FACE( '', ( #114 ), #115, .T. );
#59 = PRODUCT( '_K1129.201815', '_K1129.201815', 'PART-_K1129.201815-DESC', ( #116 ) );
#60 = PRODUCT_DEFINITION( 'NONE', 'NONE', #117, #2 );
#61 = MANIFOLD_SOLID_BREP( '_K1129.201815', #118 );
#62 = AXIS2_PLACEMENT_3D( '', #119, #120, #121 );
#65 = LENGTH_MEASURE_WITH_UNIT( LENGTH_MEASURE( 1.00000000000000 ), #122 );
#68 = DIMENSIONAL_EXPONENTS( 1.00000000000000, 0.000000000000000, 0.000000000000000, 0.000000000000000, 0.000000000000000, 0.000000000000000, 0.000000000000000 );
#70 = DIMENSIONAL_EXPONENTS( 0.000000000000000, 0.000000000000000, 0.000000000000000, 0.000000000000000, 0.000000000000000, 0.000000000000000, 0.000000000000000 );
#76 = SURFACE_STYLE_USAGE( .BOTH., #123 );
#77 = FACE_BOUND( '', #124, .T. );
#78 = FACE_OUTER_BOUND( '', #125, .T. );
#79 = CONICAL_SURFACE( '', #126, 9.14142595070000, 0.0314159265000000 );
#80 = SURFACE_STYLE_USAGE( .BOTH., #127 );
#81 = FACE_OUTER_BOUND( '', #128, .T. );
#82 = FACE_BOUND( '', #129, .T. );
#83 = CONICAL_SURFACE( '', #130, 8.65713133020000, 0.769690200100000 );
#84 = SURFACE_STYLE_USAGE( .BOTH., #131 );
#85 = FACE_OUTER_BOUND( '', #132, .T. );
#86 = PLANE( '', #133 );
#87 = SURFACE_STYLE_USAGE( .BOTH., #134 );
#88 = FACE_OUTER_BOUND( '', #135, .T. );
#89 = PLANE( '', #136 );
#90 = SURFACE_STYLE_USAGE( .BOTH., #137 );
#91 = FACE_BOUND( '', #138, .T. );
#92 = FACE_OUTER_BOUND( '', #139, .T. );
#93 = CONICAL_SURFACE( '', #140, 8.85857404930000, 0.801106126700000 );
#94 = SURFACE_STYLE_USAGE( .BOTH., #141 );
#95 = FACE_OUTER_BOUND( '', #142, .T. );
#96 = FACE_BOUND( '', #143, .T. );
#97 = PLANE( '', #144 );
#98 = SURFACE_STYLE_USAGE( .BOTH., #145 );
#99 = FACE_OUTER_BOUND( '', #146, .T. );
#100 = PLANE( '', #147 );
#101 = SURFACE_STYLE_USAGE( .BOTH., #148 );
#102 = FACE_OUTER_BOUND( '', #149, .T. );
#103 = PLANE( '', #150 );
#104 = SURFACE_STYLE_USAGE( .BOTH., #151 );
#105 = FACE_OUTER_BOUND( '', #152, .T. );
#106 = PLANE( '', #153 );
#107 = SURFACE_STYLE_USAGE( .BOTH., #154 );
#108 = FACE_OUTER_BOUND( '', #155, .T. );
#109 = PLANE( '', #156 );
#110 = SURFACE_STYLE_USAGE( .BOTH., #157 );
#111 = FACE_OUTER_BOUND( '', #158, .T. );
#112 = PLANE( '', #159 );
#113 = SURFACE_STYLE_USAGE( .BOTH., #160 );
#114 = FACE_OUTER_BOUND( '', #161, .T. );
#115 = PLANE( '', #162 );
#116 = PRODUCT_CONTEXT( '', #22, 'mechanical' );
#117 = PRODUCT_DEFINITION_FORMATION_WITH_SPECIFIED_SOURCE( ' ', 'NONE', #59, .NOT_KNOWN. );
#118 = CLOSED_SHELL( '', ( #38, #46, #58, #42, #54, #40, #44, #36, #48, #50, #52, #56 ) );
#119 = CARTESIAN_POINT( '', ( 0.000000000000000, 0.000000000000000, 0.000000000000000 ) );
#120 = DIRECTION( '', ( 0.000000000000000, 0.000000000000000, 1.00000000000000 ) );
#121 = DIRECTION( '', ( 1.00000000000000, 0.000000000000000, 0.000000000000000 ) );
#122 =  ( LENGTH_UNIT(  )NAMED_UNIT( #68 )SI_UNIT( .MILLI., .METRE. ) );
#123 = SURFACE_SIDE_STYLE( '', ( #164 ) );
#124 = EDGE_LOOP( '', ( #165 ) );
#125 = EDGE_LOOP( '', ( #166 ) );
#126 = AXIS2_PLACEMENT_3D( '', #167, #168, #169 );
#127 = SURFACE_SIDE_STYLE( '', ( #170 ) );
#128 = EDGE_LOOP( '', ( #171 ) );
#129 = EDGE_LOOP( '', ( #172 ) );
#130 = AXIS2_PLACEMENT_3D( '', #173, #174, #175 );
#131 = SURFACE_SIDE_STYLE( '', ( #176 ) );
#132 = EDGE_LOOP( '', ( #177 ) );
#133 = AXIS2_PLACEMENT_3D( '', #178, #179, #180 );
#134 = SURFACE_SIDE_STYLE( '', ( #181 ) );
#135 = EDGE_LOOP( '', ( #182, #183, #184, #185 ) );
#136 = AXIS2_PLACEMENT_3D( '', #186, #187, #188 );
#137 = SURFACE_SIDE_STYLE( '', ( #189 ) );
#138 = EDGE_LOOP( '', ( #190 ) );
#139 = EDGE_LOOP( '', ( #191 ) );
#140 = AXIS2_PLACEMENT_3D( '', #192, #193, #194 );
#141 = SURFACE_SIDE_STYLE( '', ( #195 ) );
#142 = EDGE_LOOP( '', ( #196 ) );
#143 = EDGE_LOOP( '', ( #197, #198, #199, #200, #201, #202 ) );
#144 = AXIS2_PLACEMENT_3D( '', #203, #204, #205 );
#145 = SURFACE_SIDE_STYLE( '', ( #206 ) );
#146 = EDGE_LOOP( '', ( #207, #208, #209, #210 ) );
#147 = AXIS2_PLACEMENT_3D( '', #211, #212, #213 );
#148 = SURFACE_SIDE_STYLE( '', ( #214 ) );
#149 = EDGE_LOOP( '', ( #215, #216, #217, #218 ) );
#150 = AXIS2_PLACEMENT_3D( '', #219, #220, #221 );
#151 = SURFACE_SIDE_STYLE( '', ( #222 ) );
#152 = EDGE_LOOP( '', ( #223, #224, #225, #226 ) );
#153 = AXIS2_PLACEMENT_3D( '', #227, #228, #229 );
#154 = SURFACE_SIDE_STYLE( '', ( #230 ) );
#155 = EDGE_LOOP( '', ( #231, #232, #233, #234 ) );
#156 = AXIS2_PLACEMENT_3D( '', #235, #236, #237 );
#157 = SURFACE_SIDE_STYLE( '', ( #238 ) );
#158 = EDGE_LOOP( '', ( #239, #240, #241, #242, #243, #244 ) );
#159 = AXIS2_PLACEMENT_3D( '', #245, #246, #247 );
#160 = SURFACE_SIDE_STYLE( '', ( #248 ) );
#161 = EDGE_LOOP( '', ( #249, #250, #251, #252 ) );
#162 = AXIS2_PLACEMENT_3D( '', #253, #254, #255 );
#164 = SURFACE_STYLE_FILL_AREA( #256 );
#165 = ORIENTED_EDGE( '', *, *, #257, .F. );
#166 = ORIENTED_EDGE( '', *, *, #258, .T. );
#167 = CARTESIAN_POINT( '', ( 0.499753280182865, 0.000000000000000, 0.000000000000000 ) );
#168 = DIRECTION( '', ( -1.00000000000000, 0.000000000000000, -0.000000000000000 ) );
#169 = DIRECTION( '', ( 0.000000000000000, 0.000000000000000, 1.00000000000000 ) );
#170 = SURFACE_STYLE_FILL_AREA( #259 );
#171 = ORIENTED_EDGE( '', *, *, #258, .F. );
#172 = ORIENTED_EDGE( '', *, *, #260, .T. );
#173 = CARTESIAN_POINT( '', ( 0.000000000000000, 0.000000000000000, 0.000000000000000 ) );
#174 = DIRECTION( '', ( 1.00000000000000, -0.000000000000000, -0.000000000000000 ) );
#175 = DIRECTION( '', ( -0.000000000000000, 0.000000000000000, -1.00000000000000 ) );
#176 = SURFACE_STYLE_FILL_AREA( #261 );
#177 = ORIENTED_EDGE( '', *, *, #262, .T. );
#178 = CARTESIAN_POINT( '', ( 10.0000000000000, 8.34286866978325, 0.000000000000000 ) );
#179 = DIRECTION( '', ( -1.00000000000000, 0.000000000000000, 0.000000000000000 ) );
#180 = DIRECTION( '', ( 0.000000000000000, 0.000000000000000, 1.00000000000000 ) );
#181 = SURFACE_STYLE_FILL_AREA( #263 );
#182 = ORIENTED_EDGE( '', *, *, #264, .F. );
#183 = ORIENTED_EDGE( '', *, *, #265, .F. );
#184 = ORIENTED_EDGE( '', *, *, #266, .T. );
#185 = ORIENTED_EDGE( '', *, *, #267, .T. );
#186 = CARTESIAN_POINT( '', ( 5.00000000000000, -4.61880215351701, 0.000000000000000 ) );
#187 = DIRECTION( '', ( -0.000000000000000, 0.866025403784439, 0.500000000000000 ) );
#188 = DIRECTION( '', ( 0.000000000000000, -0.500000000000000, 0.866025403784439 ) );
#189 = SURFACE_STYLE_FILL_AREA( #268 );
#190 = ORIENTED_EDGE( '', *, *, #262, .F. );
#191 = ORIENTED_EDGE( '', *, *, #257, .T. );
#192 = CARTESIAN_POINT( '', ( 9.50024671981713, 0.000000000000000, 0.000000000000000 ) );
#193 = DIRECTION( '', ( -1.00000000000000, 0.000000000000000, -0.000000000000000 ) );
#194 = DIRECTION( '', ( 0.000000000000000, 0.000000000000000, 1.00000000000000 ) );
#195 = SURFACE_STYLE_FILL_AREA( #269 );
#196 = ORIENTED_EDGE( '', *, *, #260, .F. );
#197 = ORIENTED_EDGE( '', *, *, #270, .T. );
#198 = ORIENTED_EDGE( '', *, *, #271, .T. );
#199 = ORIENTED_EDGE( '', *, *, #264, .T. );
#200 = ORIENTED_EDGE( '', *, *, #272, .T. );
#201 = ORIENTED_EDGE( '', *, *, #273, .T. );
#202 = ORIENTED_EDGE( '', *, *, #274, .T. );
#203 = CARTESIAN_POINT( '', ( 0.000000000000000, 0.000000000000000, 0.000000000000000 ) );
#204 = DIRECTION( '', ( 1.00000000000000, 0.000000000000000, -0.000000000000000 ) );
#205 = DIRECTION( '', ( -0.000000000000000, 0.000000000000000, -1.00000000000000 ) );
#206 = SURFACE_STYLE_FILL_AREA( #275 );
#207 = ORIENTED_EDGE( '', *, *, #272, .F. );
#208 = ORIENTED_EDGE( '', *, *, #267, .F. );
#209 = ORIENTED_EDGE( '', *, *, #276, .T. );
#210 = ORIENTED_EDGE( '', *, *, #277, .T. );
#211 = CARTESIAN_POINT( '', ( 5.00000000000000, -2.30940107675850, -4.00000000000000 ) );
#212 = DIRECTION( '', ( 0.000000000000000, 0.000000000000000, 1.00000000000000 ) );
#213 = DIRECTION( '', ( 1.00000000000000, 0.000000000000000, -0.000000000000000 ) );
#214 = SURFACE_STYLE_FILL_AREA( #278 );
#215 = ORIENTED_EDGE( '', *, *, #273, .F. );
#216 = ORIENTED_EDGE( '', *, *, #277, .F. );
#217 = ORIENTED_EDGE( '', *, *, #279, .T. );
#218 = ORIENTED_EDGE( '', *, *, #280, .T. );
#219 = CARTESIAN_POINT( '', ( 5.00000000000000, 2.30940107675850, -4.00000000000000 ) );
#220 = DIRECTION( '', ( 0.000000000000000, -0.866025403784439, 0.500000000000000 ) );
#221 = DIRECTION( '', ( 0.000000000000000, -0.500000000000000, -0.866025403784439 ) );
#222 = SURFACE_STYLE_FILL_AREA( #281 );
#223 = ORIENTED_EDGE( '', *, *, #274, .F. );
#224 = ORIENTED_EDGE( '', *, *, #280, .F. );
#225 = ORIENTED_EDGE( '', *, *, #282, .T. );
#226 = ORIENTED_EDGE( '', *, *, #283, .T. );
#227 = CARTESIAN_POINT( '', ( 5.00000000000000, 4.61880215351701, 0.000000000000000 ) );
#228 = DIRECTION( '', ( 0.000000000000000, -0.866025403784439, -0.500000000000000 ) );
#229 = DIRECTION( '', ( 0.000000000000000, 0.500000000000000, -0.866025403784439 ) );
#230 = SURFACE_STYLE_FILL_AREA( #284 );
#231 = ORIENTED_EDGE( '', *, *, #270, .F. );
#232 = ORIENTED_EDGE( '', *, *, #283, .F. );
#233 = ORIENTED_EDGE( '', *, *, #285, .T. );
#234 = ORIENTED_EDGE( '', *, *, #286, .T. );
#235 = CARTESIAN_POINT( '', ( 5.00000000000000, 2.30940107675850, 4.00000000000000 ) );
#236 = DIRECTION( '', ( 0.000000000000000, 0.000000000000000, -1.00000000000000 ) );
#237 = DIRECTION( '', ( -1.00000000000000, 0.000000000000000, 0.000000000000000 ) );
#238 = SURFACE_STYLE_FILL_AREA( #287 );
#239 = ORIENTED_EDGE( '', *, *, #285, .F. );
#240 = ORIENTED_EDGE( '', *, *, #282, .F. );
#241 = ORIENTED_EDGE( '', *, *, #279, .F. );
#242 = ORIENTED_EDGE( '', *, *, #276, .F. );
#243 = ORIENTED_EDGE( '', *, *, #266, .F. );
#244 = ORIENTED_EDGE( '', *, *, #288, .F. );
#245 = CARTESIAN_POINT( '', ( 5.00000000000000, 0.000000000000000, 0.000000000000000 ) );
#246 = DIRECTION( '', ( 1.00000000000000, 0.000000000000000, 0.000000000000000 ) );
#247 = DIRECTION( '', ( 0.000000000000000, 0.000000000000000, -1.00000000000000 ) );
#248 = SURFACE_STYLE_FILL_AREA( #289 );
#249 = ORIENTED_EDGE( '', *, *, #271, .F. );
#250 = ORIENTED_EDGE( '', *, *, #286, .F. );
#251 = ORIENTED_EDGE( '', *, *, #288, .T. );
#252 = ORIENTED_EDGE( '', *, *, #265, .T. );
#253 = CARTESIAN_POINT( '', ( 5.00000000000000, -2.30940107675850, 4.00000000000000 ) );
#254 = DIRECTION( '', ( 0.000000000000000, 0.866025403784439, -0.500000000000000 ) );
#255 = DIRECTION( '', ( 0.000000000000000, 0.500000000000000, 0.866025403784439 ) );
#256 = FILL_AREA_STYLE( '', ( #290 ) );
#257 = EDGE_CURVE( '', #291, #291, #292, .T. );
#258 = EDGE_CURVE( '', #293, #293, #294, .T. );
#259 = FILL_AREA_STYLE( '', ( #295 ) );
#260 = EDGE_CURVE( '', #296, #296, #297, .T. );
#261 = FILL_AREA_STYLE( '', ( #298 ) );
#262 = EDGE_CURVE( '', #299, #299, #300, .T. );
#263 = FILL_AREA_STYLE( '', ( #301 ) );
#264 = EDGE_CURVE( '', #302, #303, #304, .T. );
#265 = EDGE_CURVE( '', #305, #302, #306, .T. );
#266 = EDGE_CURVE( '', #305, #307, #308, .T. );
#267 = EDGE_CURVE( '', #307, #303, #309, .T. );
#268 = FILL_AREA_STYLE( '', ( #310 ) );
#269 = FILL_AREA_STYLE( '', ( #311 ) );
#270 = EDGE_CURVE( '', #312, #313, #314, .T. );
#271 = EDGE_CURVE( '', #313, #302, #315, .T. );
#272 = EDGE_CURVE( '', #303, #316, #317, .T. );
#273 = EDGE_CURVE( '', #316, #318, #319, .T. );
#274 = EDGE_CURVE( '', #318, #312, #320, .T. );
#275 = FILL_AREA_STYLE( '', ( #321 ) );
#276 = EDGE_CURVE( '', #307, #322, #323, .T. );
#277 = EDGE_CURVE( '', #322, #316, #324, .T. );
#278 = FILL_AREA_STYLE( '', ( #325 ) );
#279 = EDGE_CURVE( '', #322, #326, #327, .T. );
#280 = EDGE_CURVE( '', #326, #318, #328, .T. );
#281 = FILL_AREA_STYLE( '', ( #329 ) );
#282 = EDGE_CURVE( '', #326, #330, #331, .T. );
#283 = EDGE_CURVE( '', #330, #312, #332, .T. );
#284 = FILL_AREA_STYLE( '', ( #333 ) );
#285 = EDGE_CURVE( '', #330, #334, #335, .T. );
#286 = EDGE_CURVE( '', #334, #313, #336, .T. );
#287 = FILL_AREA_STYLE( '', ( #337 ) );
#288 = EDGE_CURVE( '', #334, #305, #338, .T. );
#289 = FILL_AREA_STYLE( '', ( #339 ) );
#290 = FILL_AREA_STYLE_COLOUR( '', #340 );
#291 = VERTEX_POINT( '', #341 );
#292 = CIRCLE( '', #342, 8.85857404930000 );
#293 = VERTEX_POINT( '', #343 );
#294 = CIRCLE( '', #344, 9.14142595070000 );
#295 = FILL_AREA_STYLE_COLOUR( '', #345 );
#296 = VERTEX_POINT( '', #346 );
#297 = CIRCLE( '', #347, 8.65713133020000 );
#298 = FILL_AREA_STYLE_COLOUR( '', #348 );
#299 = VERTEX_POINT( '', #349 );
#300 = CIRCLE( '', #350, 8.34286866980000 );
#301 = FILL_AREA_STYLE_COLOUR( '', #351 );
#302 = VERTEX_POINT( '', #352 );
#303 = VERTEX_POINT( '', #353 );
#304 = LINE( '', #354, #355 );
#305 = VERTEX_POINT( '', #356 );
#306 = LINE( '', #357, #358 );
#307 = VERTEX_POINT( '', #359 );
#308 = LINE( '', #360, #361 );
#309 = LINE( '', #362, #363 );
#310 = FILL_AREA_STYLE_COLOUR( '', #364 );
#311 = FILL_AREA_STYLE_COLOUR( '', #365 );
#312 = VERTEX_POINT( '', #366 );
#313 = VERTEX_POINT( '', #367 );
#314 = LINE( '', #368, #369 );
#315 = LINE( '', #370, #371 );
#316 = VERTEX_POINT( '', #372 );
#317 = LINE( '', #373, #374 );
#318 = VERTEX_POINT( '', #375 );
#319 = LINE( '', #376, #377 );
#320 = LINE( '', #378, #379 );
#321 = FILL_AREA_STYLE_COLOUR( '', #380 );
#322 = VERTEX_POINT( '', #381 );
#323 = LINE( '', #382, #383 );
#324 = LINE( '', #384, #385 );
#325 = FILL_AREA_STYLE_COLOUR( '', #386 );
#326 = VERTEX_POINT( '', #387 );
#327 = LINE( '', #388, #389 );
#328 = LINE( '', #390, #391 );
#329 = FILL_AREA_STYLE_COLOUR( '', #392 );
#330 = VERTEX_POINT( '', #393 );
#331 = LINE( '', #394, #395 );
#332 = LINE( '', #396, #397 );
#333 = FILL_AREA_STYLE_COLOUR( '', #398 );
#334 = VERTEX_POINT( '', #399 );
#335 = LINE( '', #400, #401 );
#336 = LINE( '', #402, #403 );
#337 = FILL_AREA_STYLE_COLOUR( '', #404 );
#338 = LINE( '', #405, #406 );
#339 = FILL_AREA_STYLE_COLOUR( '', #407 );
#340 = COLOUR_RGB( '', 0.689999997600000, 0.689999997600000, 0.689999997600000 );
#341 = CARTESIAN_POINT( '', ( 9.50024671981713, 0.000000000000000, -8.85857404932231 ) );
#342 = AXIS2_PLACEMENT_3D( '', #408, #409, #410 );
#343 = CARTESIAN_POINT( '', ( 0.499753280182865, 0.000000000000000, -9.14142595067769 ) );
#344 = AXIS2_PLACEMENT_3D( '', #411, #412, #413 );
#345 = COLOUR_RGB( '', 0.689999997600000, 0.689999997600000, 0.689999997600000 );
#346 = CARTESIAN_POINT( '', ( 0.000000000000000, 0.000000000000000, -8.65713133021676 ) );
#347 = AXIS2_PLACEMENT_3D( '', #414, #415, #416 );
#348 = COLOUR_RGB( '', 0.689999997600000, 0.689999997600000, 0.689999997600000 );
#349 = CARTESIAN_POINT( '', ( 10.0000000000000, 0.000000000000000, -8.34286866978325 ) );
#350 = AXIS2_PLACEMENT_3D( '', #417, #418, #419 );
#351 = COLOUR_RGB( '', 0.689999997600000, 0.689999997600000, 0.689999997600000 );
#352 = CARTESIAN_POINT( '', ( 0.000000000000000, -4.61880215351701, 0.000000000000000 ) );
#353 = CARTESIAN_POINT( '', ( 0.000000000000000, -2.30940107675850, -4.00000000000000 ) );
#354 = CARTESIAN_POINT( '', ( 0.000000000000000, -4.61880215351701, 0.000000000000000 ) );
#355 = VECTOR( '', #420, 1000.00000000000 );
#356 = CARTESIAN_POINT( '', ( 5.00000000000000, -4.61880215351701, 0.000000000000000 ) );
#357 = CARTESIAN_POINT( '', ( 5.00000000000000, -4.61880215351701, 0.000000000000000 ) );
#358 = VECTOR( '', #421, 1000.00000000000 );
#359 = CARTESIAN_POINT( '', ( 5.00000000000000, -2.30940107675850, -4.00000000000000 ) );
#360 = CARTESIAN_POINT( '', ( 5.00000000000000, -4.61880215351701, 0.000000000000000 ) );
#361 = VECTOR( '', #422, 1000.00000000000 );
#362 = CARTESIAN_POINT( '', ( 5.00000000000000, -2.30940107675850, -4.00000000000000 ) );
#363 = VECTOR( '', #423, 1000.00000000000 );
#364 = COLOUR_RGB( '', 0.689999997600000, 0.689999997600000, 0.689999997600000 );
#365 = COLOUR_RGB( '', 0.689999997600000, 0.689999997600000, 0.689999997600000 );
#366 = CARTESIAN_POINT( '', ( 0.000000000000000, 2.30940107675850, 4.00000000000000 ) );
#367 = CARTESIAN_POINT( '', ( 0.000000000000000, -2.30940107675850, 4.00000000000000 ) );
#368 = CARTESIAN_POINT( '', ( 0.000000000000000, 2.30940107675850, 4.00000000000000 ) );
#369 = VECTOR( '', #424, 1000.00000000000 );
#370 = CARTESIAN_POINT( '', ( 0.000000000000000, -2.30940107675850, 4.00000000000000 ) );
#371 = VECTOR( '', #425, 1000.00000000000 );
#372 = CARTESIAN_POINT( '', ( 0.000000000000000, 2.30940107675850, -4.00000000000000 ) );
#373 = CARTESIAN_POINT( '', ( 0.000000000000000, -2.30940107675850, -4.00000000000000 ) );
#374 = VECTOR( '', #426, 1000.00000000000 );
#375 = CARTESIAN_POINT( '', ( 0.000000000000000, 4.61880215351701, 0.000000000000000 ) );
#376 = CARTESIAN_POINT( '', ( 0.000000000000000, 2.30940107675850, -4.00000000000000 ) );
#377 = VECTOR( '', #427, 1000.00000000000 );
#378 = CARTESIAN_POINT( '', ( 0.000000000000000, 4.61880215351701, 0.000000000000000 ) );
#379 = VECTOR( '', #428, 1000.00000000000 );
#380 = COLOUR_RGB( '', 0.689999997600000, 0.689999997600000, 0.689999997600000 );
#381 = CARTESIAN_POINT( '', ( 5.00000000000000, 2.30940107675850, -4.00000000000000 ) );
#382 = CARTESIAN_POINT( '', ( 5.00000000000000, -2.30940107675850, -4.00000000000000 ) );
#383 = VECTOR( '', #429, 1000.00000000000 );
#384 = CARTESIAN_POINT( '', ( 5.00000000000000, 2.30940107675850, -4.00000000000000 ) );
#385 = VECTOR( '', #430, 1000.00000000000 );
#386 = COLOUR_RGB( '', 0.689999997600000, 0.689999997600000, 0.689999997600000 );
#387 = CARTESIAN_POINT( '', ( 5.00000000000000, 4.61880215351701, 0.000000000000000 ) );
#388 = CARTESIAN_POINT( '', ( 5.00000000000000, 2.30940107675850, -4.00000000000000 ) );
#389 = VECTOR( '', #431, 1000.00000000000 );
#390 = CARTESIAN_POINT( '', ( 5.00000000000000, 4.61880215351701, 0.000000000000000 ) );
#391 = VECTOR( '', #432, 1000.00000000000 );
#392 = COLOUR_RGB( '', 0.689999997600000, 0.689999997600000, 0.689999997600000 );
#393 = CARTESIAN_POINT( '', ( 5.00000000000000, 2.30940107675850, 4.00000000000000 ) );
#394 = CARTESIAN_POINT( '', ( 5.00000000000000, 4.61880215351701, 0.000000000000000 ) );
#395 = VECTOR( '', #433, 1000.00000000000 );
#396 = CARTESIAN_POINT( '', ( 5.00000000000000, 2.30940107675850, 4.00000000000000 ) );
#397 = VECTOR( '', #434, 1000.00000000000 );
#398 = COLOUR_RGB( '', 0.689999997600000, 0.689999997600000, 0.689999997600000 );
#399 = CARTESIAN_POINT( '', ( 5.00000000000000, -2.30940107675850, 4.00000000000000 ) );
#400 = CARTESIAN_POINT( '', ( 5.00000000000000, 2.30940107675850, 4.00000000000000 ) );
#401 = VECTOR( '', #435, 1000.00000000000 );
#402 = CARTESIAN_POINT( '', ( 5.00000000000000, -2.30940107675850, 4.00000000000000 ) );
#403 = VECTOR( '', #436, 1000.00000000000 );
#404 = COLOUR_RGB( '', 0.689999997600000, 0.689999997600000, 0.689999997600000 );
#405 = CARTESIAN_POINT( '', ( 5.00000000000000, -2.30940107675850, 4.00000000000000 ) );
#406 = VECTOR( '', #437, 1000.00000000000 );
#407 = COLOUR_RGB( '', 0.689999997600000, 0.689999997600000, 0.689999997600000 );
#408 = CARTESIAN_POINT( '', ( 9.50024671981713, 0.000000000000000, 0.000000000000000 ) );
#409 = DIRECTION( '', ( 1.00000000000000, 0.000000000000000, -0.000000000000000 ) );
#410 = DIRECTION( '', ( -0.000000000000000, 0.000000000000000, -1.00000000000000 ) );
#411 = CARTESIAN_POINT( '', ( 0.499753280182865, 0.000000000000000, 0.000000000000000 ) );
#412 = DIRECTION( '', ( 1.00000000000000, 0.000000000000000, -0.000000000000000 ) );
#413 = DIRECTION( '', ( -0.000000000000000, 0.000000000000000, -1.00000000000000 ) );
#414 = CARTESIAN_POINT( '', ( 0.000000000000000, 0.000000000000000, 0.000000000000000 ) );
#415 = DIRECTION( '', ( 1.00000000000000, 0.000000000000000, -0.000000000000000 ) );
#416 = DIRECTION( '', ( -0.000000000000000, 0.000000000000000, -1.00000000000000 ) );
#417 = CARTESIAN_POINT( '', ( 10.0000000000000, 0.000000000000000, 0.000000000000000 ) );
#418 = DIRECTION( '', ( 1.00000000000000, 0.000000000000000, -0.000000000000000 ) );
#419 = DIRECTION( '', ( -0.000000000000000, 0.000000000000000, -1.00000000000000 ) );
#420 = DIRECTION( '', ( 0.000000000000000, 0.500000000000000, -0.866025403784439 ) );
#421 = DIRECTION( '', ( -1.00000000000000, -0.000000000000000, -0.000000000000000 ) );
#422 = DIRECTION( '', ( 0.000000000000000, 0.500000000000000, -0.866025403784439 ) );
#423 = DIRECTION( '', ( -1.00000000000000, -0.000000000000000, -0.000000000000000 ) );
#424 = DIRECTION( '', ( 0.000000000000000, -1.00000000000000, 0.000000000000000 ) );
#425 = DIRECTION( '', ( 0.000000000000000, -0.500000000000000, -0.866025403784439 ) );
#426 = DIRECTION( '', ( 0.000000000000000, 1.00000000000000, 0.000000000000000 ) );
#427 = DIRECTION( '', ( 0.000000000000000, 0.500000000000000, 0.866025403784439 ) );
#428 = DIRECTION( '', ( 0.000000000000000, -0.500000000000000, 0.866025403784439 ) );
#429 = DIRECTION( '', ( 0.000000000000000, 1.00000000000000, 0.000000000000000 ) );
#430 = DIRECTION( '', ( -1.00000000000000, -0.000000000000000, -0.000000000000000 ) );
#431 = DIRECTION( '', ( 0.000000000000000, 0.500000000000000, 0.866025403784439 ) );
#432 = DIRECTION( '', ( -1.00000000000000, -0.000000000000000, -0.000000000000000 ) );
#433 = DIRECTION( '', ( 0.000000000000000, -0.500000000000000, 0.866025403784439 ) );
#434 = DIRECTION( '', ( -1.00000000000000, -0.000000000000000, -0.000000000000000 ) );
#435 = DIRECTION( '', ( 0.000000000000000, -1.00000000000000, 0.000000000000000 ) );
#436 = DIRECTION( '', ( -1.00000000000000, -0.000000000000000, -0.000000000000000 ) );
#437 = DIRECTION( '', ( 0.000000000000000, -0.500000000000000, -0.866025403784439 ) );
ENDSEC;
END-ISO-10303-21;
