ISO-10303-21;
HEADER;
FILE_DESCRIPTION( ( 'STEP AP214' ), '1' );
FILE_NAME( '//goodhand-server/Shared Folders/GoodHand Data/Kipp CAD/K0676/K0676.2510X020.stp', '2020-12-09T11:09:58', ( '' ), ( '' ), ' ', 'PARTsolutions', ' ' );
FILE_SCHEMA( ( 'AUTOMOTIVE_DESIGN { 1 0 10303 214 1 1 1 1 }' ) );
ENDSEC;
DATA;
#1 = MECHANICAL_DESIGN_GEOMETRIC_PRESENTATION_REPRESENTATION( ' ', ( #10, #11, #12, #13, #14, #15, #16, #17, #18, #19, #20 ), #6 );
#2 = PRODUCT_DEFINITION_CONTEXT( '', #21, 'design' );
#3 = APPLICATION_PROTOCOL_DEFINITION( 'international standard', 'automotive_design', 2001, #21 );
#4 = PRODUCT_CATEGORY_RELATIONSHIP( 'NONE', 'NONE', #22, #23 );
#5 = SHAPE_DEFINITION_REPRESENTATION( #24, #25 );
#6 =  ( GEOMETRIC_REPRESENTATION_CONTEXT( 3 )GLOBAL_UNCERTAINTY_ASSIGNED_CONTEXT( ( #28 ) )GLOBAL_UNIT_ASSIGNED_CONTEXT( ( #30, #31, #32 ) )REPRESENTATION_CONTEXT( 'NONE', 'WORKSPACE' ) );
#10 = STYLED_ITEM( '', ( #34 ), #35 );
#11 = STYLED_ITEM( '', ( #36 ), #37 );
#12 = STYLED_ITEM( '', ( #38 ), #39 );
#13 = STYLED_ITEM( '', ( #40 ), #41 );
#14 = STYLED_ITEM( '', ( #42 ), #43 );
#15 = STYLED_ITEM( '', ( #44 ), #45 );
#16 = STYLED_ITEM( '', ( #46 ), #47 );
#17 = STYLED_ITEM( '', ( #48 ), #49 );
#18 = STYLED_ITEM( '', ( #50 ), #51 );
#19 = STYLED_ITEM( '', ( #52 ), #53 );
#20 = STYLED_ITEM( '', ( #54 ), #55 );
#21 = APPLICATION_CONTEXT( 'core data for automotive mechanical design processes' );
#22 = PRODUCT_CATEGORY( 'part', 'NONE' );
#23 = PRODUCT_RELATED_PRODUCT_CATEGORY( 'detail', ' ', ( #56 ) );
#24 = PRODUCT_DEFINITION_SHAPE( 'NONE', 'NONE', #57 );
#25 = ADVANCED_BREP_SHAPE_REPRESENTATION( '_K0676.2510X020', ( #58, #59 ), #6 );
#28 = UNCERTAINTY_MEASURE_WITH_UNIT( LENGTH_MEASURE( 0.00100000000000000 ), #30, '', '' );
#30 =  ( CONVERSION_BASED_UNIT( 'MILLIMETRE', #62 )LENGTH_UNIT(  )NAMED_UNIT( #65 ) );
#31 =  ( NAMED_UNIT( #67 )PLANE_ANGLE_UNIT(  )SI_UNIT( $, .RADIAN. ) );
#32 =  ( NAMED_UNIT( #67 )SI_UNIT( $, .STERADIAN. )SOLID_ANGLE_UNIT(  ) );
#34 = PRESENTATION_STYLE_ASSIGNMENT( ( #73 ) );
#35 = ADVANCED_FACE( '', ( #74 ), #75, .T. );
#36 = PRESENTATION_STYLE_ASSIGNMENT( ( #76 ) );
#37 = ADVANCED_FACE( '', ( #77 ), #78, .T. );
#38 = PRESENTATION_STYLE_ASSIGNMENT( ( #79 ) );
#39 = ADVANCED_FACE( '', ( #80 ), #81, .F. );
#40 = PRESENTATION_STYLE_ASSIGNMENT( ( #82 ) );
#41 = ADVANCED_FACE( '', ( #83, #84 ), #85, .T. );
#42 = PRESENTATION_STYLE_ASSIGNMENT( ( #86 ) );
#43 = ADVANCED_FACE( '', ( #87 ), #88, .T. );
#44 = PRESENTATION_STYLE_ASSIGNMENT( ( #89 ) );
#45 = ADVANCED_FACE( '', ( #90 ), #91, .T. );
#46 = PRESENTATION_STYLE_ASSIGNMENT( ( #92 ) );
#47 = ADVANCED_FACE( '', ( #93 ), #94, .T. );
#48 = PRESENTATION_STYLE_ASSIGNMENT( ( #95 ) );
#49 = ADVANCED_FACE( '', ( #96, #97 ), #98, .T. );
#50 = PRESENTATION_STYLE_ASSIGNMENT( ( #99 ) );
#51 = ADVANCED_FACE( '', ( #100 ), #101, .T. );
#52 = PRESENTATION_STYLE_ASSIGNMENT( ( #102 ) );
#53 = ADVANCED_FACE( '', ( #103, #104 ), #105, .T. );
#54 = PRESENTATION_STYLE_ASSIGNMENT( ( #106 ) );
#55 = ADVANCED_FACE( '', ( #107 ), #108, .F. );
#56 = PRODUCT( '_K0676.2510X020', '_K0676.2510X020', 'PART-_K0676.2510X020-DESC', ( #109 ) );
#57 = PRODUCT_DEFINITION( 'NONE', 'NONE', #110, #2 );
#58 = MANIFOLD_SOLID_BREP( '_K0676.2510X020', #111 );
#59 = AXIS2_PLACEMENT_3D( '', #112, #113, #114 );
#62 = LENGTH_MEASURE_WITH_UNIT( LENGTH_MEASURE( 1.00000000000000 ), #115 );
#65 = DIMENSIONAL_EXPONENTS( 1.00000000000000, 0.000000000000000, 0.000000000000000, 0.000000000000000, 0.000000000000000, 0.000000000000000, 0.000000000000000 );
#67 = DIMENSIONAL_EXPONENTS( 0.000000000000000, 0.000000000000000, 0.000000000000000, 0.000000000000000, 0.000000000000000, 0.000000000000000, 0.000000000000000 );
#73 = SURFACE_STYLE_USAGE( .BOTH., #116 );
#74 = FACE_OUTER_BOUND( '', #117, .T. );
#75 = PLANE( '', #118 );
#76 = SURFACE_STYLE_USAGE( .BOTH., #119 );
#77 = FACE_OUTER_BOUND( '', #120, .T. );
#78 = PLANE( '', #121 );
#79 = SURFACE_STYLE_USAGE( .BOTH., #122 );
#80 = FACE_OUTER_BOUND( '', #123, .T. );
#81 = PLANE( '', #124 );
#82 = SURFACE_STYLE_USAGE( .BOTH., #125 );
#83 = FACE_OUTER_BOUND( '', #126, .T. );
#84 = FACE_BOUND( '', #127, .T. );
#85 = CONICAL_SURFACE( '', #128, 4.08000000000000, 0.785398163400000 );
#86 = SURFACE_STYLE_USAGE( .BOTH., #129 );
#87 = FACE_OUTER_BOUND( '', #130, .T. );
#88 = PLANE( '', #131 );
#89 = SURFACE_STYLE_USAGE( .BOTH., #132 );
#90 = FACE_OUTER_BOUND( '', #133, .T. );
#91 = PLANE( '', #134 );
#92 = SURFACE_STYLE_USAGE( .BOTH., #135 );
#93 = FACE_OUTER_BOUND( '', #136, .T. );
#94 = PLANE( '', #137 );
#95 = SURFACE_STYLE_USAGE( .BOTH., #138 );
#96 = FACE_OUTER_BOUND( '', #139, .T. );
#97 = FACE_OUTER_BOUND( '', #140, .T. );
#98 = CYLINDRICAL_SURFACE( '', #141, 5.00000000000000 );
#99 = SURFACE_STYLE_USAGE( .BOTH., #142 );
#100 = FACE_OUTER_BOUND( '', #143, .T. );
#101 = PLANE( '', #144 );
#102 = SURFACE_STYLE_USAGE( .BOTH., #145 );
#103 = FACE_BOUND( '', #146, .T. );
#104 = FACE_OUTER_BOUND( '', #147, .T. );
#105 = PLANE( '', #148 );
#106 = SURFACE_STYLE_USAGE( .BOTH., #149 );
#107 = FACE_OUTER_BOUND( '', #150, .T. );
#108 = PLANE( '', #151 );
#109 = PRODUCT_CONTEXT( '', #21, 'mechanical' );
#110 = PRODUCT_DEFINITION_FORMATION_WITH_SPECIFIED_SOURCE( ' ', 'NONE', #56, .NOT_KNOWN. );
#111 = CLOSED_SHELL( '', ( #43, #55, #37, #47, #45, #35, #51, #53, #39, #41, #49 ) );
#112 = CARTESIAN_POINT( '', ( 0.000000000000000, 0.000000000000000, 0.000000000000000 ) );
#113 = DIRECTION( '', ( 0.000000000000000, 0.000000000000000, 1.00000000000000 ) );
#114 = DIRECTION( '', ( 1.00000000000000, 0.000000000000000, 0.000000000000000 ) );
#115 =  ( LENGTH_UNIT(  )NAMED_UNIT( #65 )SI_UNIT( .MILLI., .METRE. ) );
#116 = SURFACE_SIDE_STYLE( '', ( #153 ) );
#117 = EDGE_LOOP( '', ( #154, #155, #156, #157 ) );
#118 = AXIS2_PLACEMENT_3D( '', #158, #159, #160 );
#119 = SURFACE_SIDE_STYLE( '', ( #161 ) );
#120 = EDGE_LOOP( '', ( #162, #163, #164, #165 ) );
#121 = AXIS2_PLACEMENT_3D( '', #166, #167, #168 );
#122 = SURFACE_SIDE_STYLE( '', ( #169 ) );
#123 = EDGE_LOOP( '', ( #170 ) );
#124 = AXIS2_PLACEMENT_3D( '', #171, #172, #173 );
#125 = SURFACE_SIDE_STYLE( '', ( #174 ) );
#126 = EDGE_LOOP( '', ( #175 ) );
#127 = EDGE_LOOP( '', ( #176 ) );
#128 = AXIS2_PLACEMENT_3D( '', #177, #178, #179 );
#129 = SURFACE_SIDE_STYLE( '', ( #180 ) );
#130 = EDGE_LOOP( '', ( #181, #182, #183, #184 ) );
#131 = AXIS2_PLACEMENT_3D( '', #185, #186, #187 );
#132 = SURFACE_SIDE_STYLE( '', ( #188 ) );
#133 = EDGE_LOOP( '', ( #189, #190, #191, #192 ) );
#134 = AXIS2_PLACEMENT_3D( '', #193, #194, #195 );
#135 = SURFACE_SIDE_STYLE( '', ( #196 ) );
#136 = EDGE_LOOP( '', ( #197, #198, #199, #200 ) );
#137 = AXIS2_PLACEMENT_3D( '', #201, #202, #203 );
#138 = SURFACE_SIDE_STYLE( '', ( #204 ) );
#139 = EDGE_LOOP( '', ( #205 ) );
#140 = EDGE_LOOP( '', ( #206 ) );
#141 = AXIS2_PLACEMENT_3D( '', #207, #208, #209 );
#142 = SURFACE_SIDE_STYLE( '', ( #210 ) );
#143 = EDGE_LOOP( '', ( #211, #212, #213, #214 ) );
#144 = AXIS2_PLACEMENT_3D( '', #215, #216, #217 );
#145 = SURFACE_SIDE_STYLE( '', ( #218 ) );
#146 = EDGE_LOOP( '', ( #219 ) );
#147 = EDGE_LOOP( '', ( #220, #221, #222, #223, #224, #225 ) );
#148 = AXIS2_PLACEMENT_3D( '', #226, #227, #228 );
#149 = SURFACE_SIDE_STYLE( '', ( #229 ) );
#150 = EDGE_LOOP( '', ( #230, #231, #232, #233, #234, #235 ) );
#151 = AXIS2_PLACEMENT_3D( '', #236, #237, #238 );
#153 = SURFACE_STYLE_FILL_AREA( #239 );
#154 = ORIENTED_EDGE( '', *, *, #240, .F. );
#155 = ORIENTED_EDGE( '', *, *, #241, .F. );
#156 = ORIENTED_EDGE( '', *, *, #242, .T. );
#157 = ORIENTED_EDGE( '', *, *, #243, .T. );
#158 = CARTESIAN_POINT( '', ( 0.000000000000000, 7.50000000000000, 14.4337567297406 ) );
#159 = DIRECTION( '', ( 0.499524110790929, -0.0436193873653360, 0.865201139495554 ) );
#160 = DIRECTION( '', ( 0.866025403784439, -2.42136240865198E-18, -0.500000000000000 ) );
#161 = SURFACE_STYLE_FILL_AREA( #244 );
#162 = ORIENTED_EDGE( '', *, *, #245, .F. );
#163 = ORIENTED_EDGE( '', *, *, #246, .F. );
#164 = ORIENTED_EDGE( '', *, *, #247, .T. );
#165 = ORIENTED_EDGE( '', *, *, #248, .T. );
#166 = CARTESIAN_POINT( '', ( 12.5000000000000, 7.50000000000000, -7.21687836487032 ) );
#167 = DIRECTION( '', ( 0.499524110790929, -0.0436193873653360, -0.865201139495554 ) );
#168 = DIRECTION( '', ( -0.866025403784439, 2.42136240865198E-18, -0.500000000000000 ) );
#169 = SURFACE_STYLE_FILL_AREA( #249 );
#170 = ORIENTED_EDGE( '', *, *, #250, .F. );
#171 = CARTESIAN_POINT( '', ( 0.000000000000000, 27.5000000000000, 0.000000000000000 ) );
#172 = DIRECTION( '', ( 0.000000000000000, -1.00000000000000, -0.000000000000000 ) );
#173 = DIRECTION( '', ( 0.000000000000000, 0.000000000000000, -1.00000000000000 ) );
#174 = SURFACE_STYLE_FILL_AREA( #251 );
#175 = ORIENTED_EDGE( '', *, *, #252, .F. );
#176 = ORIENTED_EDGE( '', *, *, #250, .T. );
#177 = CARTESIAN_POINT( '', ( 0.000000000000000, 27.5000000000000, 0.000000000000000 ) );
#178 = DIRECTION( '', ( -0.000000000000000, -1.00000000000000, -0.000000000000000 ) );
#179 = DIRECTION( '', ( 0.000000000000000, 0.000000000000000, -1.00000000000000 ) );
#180 = SURFACE_STYLE_FILL_AREA( #253 );
#181 = ORIENTED_EDGE( '', *, *, #254, .F. );
#182 = ORIENTED_EDGE( '', *, *, #248, .F. );
#183 = ORIENTED_EDGE( '', *, *, #255, .T. );
#184 = ORIENTED_EDGE( '', *, *, #256, .T. );
#185 = CARTESIAN_POINT( '', ( 0.000000000000000, 7.50000000000000, -14.4337567297406 ) );
#186 = DIRECTION( '', ( -0.499524110790929, -0.0436193873653360, -0.865201139495554 ) );
#187 = DIRECTION( '', ( -0.866025403784439, -2.42136240865198E-18, 0.500000000000000 ) );
#188 = SURFACE_STYLE_FILL_AREA( #257 );
#189 = ORIENTED_EDGE( '', *, *, #258, .F. );
#190 = ORIENTED_EDGE( '', *, *, #259, .F. );
#191 = ORIENTED_EDGE( '', *, *, #260, .T. );
#192 = ORIENTED_EDGE( '', *, *, #241, .T. );
#193 = CARTESIAN_POINT( '', ( -12.5000000000000, 7.50000000000000, 7.21687836487032 ) );
#194 = DIRECTION( '', ( -0.499524110790929, -0.0436193873653360, 0.865201139495554 ) );
#195 = DIRECTION( '', ( 0.866025403784439, 2.42136240865198E-18, 0.500000000000000 ) );
#196 = SURFACE_STYLE_FILL_AREA( #261 );
#197 = ORIENTED_EDGE( '', *, *, #262, .F. );
#198 = ORIENTED_EDGE( '', *, *, #256, .F. );
#199 = ORIENTED_EDGE( '', *, *, #263, .T. );
#200 = ORIENTED_EDGE( '', *, *, #259, .T. );
#201 = CARTESIAN_POINT( '', ( -12.5000000000000, 7.50000000000000, -7.21687836487032 ) );
#202 = DIRECTION( '', ( -0.999048221581858, -0.0436193873653360, 0.000000000000000 ) );
#203 = DIRECTION( '', ( 0.0436193873653360, -0.999048221581858, 0.000000000000000 ) );
#204 = SURFACE_STYLE_FILL_AREA( #264 );
#205 = ORIENTED_EDGE( '', *, *, #265, .F. );
#206 = ORIENTED_EDGE( '', *, *, #252, .T. );
#207 = CARTESIAN_POINT( '', ( 0.000000000000000, 7.50000000000000, 0.000000000000000 ) );
#208 = DIRECTION( '', ( -0.000000000000000, 1.00000000000000, 0.000000000000000 ) );
#209 = DIRECTION( '', ( 0.000000000000000, 0.000000000000000, -1.00000000000000 ) );
#210 = SURFACE_STYLE_FILL_AREA( #266 );
#211 = ORIENTED_EDGE( '', *, *, #267, .F. );
#212 = ORIENTED_EDGE( '', *, *, #243, .F. );
#213 = ORIENTED_EDGE( '', *, *, #268, .T. );
#214 = ORIENTED_EDGE( '', *, *, #246, .T. );
#215 = CARTESIAN_POINT( '', ( 12.5000000000000, 7.50000000000000, 7.21687836487032 ) );
#216 = DIRECTION( '', ( 0.999048221581858, -0.0436193873653360, 0.000000000000000 ) );
#217 = DIRECTION( '', ( 0.0436193873653360, 0.999048221581858, 0.000000000000000 ) );
#218 = SURFACE_STYLE_FILL_AREA( #269 );
#219 = ORIENTED_EDGE( '', *, *, #265, .T. );
#220 = ORIENTED_EDGE( '', *, *, #262, .T. );
#221 = ORIENTED_EDGE( '', *, *, #258, .T. );
#222 = ORIENTED_EDGE( '', *, *, #240, .T. );
#223 = ORIENTED_EDGE( '', *, *, #267, .T. );
#224 = ORIENTED_EDGE( '', *, *, #245, .T. );
#225 = ORIENTED_EDGE( '', *, *, #254, .T. );
#226 = CARTESIAN_POINT( '', ( 0.000000000000000, 7.50000000000000, 0.000000000000000 ) );
#227 = DIRECTION( '', ( 0.000000000000000, 1.00000000000000, 0.000000000000000 ) );
#228 = DIRECTION( '', ( 0.000000000000000, -0.000000000000000, 1.00000000000000 ) );
#229 = SURFACE_STYLE_FILL_AREA( #270 );
#230 = ORIENTED_EDGE( '', *, *, #263, .F. );
#231 = ORIENTED_EDGE( '', *, *, #255, .F. );
#232 = ORIENTED_EDGE( '', *, *, #247, .F. );
#233 = ORIENTED_EDGE( '', *, *, #268, .F. );
#234 = ORIENTED_EDGE( '', *, *, #242, .F. );
#235 = ORIENTED_EDGE( '', *, *, #260, .F. );
#236 = CARTESIAN_POINT( '', ( 0.000000000000000, 0.000000000000000, 0.000000000000000 ) );
#237 = DIRECTION( '', ( 0.000000000000000, 1.00000000000000, 0.000000000000000 ) );
#238 = DIRECTION( '', ( 0.000000000000000, -0.000000000000000, 1.00000000000000 ) );
#239 = FILL_AREA_STYLE( '', ( #271 ) );
#240 = EDGE_CURVE( '', #272, #273, #274, .T. );
#241 = EDGE_CURVE( '', #275, #272, #276, .T. );
#242 = EDGE_CURVE( '', #275, #277, #278, .T. );
#243 = EDGE_CURVE( '', #277, #273, #279, .T. );
#244 = FILL_AREA_STYLE( '', ( #280 ) );
#245 = EDGE_CURVE( '', #281, #282, #283, .T. );
#246 = EDGE_CURVE( '', #284, #281, #285, .T. );
#247 = EDGE_CURVE( '', #284, #286, #287, .T. );
#248 = EDGE_CURVE( '', #286, #282, #288, .T. );
#249 = FILL_AREA_STYLE( '', ( #289 ) );
#250 = EDGE_CURVE( '', #290, #290, #291, .T. );
#251 = FILL_AREA_STYLE( '', ( #292 ) );
#252 = EDGE_CURVE( '', #293, #293, #294, .T. );
#253 = FILL_AREA_STYLE( '', ( #295 ) );
#254 = EDGE_CURVE( '', #282, #296, #297, .T. );
#255 = EDGE_CURVE( '', #286, #298, #299, .T. );
#256 = EDGE_CURVE( '', #298, #296, #300, .T. );
#257 = FILL_AREA_STYLE( '', ( #301 ) );
#258 = EDGE_CURVE( '', #302, #272, #303, .T. );
#259 = EDGE_CURVE( '', #304, #302, #305, .T. );
#260 = EDGE_CURVE( '', #304, #275, #306, .T. );
#261 = FILL_AREA_STYLE( '', ( #307 ) );
#262 = EDGE_CURVE( '', #296, #302, #308, .T. );
#263 = EDGE_CURVE( '', #298, #304, #309, .T. );
#264 = FILL_AREA_STYLE( '', ( #310 ) );
#265 = EDGE_CURVE( '', #311, #311, #312, .T. );
#266 = FILL_AREA_STYLE( '', ( #313 ) );
#267 = EDGE_CURVE( '', #273, #281, #314, .T. );
#268 = EDGE_CURVE( '', #277, #284, #315, .T. );
#269 = FILL_AREA_STYLE( '', ( #316 ) );
#270 = FILL_AREA_STYLE( '', ( #317 ) );
#271 = FILL_AREA_STYLE_COLOUR( '', #318 );
#272 = VERTEX_POINT( '', #319 );
#273 = VERTEX_POINT( '', #320 );
#274 = LINE( '', #321, #322 );
#275 = VERTEX_POINT( '', #323 );
#276 = LINE( '', #324, #325 );
#277 = VERTEX_POINT( '', #326 );
#278 = LINE( '', #327, #328 );
#279 = LINE( '', #329, #330 );
#280 = FILL_AREA_STYLE_COLOUR( '', #331 );
#281 = VERTEX_POINT( '', #332 );
#282 = VERTEX_POINT( '', #333 );
#283 = LINE( '', #334, #335 );
#284 = VERTEX_POINT( '', #336 );
#285 = LINE( '', #337, #338 );
#286 = VERTEX_POINT( '', #339 );
#287 = LINE( '', #340, #341 );
#288 = LINE( '', #342, #343 );
#289 = FILL_AREA_STYLE_COLOUR( '', #344 );
#290 = VERTEX_POINT( '', #345 );
#291 = CIRCLE( '', #346, 4.08000000000000 );
#292 = FILL_AREA_STYLE_COLOUR( '', #347 );
#293 = VERTEX_POINT( '', #348 );
#294 = CIRCLE( '', #349, 5.00000000000000 );
#295 = FILL_AREA_STYLE_COLOUR( '', #350 );
#296 = VERTEX_POINT( '', #351 );
#297 = LINE( '', #352, #353 );
#298 = VERTEX_POINT( '', #354 );
#299 = LINE( '', #355, #356 );
#300 = LINE( '', #357, #358 );
#301 = FILL_AREA_STYLE_COLOUR( '', #359 );
#302 = VERTEX_POINT( '', #360 );
#303 = LINE( '', #361, #362 );
#304 = VERTEX_POINT( '', #363 );
#305 = LINE( '', #364, #365 );
#306 = LINE( '', #366, #367 );
#307 = FILL_AREA_STYLE_COLOUR( '', #368 );
#308 = LINE( '', #369, #370 );
#309 = LINE( '', #371, #372 );
#310 = FILL_AREA_STYLE_COLOUR( '', #373 );
#311 = VERTEX_POINT( '', #374 );
#312 = CIRCLE( '', #375, 5.00000000000000 );
#313 = FILL_AREA_STYLE_COLOUR( '', #376 );
#314 = LINE( '', #377, #378 );
#315 = LINE( '', #379, #380 );
#316 = FILL_AREA_STYLE_COLOUR( '', #381 );
#317 = FILL_AREA_STYLE_COLOUR( '', #382 );
#318 = COLOUR_RGB( '', 0.689999997600000, 0.689999997600000, 0.689999997600000 );
#319 = CARTESIAN_POINT( '', ( 0.000000000000000, 7.50000000000000, 14.4337567297406 ) );
#320 = CARTESIAN_POINT( '', ( 12.5000000000000, 7.50000000000000, 7.21687836487032 ) );
#321 = CARTESIAN_POINT( '', ( 0.000000000000000, 7.50000000000000, 14.4337567297406 ) );
#322 = VECTOR( '', #383, 1000.00000000000 );
#323 = CARTESIAN_POINT( '', ( 4.39010374806836E-16, 0.000000000000000, 14.0556418726211 ) );
#324 = CARTESIAN_POINT( '', ( 0.000000000000000, 7.13708124112571, 14.4154600664529 ) );
#325 = VECTOR( '', #384, 1000.00000000000 );
#326 = CARTESIAN_POINT( '', ( 12.1725429281862, 0.000000000000000, 7.02782093631055 ) );
#327 = CARTESIAN_POINT( '', ( 6.08627146409308, 0.000000000000000, 10.5417314044658 ) );
#328 = VECTOR( '', #385, 1000.00000000000 );
#329 = CARTESIAN_POINT( '', ( 12.4841546247884, 7.13708124112571, 7.20773003322647 ) );
#330 = VECTOR( '', #386, 1000.00000000000 );
#331 = COLOUR_RGB( '', 0.689999997600000, 0.689999997600000, 0.689999997600000 );
#332 = CARTESIAN_POINT( '', ( 12.5000000000000, 7.50000000000000, -7.21687836487032 ) );
#333 = CARTESIAN_POINT( '', ( 0.000000000000000, 7.50000000000000, -14.4337567297406 ) );
#334 = CARTESIAN_POINT( '', ( 12.5000000000000, 7.50000000000000, -7.21687836487032 ) );
#335 = VECTOR( '', #387, 1000.00000000000 );
#336 = CARTESIAN_POINT( '', ( 12.1725429281862, 0.000000000000000, -7.02782093631055 ) );
#337 = CARTESIAN_POINT( '', ( 12.4841546247884, 7.13708124112570, -7.20773003322647 ) );
#338 = VECTOR( '', #388, 1000.00000000000 );
#339 = CARTESIAN_POINT( '', ( -4.39010374806836E-16, 0.000000000000000, -14.0556418726211 ) );
#340 = CARTESIAN_POINT( '', ( 6.08627146409308, 0.000000000000000, -10.5417314044658 ) );
#341 = VECTOR( '', #389, 1000.00000000000 );
#342 = CARTESIAN_POINT( '', ( 0.000000000000000, 7.13708124112571, -14.4154600664529 ) );
#343 = VECTOR( '', #390, 1000.00000000000 );
#344 = COLOUR_RGB( '', 0.689999997600000, 0.689999997600000, 0.689999997600000 );
#345 = CARTESIAN_POINT( '', ( 0.000000000000000, 27.5000000000000, -4.08000000000000 ) );
#346 = AXIS2_PLACEMENT_3D( '', #391, #392, #393 );
#347 = COLOUR_RGB( '', 0.689999997600000, 0.689999997600000, 0.689999997600000 );
#348 = CARTESIAN_POINT( '', ( 0.000000000000000, 26.5800000000000, -5.00000000000000 ) );
#349 = AXIS2_PLACEMENT_3D( '', #394, #395, #396 );
#350 = COLOUR_RGB( '', 0.689999997600000, 0.689999997600000, 0.689999997600000 );
#351 = CARTESIAN_POINT( '', ( -12.5000000000000, 7.50000000000000, -7.21687836487032 ) );
#352 = CARTESIAN_POINT( '', ( 0.000000000000000, 7.50000000000000, -14.4337567297406 ) );
#353 = VECTOR( '', #397, 1000.00000000000 );
#354 = CARTESIAN_POINT( '', ( -12.1725429281862, 0.000000000000000, -7.02782093631055 ) );
#355 = CARTESIAN_POINT( '', ( -6.08627146409308, 0.000000000000000, -10.5417314044658 ) );
#356 = VECTOR( '', #398, 1000.00000000000 );
#357 = CARTESIAN_POINT( '', ( -12.4841546247884, 7.13708124112571, -7.20773003322647 ) );
#358 = VECTOR( '', #399, 1000.00000000000 );
#359 = COLOUR_RGB( '', 0.689999997600000, 0.689999997600000, 0.689999997600000 );
#360 = CARTESIAN_POINT( '', ( -12.5000000000000, 7.50000000000000, 7.21687836487032 ) );
#361 = CARTESIAN_POINT( '', ( -12.5000000000000, 7.50000000000000, 7.21687836487032 ) );
#362 = VECTOR( '', #400, 1000.00000000000 );
#363 = CARTESIAN_POINT( '', ( -12.1725429281862, 0.000000000000000, 7.02782093631055 ) );
#364 = CARTESIAN_POINT( '', ( -12.4841546247884, 7.13708124112570, 7.20773003322647 ) );
#365 = VECTOR( '', #401, 1000.00000000000 );
#366 = CARTESIAN_POINT( '', ( -6.08627146409308, 0.000000000000000, 10.5417314044658 ) );
#367 = VECTOR( '', #402, 1000.00000000000 );
#368 = COLOUR_RGB( '', 0.689999997600000, 0.689999997600000, 0.689999997600000 );
#369 = CARTESIAN_POINT( '', ( -12.5000000000000, 7.50000000000000, -7.21687836487032 ) );
#370 = VECTOR( '', #403, 1000.00000000000 );
#371 = CARTESIAN_POINT( '', ( -12.1725429281862, 0.000000000000000, 0.000000000000000 ) );
#372 = VECTOR( '', #404, 1000.00000000000 );
#373 = COLOUR_RGB( '', 0.689999997600000, 0.689999997600000, 0.689999997600000 );
#374 = CARTESIAN_POINT( '', ( 0.000000000000000, 7.50000000000000, -5.00000000000000 ) );
#375 = AXIS2_PLACEMENT_3D( '', #405, #406, #407 );
#376 = COLOUR_RGB( '', 0.689999997600000, 0.689999997600000, 0.689999997600000 );
#377 = CARTESIAN_POINT( '', ( 12.5000000000000, 7.50000000000000, 7.21687836487032 ) );
#378 = VECTOR( '', #408, 1000.00000000000 );
#379 = CARTESIAN_POINT( '', ( 12.1725429281862, 0.000000000000000, 0.000000000000000 ) );
#380 = VECTOR( '', #409, 1000.00000000000 );
#381 = COLOUR_RGB( '', 0.689999997600000, 0.689999997600000, 0.689999997600000 );
#382 = COLOUR_RGB( '', 0.689999997600000, 0.689999997600000, 0.689999997600000 );
#383 = DIRECTION( '', ( 0.866025403784439, 0.000000000000000, -0.500000000000000 ) );
#384 = DIRECTION( '', ( 0.000000000000000, 0.998731565520054, 0.0503513657596513 ) );
#385 = DIRECTION( '', ( 0.866025403784439, 0.000000000000000, -0.500000000000000 ) );
#386 = DIRECTION( '', ( 0.0436055618630999, 0.998731565520054, 0.0251756828798256 ) );
#387 = DIRECTION( '', ( -0.866025403784439, 0.000000000000000, -0.500000000000000 ) );
#388 = DIRECTION( '', ( 0.0436055618630999, 0.998731565520054, -0.0251756828798256 ) );
#389 = DIRECTION( '', ( -0.866025403784439, 0.000000000000000, -0.500000000000000 ) );
#390 = DIRECTION( '', ( 0.000000000000000, 0.998731565520054, -0.0503513657596513 ) );
#391 = CARTESIAN_POINT( '', ( 0.000000000000000, 27.5000000000000, 0.000000000000000 ) );
#392 = DIRECTION( '', ( 0.000000000000000, -1.00000000000000, -0.000000000000000 ) );
#393 = DIRECTION( '', ( 0.000000000000000, 0.000000000000000, -1.00000000000000 ) );
#394 = CARTESIAN_POINT( '', ( 0.000000000000000, 26.5800000000000, 0.000000000000000 ) );
#395 = DIRECTION( '', ( 0.000000000000000, -1.00000000000000, -0.000000000000000 ) );
#396 = DIRECTION( '', ( 0.000000000000000, 0.000000000000000, -1.00000000000000 ) );
#397 = DIRECTION( '', ( -0.866025403784439, 0.000000000000000, 0.500000000000000 ) );
#398 = DIRECTION( '', ( -0.866025403784439, 0.000000000000000, 0.500000000000000 ) );
#399 = DIRECTION( '', ( -0.0436055618630999, 0.998731565520054, -0.0251756828798256 ) );
#400 = DIRECTION( '', ( 0.866025403784439, 0.000000000000000, 0.500000000000000 ) );
#401 = DIRECTION( '', ( -0.0436055618630999, 0.998731565520054, 0.0251756828798256 ) );
#402 = DIRECTION( '', ( 0.866025403784439, 0.000000000000000, 0.500000000000000 ) );
#403 = DIRECTION( '', ( 0.000000000000000, 0.000000000000000, 1.00000000000000 ) );
#404 = DIRECTION( '', ( 0.000000000000000, 0.000000000000000, 1.00000000000000 ) );
#405 = CARTESIAN_POINT( '', ( 0.000000000000000, 7.50000000000000, 0.000000000000000 ) );
#406 = DIRECTION( '', ( 0.000000000000000, -1.00000000000000, -0.000000000000000 ) );
#407 = DIRECTION( '', ( 0.000000000000000, 0.000000000000000, -1.00000000000000 ) );
#408 = DIRECTION( '', ( 0.000000000000000, 0.000000000000000, -1.00000000000000 ) );
#409 = DIRECTION( '', ( 0.000000000000000, 0.000000000000000, -1.00000000000000 ) );
ENDSEC;
END-ISO-10303-21;
