ISO-10303-21;
HEADER;
FILE_DESCRIPTION( ( 'STEP AP214' ), '1' );
FILE_NAME( '//goodhand-server/Shared Folders/GoodHand Data/Kipp CAD/K1129/K1129.202415.stp', '2020-12-10T10:17:24', ( '' ), ( '' ), ' ', 'PARTsolutions', ' ' );
FILE_SCHEMA( ( 'AUTOMOTIVE_DESIGN { 1 0 10303 214 1 1 1 1 }' ) );
ENDSEC;
DATA;
#1 = MECHANICAL_DESIGN_GEOMETRIC_PRESENTATION_REPRESENTATION( ' ', ( #10, #11, #12, #13, #14, #15, #16, #17, #18, #19, #20, #21 ), #6 );
#2 = PRODUCT_DEFINITION_CONTEXT( '', #22, 'design' );
#3 = APPLICATION_PROTOCOL_DEFINITION( 'international standard', 'automotive_design', 2001, #22 );
#4 = PRODUCT_CATEGORY_RELATIONSHIP( 'NONE', 'NONE', #23, #24 );
#5 = SHAPE_DEFINITION_REPRESENTATION( #25, #26 );
#6 =  ( GEOMETRIC_REPRESENTATION_CONTEXT( 3 )GLOBAL_UNCERTAINTY_ASSIGNED_CONTEXT( ( #29 ) )GLOBAL_UNIT_ASSIGNED_CONTEXT( ( #31, #32, #33 ) )REPRESENTATION_CONTEXT( 'NONE', 'WORKSPACE' ) );
#10 = STYLED_ITEM( '', ( #35 ), #36 );
#11 = STYLED_ITEM( '', ( #37 ), #38 );
#12 = STYLED_ITEM( '', ( #39 ), #40 );
#13 = STYLED_ITEM( '', ( #41 ), #42 );
#14 = STYLED_ITEM( '', ( #43 ), #44 );
#15 = STYLED_ITEM( '', ( #45 ), #46 );
#16 = STYLED_ITEM( '', ( #47 ), #48 );
#17 = STYLED_ITEM( '', ( #49 ), #50 );
#18 = STYLED_ITEM( '', ( #51 ), #52 );
#19 = STYLED_ITEM( '', ( #53 ), #54 );
#20 = STYLED_ITEM( '', ( #55 ), #56 );
#21 = STYLED_ITEM( '', ( #57 ), #58 );
#22 = APPLICATION_CONTEXT( 'core data for automotive mechanical design processes' );
#23 = PRODUCT_CATEGORY( 'part', 'NONE' );
#24 = PRODUCT_RELATED_PRODUCT_CATEGORY( 'detail', ' ', ( #59 ) );
#25 = PRODUCT_DEFINITION_SHAPE( 'NONE', 'NONE', #60 );
#26 = ADVANCED_BREP_SHAPE_REPRESENTATION( '_K1129.202415', ( #61, #62 ), #6 );
#29 = UNCERTAINTY_MEASURE_WITH_UNIT( LENGTH_MEASURE( 0.00100000000000000 ), #31, '', '' );
#31 =  ( CONVERSION_BASED_UNIT( 'MILLIMETRE', #65 )LENGTH_UNIT(  )NAMED_UNIT( #68 ) );
#32 =  ( NAMED_UNIT( #70 )PLANE_ANGLE_UNIT(  )SI_UNIT( $, .RADIAN. ) );
#33 =  ( NAMED_UNIT( #70 )SI_UNIT( $, .STERADIAN. )SOLID_ANGLE_UNIT(  ) );
#35 = PRESENTATION_STYLE_ASSIGNMENT( ( #76 ) );
#36 = ADVANCED_FACE( '', ( #77, #78 ), #79, .T. );
#37 = PRESENTATION_STYLE_ASSIGNMENT( ( #80 ) );
#38 = ADVANCED_FACE( '', ( #81 ), #82, .T. );
#39 = PRESENTATION_STYLE_ASSIGNMENT( ( #83 ) );
#40 = ADVANCED_FACE( '', ( #84 ), #85, .F. );
#41 = PRESENTATION_STYLE_ASSIGNMENT( ( #86 ) );
#42 = ADVANCED_FACE( '', ( #87 ), #88, .F. );
#43 = PRESENTATION_STYLE_ASSIGNMENT( ( #89 ) );
#44 = ADVANCED_FACE( '', ( #90 ), #91, .T. );
#45 = PRESENTATION_STYLE_ASSIGNMENT( ( #92 ) );
#46 = ADVANCED_FACE( '', ( #93 ), #94, .T. );
#47 = PRESENTATION_STYLE_ASSIGNMENT( ( #95 ) );
#48 = ADVANCED_FACE( '', ( #96, #97 ), #98, .F. );
#49 = PRESENTATION_STYLE_ASSIGNMENT( ( #99 ) );
#50 = ADVANCED_FACE( '', ( #100 ), #101, .T. );
#51 = PRESENTATION_STYLE_ASSIGNMENT( ( #102 ) );
#52 = ADVANCED_FACE( '', ( #103 ), #104, .T. );
#53 = PRESENTATION_STYLE_ASSIGNMENT( ( #105 ) );
#54 = ADVANCED_FACE( '', ( #106 ), #107, .T. );
#55 = PRESENTATION_STYLE_ASSIGNMENT( ( #108 ) );
#56 = ADVANCED_FACE( '', ( #109, #110 ), #111, .T. );
#57 = PRESENTATION_STYLE_ASSIGNMENT( ( #112 ) );
#58 = ADVANCED_FACE( '', ( #113, #114 ), #115, .T. );
#59 = PRODUCT( '_K1129.202415', '_K1129.202415', 'PART-_K1129.202415-DESC', ( #116 ) );
#60 = PRODUCT_DEFINITION( 'NONE', 'NONE', #117, #2 );
#61 = MANIFOLD_SOLID_BREP( '_K1129.202415', #118 );
#62 = AXIS2_PLACEMENT_3D( '', #119, #120, #121 );
#65 = LENGTH_MEASURE_WITH_UNIT( LENGTH_MEASURE( 1.00000000000000 ), #122 );
#68 = DIMENSIONAL_EXPONENTS( 1.00000000000000, 0.000000000000000, 0.000000000000000, 0.000000000000000, 0.000000000000000, 0.000000000000000, 0.000000000000000 );
#70 = DIMENSIONAL_EXPONENTS( 0.000000000000000, 0.000000000000000, 0.000000000000000, 0.000000000000000, 0.000000000000000, 0.000000000000000, 0.000000000000000 );
#76 = SURFACE_STYLE_USAGE( .BOTH., #123 );
#77 = FACE_OUTER_BOUND( '', #124, .T. );
#78 = FACE_BOUND( '', #125, .T. );
#79 = CONICAL_SURFACE( '', #126, 11.6885575963000, 0.769690200100000 );
#80 = SURFACE_STYLE_USAGE( .BOTH., #127 );
#81 = FACE_OUTER_BOUND( '', #128, .T. );
#82 = PLANE( '', #129 );
#83 = SURFACE_STYLE_USAGE( .BOTH., #130 );
#84 = FACE_OUTER_BOUND( '', #131, .T. );
#85 = PLANE( '', #132 );
#86 = SURFACE_STYLE_USAGE( .BOTH., #133 );
#87 = FACE_OUTER_BOUND( '', #134, .T. );
#88 = PLANE( '', #135 );
#89 = SURFACE_STYLE_USAGE( .BOTH., #136 );
#90 = FACE_OUTER_BOUND( '', #137, .T. );
#91 = PLANE( '', #138 );
#92 = SURFACE_STYLE_USAGE( .BOTH., #139 );
#93 = FACE_OUTER_BOUND( '', #140, .T. );
#94 = PLANE( '', #141 );
#95 = SURFACE_STYLE_USAGE( .BOTH., #142 );
#96 = FACE_OUTER_BOUND( '', #143, .T. );
#97 = FACE_BOUND( '', #144, .T. );
#98 = PLANE( '', #145 );
#99 = SURFACE_STYLE_USAGE( .BOTH., #146 );
#100 = FACE_OUTER_BOUND( '', #147, .T. );
#101 = PLANE( '', #148 );
#102 = SURFACE_STYLE_USAGE( .BOTH., #149 );
#103 = FACE_OUTER_BOUND( '', #150, .T. );
#104 = PLANE( '', #151 );
#105 = SURFACE_STYLE_USAGE( .BOTH., #152 );
#106 = FACE_OUTER_BOUND( '', #153, .T. );
#107 = PLANE( '', #154 );
#108 = SURFACE_STYLE_USAGE( .BOTH., #155 );
#109 = FACE_BOUND( '', #156, .T. );
#110 = FACE_OUTER_BOUND( '', #157, .T. );
#111 = CONICAL_SURFACE( '', #158, 11.8271477833000, 0.801106126700000 );
#112 = SURFACE_STYLE_USAGE( .BOTH., #159 );
#113 = FACE_BOUND( '', #160, .T. );
#114 = FACE_OUTER_BOUND( '', #161, .T. );
#115 = CONICAL_SURFACE( '', #162, 12.1728522167000, 0.0314159265000000 );
#116 = PRODUCT_CONTEXT( '', #22, 'mechanical' );
#117 = PRODUCT_DEFINITION_FORMATION_WITH_SPECIFIED_SOURCE( ' ', 'NONE', #59, .NOT_KNOWN. );
#118 = CLOSED_SHELL( '', ( #36, #48, #52, #38, #50, #42, #56, #58, #46, #54, #44, #40 ) );
#119 = CARTESIAN_POINT( '', ( 0.000000000000000, 0.000000000000000, 0.000000000000000 ) );
#120 = DIRECTION( '', ( 0.000000000000000, 0.000000000000000, 1.00000000000000 ) );
#121 = DIRECTION( '', ( 1.00000000000000, 0.000000000000000, 0.000000000000000 ) );
#122 =  ( LENGTH_UNIT(  )NAMED_UNIT( #68 )SI_UNIT( .MILLI., .METRE. ) );
#123 = SURFACE_SIDE_STYLE( '', ( #164 ) );
#124 = EDGE_LOOP( '', ( #165 ) );
#125 = EDGE_LOOP( '', ( #166 ) );
#126 = AXIS2_PLACEMENT_3D( '', #167, #168, #169 );
#127 = SURFACE_SIDE_STYLE( '', ( #170 ) );
#128 = EDGE_LOOP( '', ( #171, #172, #173, #174 ) );
#129 = AXIS2_PLACEMENT_3D( '', #175, #176, #177 );
#130 = SURFACE_SIDE_STYLE( '', ( #178 ) );
#131 = EDGE_LOOP( '', ( #179, #180, #181, #182, #183, #184 ) );
#132 = AXIS2_PLACEMENT_3D( '', #185, #186, #187 );
#133 = SURFACE_SIDE_STYLE( '', ( #188 ) );
#134 = EDGE_LOOP( '', ( #189 ) );
#135 = AXIS2_PLACEMENT_3D( '', #190, #191, #192 );
#136 = SURFACE_SIDE_STYLE( '', ( #193 ) );
#137 = EDGE_LOOP( '', ( #194, #195, #196, #197 ) );
#138 = AXIS2_PLACEMENT_3D( '', #198, #199, #200 );
#139 = SURFACE_SIDE_STYLE( '', ( #201 ) );
#140 = EDGE_LOOP( '', ( #202, #203, #204, #205 ) );
#141 = AXIS2_PLACEMENT_3D( '', #206, #207, #208 );
#142 = SURFACE_SIDE_STYLE( '', ( #209 ) );
#143 = EDGE_LOOP( '', ( #210 ) );
#144 = EDGE_LOOP( '', ( #211, #212, #213, #214, #215, #216 ) );
#145 = AXIS2_PLACEMENT_3D( '', #217, #218, #219 );
#146 = SURFACE_SIDE_STYLE( '', ( #220 ) );
#147 = EDGE_LOOP( '', ( #221, #222, #223, #224 ) );
#148 = AXIS2_PLACEMENT_3D( '', #225, #226, #227 );
#149 = SURFACE_SIDE_STYLE( '', ( #228 ) );
#150 = EDGE_LOOP( '', ( #229, #230, #231, #232 ) );
#151 = AXIS2_PLACEMENT_3D( '', #233, #234, #235 );
#152 = SURFACE_SIDE_STYLE( '', ( #236 ) );
#153 = EDGE_LOOP( '', ( #237, #238, #239, #240 ) );
#154 = AXIS2_PLACEMENT_3D( '', #241, #242, #243 );
#155 = SURFACE_SIDE_STYLE( '', ( #244 ) );
#156 = EDGE_LOOP( '', ( #245 ) );
#157 = EDGE_LOOP( '', ( #246 ) );
#158 = AXIS2_PLACEMENT_3D( '', #247, #248, #249 );
#159 = SURFACE_SIDE_STYLE( '', ( #250 ) );
#160 = EDGE_LOOP( '', ( #251 ) );
#161 = EDGE_LOOP( '', ( #252 ) );
#162 = AXIS2_PLACEMENT_3D( '', #253, #254, #255 );
#164 = SURFACE_STYLE_FILL_AREA( #256 );
#165 = ORIENTED_EDGE( '', *, *, #257, .F. );
#166 = ORIENTED_EDGE( '', *, *, #258, .T. );
#167 = CARTESIAN_POINT( '', ( -1.73472347597681E-15, 0.000000000000000, 0.000000000000000 ) );
#168 = DIRECTION( '', ( 1.00000000000000, -0.000000000000000, -0.000000000000000 ) );
#169 = DIRECTION( '', ( -0.000000000000000, 0.000000000000000, -1.00000000000000 ) );
#170 = SURFACE_STYLE_FILL_AREA( #259 );
#171 = ORIENTED_EDGE( '', *, *, #260, .F. );
#172 = ORIENTED_EDGE( '', *, *, #261, .F. );
#173 = ORIENTED_EDGE( '', *, *, #262, .T. );
#174 = ORIENTED_EDGE( '', *, *, #263, .T. );
#175 = CARTESIAN_POINT( '', ( 6.00000000000000, -6.92820323027551, 0.000000000000000 ) );
#176 = DIRECTION( '', ( -0.000000000000000, 0.866025403784439, 0.500000000000000 ) );
#177 = DIRECTION( '', ( 0.000000000000000, -0.500000000000000, 0.866025403784439 ) );
#178 = SURFACE_STYLE_FILL_AREA( #264 );
#179 = ORIENTED_EDGE( '', *, *, #265, .F. );
#180 = ORIENTED_EDGE( '', *, *, #266, .F. );
#181 = ORIENTED_EDGE( '', *, *, #267, .F. );
#182 = ORIENTED_EDGE( '', *, *, #268, .F. );
#183 = ORIENTED_EDGE( '', *, *, #262, .F. );
#184 = ORIENTED_EDGE( '', *, *, #269, .F. );
#185 = CARTESIAN_POINT( '', ( 6.00000000000000, 0.000000000000000, 0.000000000000000 ) );
#186 = DIRECTION( '', ( 1.00000000000000, 0.000000000000000, 0.000000000000000 ) );
#187 = DIRECTION( '', ( 0.000000000000000, 0.000000000000000, -1.00000000000000 ) );
#188 = SURFACE_STYLE_FILL_AREA( #270 );
#189 = ORIENTED_EDGE( '', *, *, #271, .T. );
#190 = CARTESIAN_POINT( '', ( 12.0000000000000, 11.3114424037399, 0.000000000000000 ) );
#191 = DIRECTION( '', ( -1.00000000000000, 0.000000000000000, 0.000000000000000 ) );
#192 = DIRECTION( '', ( 0.000000000000000, 0.000000000000000, 1.00000000000000 ) );
#193 = SURFACE_STYLE_FILL_AREA( #272 );
#194 = ORIENTED_EDGE( '', *, *, #273, .F. );
#195 = ORIENTED_EDGE( '', *, *, #274, .F. );
#196 = ORIENTED_EDGE( '', *, *, #266, .T. );
#197 = ORIENTED_EDGE( '', *, *, #275, .T. );
#198 = CARTESIAN_POINT( '', ( 6.00000000000000, 6.92820323027551, 0.000000000000000 ) );
#199 = DIRECTION( '', ( 0.000000000000000, -0.866025403784439, -0.500000000000000 ) );
#200 = DIRECTION( '', ( 0.000000000000000, 0.500000000000000, -0.866025403784439 ) );
#201 = SURFACE_STYLE_FILL_AREA( #276 );
#202 = ORIENTED_EDGE( '', *, *, #277, .F. );
#203 = ORIENTED_EDGE( '', *, *, #263, .F. );
#204 = ORIENTED_EDGE( '', *, *, #268, .T. );
#205 = ORIENTED_EDGE( '', *, *, #278, .T. );
#206 = CARTESIAN_POINT( '', ( 6.00000000000000, -3.46410161513775, -6.00000000000000 ) );
#207 = DIRECTION( '', ( 0.000000000000000, 0.000000000000000, 1.00000000000000 ) );
#208 = DIRECTION( '', ( 1.00000000000000, 0.000000000000000, -0.000000000000000 ) );
#209 = SURFACE_STYLE_FILL_AREA( #279 );
#210 = ORIENTED_EDGE( '', *, *, #258, .F. );
#211 = ORIENTED_EDGE( '', *, *, #280, .T. );
#212 = ORIENTED_EDGE( '', *, *, #281, .T. );
#213 = ORIENTED_EDGE( '', *, *, #260, .T. );
#214 = ORIENTED_EDGE( '', *, *, #277, .T. );
#215 = ORIENTED_EDGE( '', *, *, #282, .T. );
#216 = ORIENTED_EDGE( '', *, *, #273, .T. );
#217 = CARTESIAN_POINT( '', ( -8.51743492405174E-16, 0.000000000000000, 0.000000000000000 ) );
#218 = DIRECTION( '', ( 1.00000000000000, 0.000000000000000, -0.000000000000000 ) );
#219 = DIRECTION( '', ( -0.000000000000000, 0.000000000000000, -1.00000000000000 ) );
#220 = SURFACE_STYLE_FILL_AREA( #283 );
#221 = ORIENTED_EDGE( '', *, *, #280, .F. );
#222 = ORIENTED_EDGE( '', *, *, #275, .F. );
#223 = ORIENTED_EDGE( '', *, *, #265, .T. );
#224 = ORIENTED_EDGE( '', *, *, #284, .T. );
#225 = CARTESIAN_POINT( '', ( 6.00000000000000, 3.46410161513775, 6.00000000000000 ) );
#226 = DIRECTION( '', ( 0.000000000000000, 0.000000000000000, -1.00000000000000 ) );
#227 = DIRECTION( '', ( -1.00000000000000, 0.000000000000000, 0.000000000000000 ) );
#228 = SURFACE_STYLE_FILL_AREA( #285 );
#229 = ORIENTED_EDGE( '', *, *, #281, .F. );
#230 = ORIENTED_EDGE( '', *, *, #284, .F. );
#231 = ORIENTED_EDGE( '', *, *, #269, .T. );
#232 = ORIENTED_EDGE( '', *, *, #261, .T. );
#233 = CARTESIAN_POINT( '', ( 6.00000000000000, -3.46410161513775, 6.00000000000000 ) );
#234 = DIRECTION( '', ( 0.000000000000000, 0.866025403784439, -0.500000000000000 ) );
#235 = DIRECTION( '', ( 0.000000000000000, 0.500000000000000, 0.866025403784439 ) );
#236 = SURFACE_STYLE_FILL_AREA( #286 );
#237 = ORIENTED_EDGE( '', *, *, #282, .F. );
#238 = ORIENTED_EDGE( '', *, *, #278, .F. );
#239 = ORIENTED_EDGE( '', *, *, #267, .T. );
#240 = ORIENTED_EDGE( '', *, *, #274, .T. );
#241 = CARTESIAN_POINT( '', ( 6.00000000000000, 3.46410161513775, -6.00000000000000 ) );
#242 = DIRECTION( '', ( 0.000000000000000, -0.866025403784439, 0.500000000000000 ) );
#243 = DIRECTION( '', ( 0.000000000000000, -0.500000000000000, -0.866025403784439 ) );
#244 = SURFACE_STYLE_FILL_AREA( #287 );
#245 = ORIENTED_EDGE( '', *, *, #271, .F. );
#246 = ORIENTED_EDGE( '', *, *, #288, .T. );
#247 = CARTESIAN_POINT( '', ( 11.5002467198171, 0.000000000000000, 0.000000000000000 ) );
#248 = DIRECTION( '', ( -1.00000000000000, 0.000000000000000, -0.000000000000000 ) );
#249 = DIRECTION( '', ( 0.000000000000000, 0.000000000000000, 1.00000000000000 ) );
#250 = SURFACE_STYLE_FILL_AREA( #289 );
#251 = ORIENTED_EDGE( '', *, *, #288, .F. );
#252 = ORIENTED_EDGE( '', *, *, #257, .T. );
#253 = CARTESIAN_POINT( '', ( 0.499753280182863, 0.000000000000000, 0.000000000000000 ) );
#254 = DIRECTION( '', ( -1.00000000000000, 0.000000000000000, -0.000000000000000 ) );
#255 = DIRECTION( '', ( 0.000000000000000, 0.000000000000000, 1.00000000000000 ) );
#256 = FILL_AREA_STYLE( '', ( #290 ) );
#257 = EDGE_CURVE( '', #291, #291, #292, .T. );
#258 = EDGE_CURVE( '', #293, #293, #294, .T. );
#259 = FILL_AREA_STYLE( '', ( #295 ) );
#260 = EDGE_CURVE( '', #296, #297, #298, .T. );
#261 = EDGE_CURVE( '', #299, #296, #300, .T. );
#262 = EDGE_CURVE( '', #299, #301, #302, .T. );
#263 = EDGE_CURVE( '', #301, #297, #303, .T. );
#264 = FILL_AREA_STYLE( '', ( #304 ) );
#265 = EDGE_CURVE( '', #305, #306, #307, .T. );
#266 = EDGE_CURVE( '', #308, #305, #309, .T. );
#267 = EDGE_CURVE( '', #310, #308, #311, .T. );
#268 = EDGE_CURVE( '', #301, #310, #312, .T. );
#269 = EDGE_CURVE( '', #306, #299, #313, .T. );
#270 = FILL_AREA_STYLE( '', ( #314 ) );
#271 = EDGE_CURVE( '', #315, #315, #316, .T. );
#272 = FILL_AREA_STYLE( '', ( #317 ) );
#273 = EDGE_CURVE( '', #318, #319, #320, .T. );
#274 = EDGE_CURVE( '', #308, #318, #321, .T. );
#275 = EDGE_CURVE( '', #305, #319, #322, .T. );
#276 = FILL_AREA_STYLE( '', ( #323 ) );
#277 = EDGE_CURVE( '', #297, #324, #325, .T. );
#278 = EDGE_CURVE( '', #310, #324, #326, .T. );
#279 = FILL_AREA_STYLE( '', ( #327 ) );
#280 = EDGE_CURVE( '', #319, #328, #329, .T. );
#281 = EDGE_CURVE( '', #328, #296, #330, .T. );
#282 = EDGE_CURVE( '', #324, #318, #331, .T. );
#283 = FILL_AREA_STYLE( '', ( #332 ) );
#284 = EDGE_CURVE( '', #306, #328, #333, .T. );
#285 = FILL_AREA_STYLE( '', ( #334 ) );
#286 = FILL_AREA_STYLE( '', ( #335 ) );
#287 = FILL_AREA_STYLE( '', ( #336 ) );
#288 = EDGE_CURVE( '', #337, #337, #338, .T. );
#289 = FILL_AREA_STYLE( '', ( #339 ) );
#290 = FILL_AREA_STYLE_COLOUR( '', #340 );
#291 = VERTEX_POINT( '', #341 );
#292 = CIRCLE( '', #342, 12.1728522167000 );
#293 = VERTEX_POINT( '', #343 );
#294 = CIRCLE( '', #344, 11.6885575963000 );
#295 = FILL_AREA_STYLE_COLOUR( '', #345 );
#296 = VERTEX_POINT( '', #346 );
#297 = VERTEX_POINT( '', #347 );
#298 = LINE( '', #348, #349 );
#299 = VERTEX_POINT( '', #350 );
#300 = LINE( '', #351, #352 );
#301 = VERTEX_POINT( '', #353 );
#302 = LINE( '', #354, #355 );
#303 = LINE( '', #356, #357 );
#304 = FILL_AREA_STYLE_COLOUR( '', #358 );
#305 = VERTEX_POINT( '', #359 );
#306 = VERTEX_POINT( '', #360 );
#307 = LINE( '', #361, #362 );
#308 = VERTEX_POINT( '', #363 );
#309 = LINE( '', #364, #365 );
#310 = VERTEX_POINT( '', #366 );
#311 = LINE( '', #367, #368 );
#312 = LINE( '', #369, #370 );
#313 = LINE( '', #371, #372 );
#314 = FILL_AREA_STYLE_COLOUR( '', #373 );
#315 = VERTEX_POINT( '', #374 );
#316 = CIRCLE( '', #375, 11.3114424037000 );
#317 = FILL_AREA_STYLE_COLOUR( '', #376 );
#318 = VERTEX_POINT( '', #377 );
#319 = VERTEX_POINT( '', #378 );
#320 = LINE( '', #379, #380 );
#321 = LINE( '', #381, #382 );
#322 = LINE( '', #383, #384 );
#323 = FILL_AREA_STYLE_COLOUR( '', #385 );
#324 = VERTEX_POINT( '', #386 );
#325 = LINE( '', #387, #388 );
#326 = LINE( '', #389, #390 );
#327 = FILL_AREA_STYLE_COLOUR( '', #391 );
#328 = VERTEX_POINT( '', #392 );
#329 = LINE( '', #393, #394 );
#330 = LINE( '', #395, #396 );
#331 = LINE( '', #397, #398 );
#332 = FILL_AREA_STYLE_COLOUR( '', #399 );
#333 = LINE( '', #400, #401 );
#334 = FILL_AREA_STYLE_COLOUR( '', #402 );
#335 = FILL_AREA_STYLE_COLOUR( '', #403 );
#336 = FILL_AREA_STYLE_COLOUR( '', #404 );
#337 = VERTEX_POINT( '', #405 );
#338 = CIRCLE( '', #406, 11.8271477833000 );
#339 = FILL_AREA_STYLE_COLOUR( '', #407 );
#340 = COLOUR_RGB( '', 0.689999997600000, 0.689999997600000, 0.689999997600000 );
#341 = CARTESIAN_POINT( '', ( 0.499753280182863, 0.000000000000000, -12.1728522167210 ) );
#342 = AXIS2_PLACEMENT_3D( '', #408, #409, #410 );
#343 = CARTESIAN_POINT( '', ( -1.73472347597681E-15, 0.000000000000000, -11.6885575962601 ) );
#344 = AXIS2_PLACEMENT_3D( '', #411, #412, #413 );
#345 = COLOUR_RGB( '', 0.689999997600000, 0.689999997600000, 0.689999997600000 );
#346 = CARTESIAN_POINT( '', ( 0.000000000000000, -6.92820323027551, 0.000000000000000 ) );
#347 = CARTESIAN_POINT( '', ( 0.000000000000000, -3.46410161513775, -6.00000000000000 ) );
#348 = CARTESIAN_POINT( '', ( 0.000000000000000, -6.92820323027551, 0.000000000000000 ) );
#349 = VECTOR( '', #414, 1000.00000000000 );
#350 = CARTESIAN_POINT( '', ( 6.00000000000000, -6.92820323027551, 0.000000000000000 ) );
#351 = CARTESIAN_POINT( '', ( 6.00000000000000, -6.92820323027551, 0.000000000000000 ) );
#352 = VECTOR( '', #415, 1000.00000000000 );
#353 = CARTESIAN_POINT( '', ( 6.00000000000000, -3.46410161513775, -6.00000000000000 ) );
#354 = CARTESIAN_POINT( '', ( 6.00000000000000, -6.92820323027551, 0.000000000000000 ) );
#355 = VECTOR( '', #416, 1000.00000000000 );
#356 = CARTESIAN_POINT( '', ( 6.00000000000000, -3.46410161513775, -6.00000000000000 ) );
#357 = VECTOR( '', #417, 1000.00000000000 );
#358 = COLOUR_RGB( '', 0.689999997600000, 0.689999997600000, 0.689999997600000 );
#359 = CARTESIAN_POINT( '', ( 6.00000000000000, 3.46410161513775, 6.00000000000000 ) );
#360 = CARTESIAN_POINT( '', ( 6.00000000000000, -3.46410161513775, 6.00000000000000 ) );
#361 = CARTESIAN_POINT( '', ( 6.00000000000000, 3.46410161513775, 6.00000000000000 ) );
#362 = VECTOR( '', #418, 1000.00000000000 );
#363 = CARTESIAN_POINT( '', ( 6.00000000000000, 6.92820323027551, 0.000000000000000 ) );
#364 = CARTESIAN_POINT( '', ( 6.00000000000000, 6.92820323027551, 0.000000000000000 ) );
#365 = VECTOR( '', #419, 1000.00000000000 );
#366 = CARTESIAN_POINT( '', ( 6.00000000000000, 3.46410161513775, -6.00000000000000 ) );
#367 = CARTESIAN_POINT( '', ( 6.00000000000000, 3.46410161513775, -6.00000000000000 ) );
#368 = VECTOR( '', #420, 1000.00000000000 );
#369 = CARTESIAN_POINT( '', ( 6.00000000000000, -3.46410161513775, -6.00000000000000 ) );
#370 = VECTOR( '', #421, 1000.00000000000 );
#371 = CARTESIAN_POINT( '', ( 6.00000000000000, -3.46410161513775, 6.00000000000000 ) );
#372 = VECTOR( '', #422, 1000.00000000000 );
#373 = COLOUR_RGB( '', 0.689999997600000, 0.689999997600000, 0.689999997600000 );
#374 = CARTESIAN_POINT( '', ( 12.0000000000000, 0.000000000000000, -11.3114424037399 ) );
#375 = AXIS2_PLACEMENT_3D( '', #423, #424, #425 );
#376 = COLOUR_RGB( '', 0.689999997600000, 0.689999997600000, 0.689999997600000 );
#377 = CARTESIAN_POINT( '', ( 0.000000000000000, 6.92820323027551, 0.000000000000000 ) );
#378 = CARTESIAN_POINT( '', ( -8.51743492405174E-16, 3.46410161513776, 6.00000000000000 ) );
#379 = CARTESIAN_POINT( '', ( 0.000000000000000, 6.92820323027551, 0.000000000000000 ) );
#380 = VECTOR( '', #426, 1000.00000000000 );
#381 = CARTESIAN_POINT( '', ( 6.00000000000000, 6.92820323027551, 0.000000000000000 ) );
#382 = VECTOR( '', #427, 1000.00000000000 );
#383 = CARTESIAN_POINT( '', ( 6.00000000000000, 3.46410161513775, 6.00000000000000 ) );
#384 = VECTOR( '', #428, 1000.00000000000 );
#385 = COLOUR_RGB( '', 0.689999997600000, 0.689999997600000, 0.689999997600000 );
#386 = CARTESIAN_POINT( '', ( 0.000000000000000, 3.46410161513775, -6.00000000000000 ) );
#387 = CARTESIAN_POINT( '', ( 0.000000000000000, -3.46410161513775, -6.00000000000000 ) );
#388 = VECTOR( '', #429, 1000.00000000000 );
#389 = CARTESIAN_POINT( '', ( 6.00000000000000, 3.46410161513775, -6.00000000000000 ) );
#390 = VECTOR( '', #430, 1000.00000000000 );
#391 = COLOUR_RGB( '', 0.689999997600000, 0.689999997600000, 0.689999997600000 );
#392 = CARTESIAN_POINT( '', ( 0.000000000000000, -3.46410161513775, 6.00000000000000 ) );
#393 = CARTESIAN_POINT( '', ( 0.000000000000000, 3.46410161513775, 6.00000000000000 ) );
#394 = VECTOR( '', #431, 1000.00000000000 );
#395 = CARTESIAN_POINT( '', ( 0.000000000000000, -3.46410161513775, 6.00000000000000 ) );
#396 = VECTOR( '', #432, 1000.00000000000 );
#397 = CARTESIAN_POINT( '', ( 0.000000000000000, 3.46410161513775, -6.00000000000000 ) );
#398 = VECTOR( '', #433, 1000.00000000000 );
#399 = COLOUR_RGB( '', 0.689999997600000, 0.689999997600000, 0.689999997600000 );
#400 = CARTESIAN_POINT( '', ( 6.00000000000000, -3.46410161513775, 6.00000000000000 ) );
#401 = VECTOR( '', #434, 1000.00000000000 );
#402 = COLOUR_RGB( '', 0.689999997600000, 0.689999997600000, 0.689999997600000 );
#403 = COLOUR_RGB( '', 0.689999997600000, 0.689999997600000, 0.689999997600000 );
#404 = COLOUR_RGB( '', 0.689999997600000, 0.689999997600000, 0.689999997600000 );
#405 = CARTESIAN_POINT( '', ( 11.5002467198171, 0.000000000000000, -11.8271477832790 ) );
#406 = AXIS2_PLACEMENT_3D( '', #435, #436, #437 );
#407 = COLOUR_RGB( '', 0.689999997600000, 0.689999997600000, 0.689999997600000 );
#408 = CARTESIAN_POINT( '', ( 0.499753280182863, 0.000000000000000, 0.000000000000000 ) );
#409 = DIRECTION( '', ( 1.00000000000000, 0.000000000000000, -0.000000000000000 ) );
#410 = DIRECTION( '', ( -0.000000000000000, 0.000000000000000, -1.00000000000000 ) );
#411 = CARTESIAN_POINT( '', ( -1.73472347597681E-15, 0.000000000000000, 0.000000000000000 ) );
#412 = DIRECTION( '', ( 1.00000000000000, 0.000000000000000, -0.000000000000000 ) );
#413 = DIRECTION( '', ( -0.000000000000000, 0.000000000000000, -1.00000000000000 ) );
#414 = DIRECTION( '', ( 0.000000000000000, 0.500000000000000, -0.866025403784439 ) );
#415 = DIRECTION( '', ( -1.00000000000000, -0.000000000000000, -0.000000000000000 ) );
#416 = DIRECTION( '', ( 0.000000000000000, 0.500000000000000, -0.866025403784439 ) );
#417 = DIRECTION( '', ( -1.00000000000000, -0.000000000000000, -0.000000000000000 ) );
#418 = DIRECTION( '', ( 0.000000000000000, -1.00000000000000, 0.000000000000000 ) );
#419 = DIRECTION( '', ( 0.000000000000000, -0.500000000000000, 0.866025403784439 ) );
#420 = DIRECTION( '', ( 0.000000000000000, 0.500000000000000, 0.866025403784439 ) );
#421 = DIRECTION( '', ( 0.000000000000000, 1.00000000000000, 0.000000000000000 ) );
#422 = DIRECTION( '', ( 0.000000000000000, -0.500000000000000, -0.866025403784439 ) );
#423 = CARTESIAN_POINT( '', ( 12.0000000000000, 0.000000000000000, 0.000000000000000 ) );
#424 = DIRECTION( '', ( 1.00000000000000, 0.000000000000000, -0.000000000000000 ) );
#425 = DIRECTION( '', ( -0.000000000000000, 0.000000000000000, -1.00000000000000 ) );
#426 = DIRECTION( '', ( 0.000000000000000, -0.500000000000000, 0.866025403784439 ) );
#427 = DIRECTION( '', ( -1.00000000000000, -0.000000000000000, -0.000000000000000 ) );
#428 = DIRECTION( '', ( -1.00000000000000, -0.000000000000000, -0.000000000000000 ) );
#429 = DIRECTION( '', ( 0.000000000000000, 1.00000000000000, 0.000000000000000 ) );
#430 = DIRECTION( '', ( -1.00000000000000, -0.000000000000000, -0.000000000000000 ) );
#431 = DIRECTION( '', ( 0.000000000000000, -1.00000000000000, 0.000000000000000 ) );
#432 = DIRECTION( '', ( 0.000000000000000, -0.500000000000000, -0.866025403784439 ) );
#433 = DIRECTION( '', ( 0.000000000000000, 0.500000000000000, 0.866025403784439 ) );
#434 = DIRECTION( '', ( -1.00000000000000, -0.000000000000000, -0.000000000000000 ) );
#435 = CARTESIAN_POINT( '', ( 11.5002467198171, 0.000000000000000, 0.000000000000000 ) );
#436 = DIRECTION( '', ( 1.00000000000000, 0.000000000000000, -0.000000000000000 ) );
#437 = DIRECTION( '', ( -0.000000000000000, 0.000000000000000, -1.00000000000000 ) );
ENDSEC;
END-ISO-10303-21;
