ISO-10303-21;
HEADER;
FILE_DESCRIPTION( ( 'STEP AP214' ), '1' );
FILE_NAME( '//goodhand-server/Shared Folders/GoodHand Data/Kipp CAD/K0390/K0390.201X80.stp', '2020-12-07T10:16:11', ( '' ), ( '' ), ' ', 'PARTsolutions', ' ' );
FILE_SCHEMA( ( 'AUTOMOTIVE_DESIGN { 1 0 10303 214 1 1 1 1 }' ) );
ENDSEC;
DATA;
#1 = MECHANICAL_DESIGN_GEOMETRIC_PRESENTATION_REPRESENTATION( ' ', ( #10, #11, #12, #13, #14, #15, #16, #17, #18, #19, #20, #21, #22 ), #6 );
#2 = PRODUCT_DEFINITION_CONTEXT( '', #23, 'design' );
#3 = APPLICATION_PROTOCOL_DEFINITION( 'international standard', 'automotive_design', 2001, #23 );
#4 = PRODUCT_CATEGORY_RELATIONSHIP( 'NONE', 'NONE', #24, #25 );
#5 = SHAPE_DEFINITION_REPRESENTATION( #26, #27 );
#6 =  ( GEOMETRIC_REPRESENTATION_CONTEXT( 3 )GLOBAL_UNCERTAINTY_ASSIGNED_CONTEXT( ( #30 ) )GLOBAL_UNIT_ASSIGNED_CONTEXT( ( #32, #33, #34 ) )REPRESENTATION_CONTEXT( 'NONE', 'WORKSPACE' ) );
#10 = STYLED_ITEM( '', ( #36 ), #37 );
#11 = STYLED_ITEM( '', ( #38 ), #39 );
#12 = STYLED_ITEM( '', ( #40 ), #41 );
#13 = STYLED_ITEM( '', ( #42 ), #43 );
#14 = STYLED_ITEM( '', ( #44 ), #45 );
#15 = STYLED_ITEM( '', ( #46 ), #47 );
#16 = STYLED_ITEM( '', ( #48 ), #49 );
#17 = STYLED_ITEM( '', ( #50 ), #51 );
#18 = STYLED_ITEM( '', ( #52 ), #53 );
#19 = STYLED_ITEM( '', ( #54 ), #55 );
#20 = STYLED_ITEM( '', ( #56 ), #57 );
#21 = STYLED_ITEM( '', ( #58 ), #59 );
#22 = STYLED_ITEM( '', ( #60 ), #61 );
#23 = APPLICATION_CONTEXT( 'core data for automotive mechanical design processes' );
#24 = PRODUCT_CATEGORY( 'part', 'NONE' );
#25 = PRODUCT_RELATED_PRODUCT_CATEGORY( 'detail', ' ', ( #62 ) );
#26 = PRODUCT_DEFINITION_SHAPE( 'NONE', 'NONE', #63 );
#27 = ADVANCED_BREP_SHAPE_REPRESENTATION( '_K0390.201X80', ( #64, #65 ), #6 );
#30 = UNCERTAINTY_MEASURE_WITH_UNIT( LENGTH_MEASURE( 0.00100000000000000 ), #32, '', '' );
#32 =  ( CONVERSION_BASED_UNIT( 'MILLIMETRE', #68 )LENGTH_UNIT(  )NAMED_UNIT( #71 ) );
#33 =  ( NAMED_UNIT( #73 )PLANE_ANGLE_UNIT(  )SI_UNIT( $, .RADIAN. ) );
#34 =  ( NAMED_UNIT( #73 )SI_UNIT( $, .STERADIAN. )SOLID_ANGLE_UNIT(  ) );
#36 = PRESENTATION_STYLE_ASSIGNMENT( ( #79 ) );
#37 = ADVANCED_FACE( '', ( #80, #81 ), #82, .T. );
#38 = PRESENTATION_STYLE_ASSIGNMENT( ( #83 ) );
#39 = ADVANCED_FACE( '', ( #84, #85 ), #86, .T. );
#40 = PRESENTATION_STYLE_ASSIGNMENT( ( #87 ) );
#41 = ADVANCED_FACE( '', ( #88 ), #89, .T. );
#42 = PRESENTATION_STYLE_ASSIGNMENT( ( #90 ) );
#43 = ADVANCED_FACE( '', ( #91 ), #92, .F. );
#44 = PRESENTATION_STYLE_ASSIGNMENT( ( #93 ) );
#45 = ADVANCED_FACE( '', ( #94 ), #95, .F. );
#46 = PRESENTATION_STYLE_ASSIGNMENT( ( #96 ) );
#47 = ADVANCED_FACE( '', ( #97 ), #98, .T. );
#48 = PRESENTATION_STYLE_ASSIGNMENT( ( #99 ) );
#49 = ADVANCED_FACE( '', ( #100, #101 ), #102, .F. );
#50 = PRESENTATION_STYLE_ASSIGNMENT( ( #103 ) );
#51 = ADVANCED_FACE( '', ( #104 ), #105, .F. );
#52 = PRESENTATION_STYLE_ASSIGNMENT( ( #106 ) );
#53 = ADVANCED_FACE( '', ( #107, #108 ), #109, .T. );
#54 = PRESENTATION_STYLE_ASSIGNMENT( ( #110 ) );
#55 = ADVANCED_FACE( '', ( #111 ), #112, .T. );
#56 = PRESENTATION_STYLE_ASSIGNMENT( ( #113 ) );
#57 = ADVANCED_FACE( '', ( #114 ), #115, .F. );
#58 = PRESENTATION_STYLE_ASSIGNMENT( ( #116 ) );
#59 = ADVANCED_FACE( '', ( #117, #118 ), #119, .T. );
#60 = PRESENTATION_STYLE_ASSIGNMENT( ( #120 ) );
#61 = ADVANCED_FACE( '', ( #121, #122 ), #123, .T. );
#62 = PRODUCT( '_K0390.201X80', '_K0390.201X80', 'PART-_K0390.201X80-DESC', ( #124 ) );
#63 = PRODUCT_DEFINITION( 'NONE', 'NONE', #125, #2 );
#64 = MANIFOLD_SOLID_BREP( '_K0390.201X80', #126 );
#65 = AXIS2_PLACEMENT_3D( '', #127, #128, #129 );
#68 = LENGTH_MEASURE_WITH_UNIT( LENGTH_MEASURE( 1.00000000000000 ), #130 );
#71 = DIMENSIONAL_EXPONENTS( 1.00000000000000, 0.000000000000000, 0.000000000000000, 0.000000000000000, 0.000000000000000, 0.000000000000000, 0.000000000000000 );
#73 = DIMENSIONAL_EXPONENTS( 0.000000000000000, 0.000000000000000, 0.000000000000000, 0.000000000000000, 0.000000000000000, 0.000000000000000, 0.000000000000000 );
#79 = SURFACE_STYLE_USAGE( .BOTH., #131 );
#80 = FACE_OUTER_BOUND( '', #132, .T. );
#81 = FACE_OUTER_BOUND( '', #133, .T. );
#82 = CYLINDRICAL_SURFACE( '', #134, 7.20000000000000 );
#83 = SURFACE_STYLE_USAGE( .BOTH., #135 );
#84 = FACE_BOUND( '', #136, .T. );
#85 = FACE_OUTER_BOUND( '', #137, .T. );
#86 = CONICAL_SURFACE( '', #138, 10.0000000000000, 1.12234211560000 );
#87 = SURFACE_STYLE_USAGE( .BOTH., #139 );
#88 = FACE_OUTER_BOUND( '', #140, .T. );
#89 = CONICAL_SURFACE( '', #141, 8.46650000000000, 0.785398163400000 );
#90 = SURFACE_STYLE_USAGE( .BOTH., #142 );
#91 = FACE_OUTER_BOUND( '', #143, .T. );
#92 = PLANE( '', #144 );
#93 = SURFACE_STYLE_USAGE( .BOTH., #145 );
#94 = FACE_OUTER_BOUND( '', #146, .T. );
#95 = PLANE( '', #147 );
#96 = SURFACE_STYLE_USAGE( .BOTH., #148 );
#97 = FACE_OUTER_BOUND( '', #149, .T. );
#98 = PLANE( '', #150 );
#99 = SURFACE_STYLE_USAGE( .BOTH., #151 );
#100 = FACE_OUTER_BOUND( '', #152, .T. );
#101 = FACE_BOUND( '', #153, .T. );
#102 = PLANE( '', #154 );
#103 = SURFACE_STYLE_USAGE( .BOTH., #155 );
#104 = FACE_OUTER_BOUND( '', #156, .T. );
#105 = PLANE( '', #157 );
#106 = SURFACE_STYLE_USAGE( .BOTH., #158 );
#107 = FACE_BOUND( '', #159, .T. );
#108 = FACE_OUTER_BOUND( '', #160, .T. );
#109 = SPHERICAL_SURFACE( '', #161, 12.9998500000000 );
#110 = SURFACE_STYLE_USAGE( .BOTH., #162 );
#111 = FACE_OUTER_BOUND( '', #163, .T. );
#112 = CONICAL_SURFACE( '', #164, 8.46650000000000, 0.785398163400000 );
#113 = SURFACE_STYLE_USAGE( .BOTH., #165 );
#114 = FACE_OUTER_BOUND( '', #166, .T. );
#115 = PLANE( '', #167 );
#116 = SURFACE_STYLE_USAGE( .BOTH., #168 );
#117 = FACE_OUTER_BOUND( '', #169, .T. );
#118 = FACE_OUTER_BOUND( '', #170, .T. );
#119 = CYLINDRICAL_SURFACE( '', #171, 10.0000000000000 );
#120 = SURFACE_STYLE_USAGE( .BOTH., #172 );
#121 = FACE_OUTER_BOUND( '', #173, .T. );
#122 = FACE_OUTER_BOUND( '', #174, .T. );
#123 = CYLINDRICAL_SURFACE( '', #175, 7.75000000000000 );
#124 = PRODUCT_CONTEXT( '', #23, 'mechanical' );
#125 = PRODUCT_DEFINITION_FORMATION_WITH_SPECIFIED_SOURCE( ' ', 'NONE', #62, .NOT_KNOWN. );
#126 = CLOSED_SHELL( '', ( #51, #43, #53, #61, #49, #37, #39, #59, #55, #57, #41, #45, #47 ) );
#127 = CARTESIAN_POINT( '', ( 0.000000000000000, 0.000000000000000, 0.000000000000000 ) );
#128 = DIRECTION( '', ( 0.000000000000000, 0.000000000000000, 1.00000000000000 ) );
#129 = DIRECTION( '', ( 1.00000000000000, 0.000000000000000, 0.000000000000000 ) );
#130 =  ( LENGTH_UNIT(  )NAMED_UNIT( #71 )SI_UNIT( .MILLI., .METRE. ) );
#131 = SURFACE_SIDE_STYLE( '', ( #177 ) );
#132 = EDGE_LOOP( '', ( #178 ) );
#133 = EDGE_LOOP( '', ( #179 ) );
#134 = AXIS2_PLACEMENT_3D( '', #180, #181, #182 );
#135 = SURFACE_SIDE_STYLE( '', ( #183 ) );
#136 = EDGE_LOOP( '', ( #184 ) );
#137 = EDGE_LOOP( '', ( #185 ) );
#138 = AXIS2_PLACEMENT_3D( '', #186, #187, #188 );
#139 = SURFACE_SIDE_STYLE( '', ( #189 ) );
#140 = EDGE_LOOP( '', ( #190, #191, #192, #193 ) );
#141 = AXIS2_PLACEMENT_3D( '', #194, #195, #196 );
#142 = SURFACE_SIDE_STYLE( '', ( #197 ) );
#143 = EDGE_LOOP( '', ( #198, #199, #200, #201, #202, #203 ) );
#144 = AXIS2_PLACEMENT_3D( '', #204, #205, #206 );
#145 = SURFACE_SIDE_STYLE( '', ( #207 ) );
#146 = EDGE_LOOP( '', ( #208, #209 ) );
#147 = AXIS2_PLACEMENT_3D( '', #210, #211, #212 );
#148 = SURFACE_SIDE_STYLE( '', ( #213 ) );
#149 = EDGE_LOOP( '', ( #214, #215, #216, #217 ) );
#150 = AXIS2_PLACEMENT_3D( '', #218, #219, #220 );
#151 = SURFACE_SIDE_STYLE( '', ( #221 ) );
#152 = EDGE_LOOP( '', ( #222 ) );
#153 = EDGE_LOOP( '', ( #223 ) );
#154 = AXIS2_PLACEMENT_3D( '', #224, #225, #226 );
#155 = SURFACE_SIDE_STYLE( '', ( #227 ) );
#156 = EDGE_LOOP( '', ( #228, #229, #230, #231, #232, #233 ) );
#157 = AXIS2_PLACEMENT_3D( '', #234, #235, #236 );
#158 = SURFACE_SIDE_STYLE( '', ( #237 ) );
#159 = VERTEX_LOOP( '', #238 );
#160 = EDGE_LOOP( '', ( #239 ) );
#161 = AXIS2_PLACEMENT_3D( '', #240, #241, #242 );
#162 = SURFACE_SIDE_STYLE( '', ( #243 ) );
#163 = EDGE_LOOP( '', ( #244, #245, #246, #247 ) );
#164 = AXIS2_PLACEMENT_3D( '', #248, #249, #250 );
#165 = SURFACE_SIDE_STYLE( '', ( #251 ) );
#166 = EDGE_LOOP( '', ( #252, #253 ) );
#167 = AXIS2_PLACEMENT_3D( '', #254, #255, #256 );
#168 = SURFACE_SIDE_STYLE( '', ( #257 ) );
#169 = EDGE_LOOP( '', ( #258 ) );
#170 = EDGE_LOOP( '', ( #259, #260, #261, #262, #263, #264, #265, #266 ) );
#171 = AXIS2_PLACEMENT_3D( '', #267, #268, #269 );
#172 = SURFACE_SIDE_STYLE( '', ( #270 ) );
#173 = EDGE_LOOP( '', ( #271 ) );
#174 = EDGE_LOOP( '', ( #272 ) );
#175 = AXIS2_PLACEMENT_3D( '', #273, #274, #275 );
#177 = SURFACE_STYLE_FILL_AREA( #276 );
#178 = ORIENTED_EDGE( '', *, *, #277, .F. );
#179 = ORIENTED_EDGE( '', *, *, #278, .T. );
#180 = CARTESIAN_POINT( '', ( 80.0000000000000, -1.95399252334028E-14, 0.000000000000000 ) );
#181 = DIRECTION( '', ( -1.00000000000000, 6.12323399573676E-17, 0.000000000000000 ) );
#182 = DIRECTION( '', ( 6.12323399573676E-17, 1.00000000000000, 0.000000000000000 ) );
#183 = SURFACE_STYLE_FILL_AREA( #279 );
#184 = ORIENTED_EDGE( '', *, *, #278, .F. );
#185 = ORIENTED_EDGE( '', *, *, #280, .T. );
#186 = CARTESIAN_POINT( '', ( 66.0000000000000, -1.86826724739996E-14, 0.000000000000000 ) );
#187 = DIRECTION( '', ( -1.00000000000000, 6.12323399573676E-17, -0.000000000000000 ) );
#188 = DIRECTION( '', ( -6.12323399573676E-17, -1.00000000000000, 0.000000000000000 ) );
#189 = SURFACE_STYLE_FILL_AREA( #281 );
#190 = ORIENTED_EDGE( '', *, *, #282, .F. );
#191 = ORIENTED_EDGE( '', *, *, #283, .T. );
#192 = ORIENTED_EDGE( '', *, *, #284, .T. );
#193 = ORIENTED_EDGE( '', *, *, #285, .T. );
#194 = CARTESIAN_POINT( '', ( -1.38777878078145E-14, -1.46413380368133E-14, 0.000000000000000 ) );
#195 = DIRECTION( '', ( 1.00000000000000, -6.12323399573676E-17, -0.000000000000000 ) );
#196 = DIRECTION( '', ( 6.12323399573676E-17, 1.00000000000000, 0.000000000000000 ) );
#197 = SURFACE_STYLE_FILL_AREA( #286 );
#198 = ORIENTED_EDGE( '', *, *, #287, .T. );
#199 = ORIENTED_EDGE( '', *, *, #283, .F. );
#200 = ORIENTED_EDGE( '', *, *, #288, .F. );
#201 = ORIENTED_EDGE( '', *, *, #289, .F. );
#202 = ORIENTED_EDGE( '', *, *, #290, .F. );
#203 = ORIENTED_EDGE( '', *, *, #285, .F. );
#204 = CARTESIAN_POINT( '', ( 2.99999999999999, -0.900000000000015, -10.5000000000000 ) );
#205 = DIRECTION( '', ( 0.000000000000000, -1.00000000000000, 0.000000000000000 ) );
#206 = DIRECTION( '', ( 0.000000000000000, 0.000000000000000, -1.00000000000000 ) );
#207 = SURFACE_STYLE_FILL_AREA( #291 );
#208 = ORIENTED_EDGE( '', *, *, #292, .F. );
#209 = ORIENTED_EDGE( '', *, *, #293, .F. );
#210 = CARTESIAN_POINT( '', ( -1.44700665183265E-14, -1.46413380368133E-14, 0.000000000000000 ) );
#211 = DIRECTION( '', ( 1.00000000000000, -6.12323399573676E-17, -0.000000000000000 ) );
#212 = DIRECTION( '', ( 6.12323399573676E-17, 1.00000000000000, 0.000000000000000 ) );
#213 = SURFACE_STYLE_FILL_AREA( #294 );
#214 = ORIENTED_EDGE( '', *, *, #295, .T. );
#215 = ORIENTED_EDGE( '', *, *, #289, .T. );
#216 = ORIENTED_EDGE( '', *, *, #296, .T. );
#217 = ORIENTED_EDGE( '', *, *, #297, .T. );
#218 = CARTESIAN_POINT( '', ( 2.99999999999999, 0.000000000000000, 0.000000000000000 ) );
#219 = DIRECTION( '', ( -1.00000000000000, 0.000000000000000, 0.000000000000000 ) );
#220 = DIRECTION( '', ( 0.000000000000000, 0.000000000000000, 1.00000000000000 ) );
#221 = SURFACE_STYLE_FILL_AREA( #298 );
#222 = ORIENTED_EDGE( '', *, *, #299, .F. );
#223 = ORIENTED_EDGE( '', *, *, #277, .T. );
#224 = CARTESIAN_POINT( '', ( 74.5000000000000, 7.19999999999998, 0.000000000000000 ) );
#225 = DIRECTION( '', ( 1.00000000000000, -6.12323399573676E-17, -0.000000000000000 ) );
#226 = DIRECTION( '', ( 6.12323399573676E-17, 1.00000000000000, 0.000000000000000 ) );
#227 = SURFACE_STYLE_FILL_AREA( #300 );
#228 = ORIENTED_EDGE( '', *, *, #301, .F. );
#229 = ORIENTED_EDGE( '', *, *, #293, .T. );
#230 = ORIENTED_EDGE( '', *, *, #302, .F. );
#231 = ORIENTED_EDGE( '', *, *, #303, .F. );
#232 = ORIENTED_EDGE( '', *, *, #297, .F. );
#233 = ORIENTED_EDGE( '', *, *, #304, .F. );
#234 = CARTESIAN_POINT( '', ( 2.99999999999999, 0.899999999999985, 10.5000000000000 ) );
#235 = DIRECTION( '', ( 0.000000000000000, 1.00000000000000, 0.000000000000000 ) );
#236 = DIRECTION( '', ( 0.000000000000000, -0.000000000000000, 1.00000000000000 ) );
#237 = SURFACE_STYLE_FILL_AREA( #305 );
#238 = VERTEX_POINT( '', #306 );
#239 = ORIENTED_EDGE( '', *, *, #307, .T. );
#240 = CARTESIAN_POINT( '', ( 67.0001500000002, 2.42861286636753E-14, 0.000000000000000 ) );
#241 = DIRECTION( '', ( 1.00000000000000, 0.000000000000000, 0.000000000000000 ) );
#242 = DIRECTION( '', ( 0.000000000000000, -1.00000000000000, 0.000000000000000 ) );
#243 = SURFACE_STYLE_FILL_AREA( #308 );
#244 = ORIENTED_EDGE( '', *, *, #292, .T. );
#245 = ORIENTED_EDGE( '', *, *, #301, .T. );
#246 = ORIENTED_EDGE( '', *, *, #309, .F. );
#247 = ORIENTED_EDGE( '', *, *, #302, .T. );
#248 = CARTESIAN_POINT( '', ( -1.38777878078145E-14, -1.46413380368133E-14, 0.000000000000000 ) );
#249 = DIRECTION( '', ( 1.00000000000000, -6.12323399573676E-17, -0.000000000000000 ) );
#250 = DIRECTION( '', ( 6.12323399573676E-17, 1.00000000000000, 0.000000000000000 ) );
#251 = SURFACE_STYLE_FILL_AREA( #310 );
#252 = ORIENTED_EDGE( '', *, *, #284, .F. );
#253 = ORIENTED_EDGE( '', *, *, #287, .F. );
#254 = CARTESIAN_POINT( '', ( -1.44700665183265E-14, -1.46413380368133E-14, 0.000000000000000 ) );
#255 = DIRECTION( '', ( 1.00000000000000, -6.12323399573676E-17, -0.000000000000000 ) );
#256 = DIRECTION( '', ( 6.12323399573676E-17, 1.00000000000000, 0.000000000000000 ) );
#257 = SURFACE_STYLE_FILL_AREA( #311 );
#258 = ORIENTED_EDGE( '', *, *, #280, .F. );
#259 = ORIENTED_EDGE( '', *, *, #282, .T. );
#260 = ORIENTED_EDGE( '', *, *, #290, .T. );
#261 = ORIENTED_EDGE( '', *, *, #295, .F. );
#262 = ORIENTED_EDGE( '', *, *, #303, .T. );
#263 = ORIENTED_EDGE( '', *, *, #309, .T. );
#264 = ORIENTED_EDGE( '', *, *, #304, .T. );
#265 = ORIENTED_EDGE( '', *, *, #296, .F. );
#266 = ORIENTED_EDGE( '', *, *, #288, .T. );
#267 = CARTESIAN_POINT( '', ( 80.0000000000000, -1.95399252334028E-14, 0.000000000000000 ) );
#268 = DIRECTION( '', ( -1.00000000000000, 6.12323399573676E-17, 0.000000000000000 ) );
#269 = DIRECTION( '', ( 6.12323399573676E-17, 1.00000000000000, 0.000000000000000 ) );
#270 = SURFACE_STYLE_FILL_AREA( #312 );
#271 = ORIENTED_EDGE( '', *, *, #307, .F. );
#272 = ORIENTED_EDGE( '', *, *, #299, .T. );
#273 = CARTESIAN_POINT( '', ( 80.0000000000000, -1.95399252334028E-14, 0.000000000000000 ) );
#274 = DIRECTION( '', ( -1.00000000000000, 6.12323399573676E-17, 0.000000000000000 ) );
#275 = DIRECTION( '', ( 6.12323399573676E-17, 1.00000000000000, 0.000000000000000 ) );
#276 = FILL_AREA_STYLE( '', ( #313 ) );
#277 = EDGE_CURVE( '', #314, #314, #315, .T. );
#278 = EDGE_CURVE( '', #316, #316, #317, .T. );
#279 = FILL_AREA_STYLE( '', ( #318 ) );
#280 = EDGE_CURVE( '', #319, #319, #320, .T. );
#281 = FILL_AREA_STYLE( '', ( #321 ) );
#282 = EDGE_CURVE( '', #322, #323, #324, .T. );
#283 = EDGE_CURVE( '', #322, #325, #326, .T. );
#284 = EDGE_CURVE( '', #325, #327, #328, .T. );
#285 = EDGE_CURVE( '', #327, #323, #329, .T. );
#286 = FILL_AREA_STYLE( '', ( #330 ) );
#287 = EDGE_CURVE( '', #327, #325, #331, .T. );
#288 = EDGE_CURVE( '', #332, #322, #333, .F. );
#289 = EDGE_CURVE( '', #334, #332, #335, .T. );
#290 = EDGE_CURVE( '', #323, #334, #336, .T. );
#291 = FILL_AREA_STYLE( '', ( #337 ) );
#292 = EDGE_CURVE( '', #338, #339, #340, .T. );
#293 = EDGE_CURVE( '', #339, #338, #341, .T. );
#294 = FILL_AREA_STYLE( '', ( #342 ) );
#295 = EDGE_CURVE( '', #343, #334, #344, .T. );
#296 = EDGE_CURVE( '', #332, #345, #346, .T. );
#297 = EDGE_CURVE( '', #345, #343, #347, .T. );
#298 = FILL_AREA_STYLE( '', ( #348 ) );
#299 = EDGE_CURVE( '', #349, #349, #350, .T. );
#300 = FILL_AREA_STYLE( '', ( #351 ) );
#301 = EDGE_CURVE( '', #339, #352, #353, .T. );
#302 = EDGE_CURVE( '', #354, #338, #355, .T. );
#303 = EDGE_CURVE( '', #343, #354, #356, .F. );
#304 = EDGE_CURVE( '', #352, #345, #357, .T. );
#305 = FILL_AREA_STYLE( '', ( #358 ) );
#306 = CARTESIAN_POINT( '', ( 80.0000000000000, 2.26941061944858E-14, 0.000000000000000 ) );
#307 = EDGE_CURVE( '', #359, #359, #360, .T. );
#308 = FILL_AREA_STYLE( '', ( #361 ) );
#309 = EDGE_CURVE( '', #354, #352, #362, .T. );
#310 = FILL_AREA_STYLE( '', ( #363 ) );
#311 = FILL_AREA_STYLE( '', ( #364 ) );
#312 = FILL_AREA_STYLE( '', ( #365 ) );
#313 = FILL_AREA_STYLE_COLOUR( '', #366 );
#314 = VERTEX_POINT( '', #367 );
#315 = CIRCLE( '', #368, 7.20000000000000 );
#316 = VERTEX_POINT( '', #369 );
#317 = CIRCLE( '', #370, 7.20000000000000 );
#318 = FILL_AREA_STYLE_COLOUR( '', #371 );
#319 = VERTEX_POINT( '', #372 );
#320 = CIRCLE( '', #373, 10.0000000000000 );
#321 = FILL_AREA_STYLE_COLOUR( '', #374 );
#322 = VERTEX_POINT( '', #375 );
#323 = VERTEX_POINT( '', #376 );
#324 = CIRCLE( '', #377, 10.0000000000000 );
#325 = VERTEX_POINT( '', #378 );
#326 = B_SPLINE_CURVE_WITH_KNOTS( '', 3, ( #379, #380, #381, #382 ), .UNSPECIFIED., .F., .F., ( 4, 4 ), ( 0.0170363399290314, 0.0192102676191475 ), .UNSPECIFIED. );
#327 = VERTEX_POINT( '', #383 );
#328 = CIRCLE( '', #384, 8.46650000000000 );
#329 = B_SPLINE_CURVE_WITH_KNOTS( '', 3, ( #385, #386, #387, #388 ), .UNSPECIFIED., .F., .F., ( 4, 4 ), ( 0.0420335464893133, 0.0442124251860489 ), .UNSPECIFIED. );
#330 = FILL_AREA_STYLE_COLOUR( '', #389 );
#331 = LINE( '', #390, #391 );
#332 = VERTEX_POINT( '', #392 );
#333 = LINE( '', #393, #394 );
#334 = VERTEX_POINT( '', #395 );
#335 = LINE( '', #396, #397 );
#336 = LINE( '', #398, #399 );
#337 = FILL_AREA_STYLE_COLOUR( '', #400 );
#338 = VERTEX_POINT( '', #401 );
#339 = VERTEX_POINT( '', #402 );
#340 = CIRCLE( '', #403, 8.46650000000000 );
#341 = LINE( '', #404, #405 );
#342 = FILL_AREA_STYLE_COLOUR( '', #406 );
#343 = VERTEX_POINT( '', #407 );
#344 = CIRCLE( '', #408, 10.0000000000000 );
#345 = VERTEX_POINT( '', #409 );
#346 = CIRCLE( '', #410, 10.0000000000000 );
#347 = LINE( '', #411, #412 );
#348 = FILL_AREA_STYLE_COLOUR( '', #413 );
#349 = VERTEX_POINT( '', #414 );
#350 = CIRCLE( '', #415, 7.75000000000000 );
#351 = FILL_AREA_STYLE_COLOUR( '', #416 );
#352 = VERTEX_POINT( '', #417 );
#353 = B_SPLINE_CURVE_WITH_KNOTS( '', 3, ( #418, #419, #420, #421 ), .UNSPECIFIED., .F., .F., ( 4, 4 ), ( 0.0420335464893133, 0.0442124251860489 ), .UNSPECIFIED. );
#354 = VERTEX_POINT( '', #422 );
#355 = B_SPLINE_CURVE_WITH_KNOTS( '', 3, ( #423, #424, #425, #426 ), .UNSPECIFIED., .F., .F., ( 4, 4 ), ( 0.0170363399290314, 0.0192102676191475 ), .UNSPECIFIED. );
#356 = LINE( '', #427, #428 );
#357 = LINE( '', #429, #430 );
#358 = FILL_AREA_STYLE_COLOUR( '', #431 );
#359 = VERTEX_POINT( '', #432 );
#360 = CIRCLE( '', #433, 7.75000000000000 );
#361 = FILL_AREA_STYLE_COLOUR( '', #434 );
#362 = CIRCLE( '', #435, 10.0000000000000 );
#363 = FILL_AREA_STYLE_COLOUR( '', #436 );
#364 = FILL_AREA_STYLE_COLOUR( '', #437 );
#365 = FILL_AREA_STYLE_COLOUR( '', #438 );
#366 = COLOUR_RGB( '', 0.689999997600000, 0.689999997600000, 0.689999997600000 );
#367 = CARTESIAN_POINT( '', ( 74.5000000000000, 7.19999999999998, 0.000000000000000 ) );
#368 = AXIS2_PLACEMENT_3D( '', #439, #440, #441 );
#369 = CARTESIAN_POINT( '', ( 67.3472200000000, 7.19999999999998, 0.000000000000000 ) );
#370 = AXIS2_PLACEMENT_3D( '', #442, #443, #444 );
#371 = COLOUR_RGB( '', 0.689999997600000, 0.689999997600000, 0.689999997600000 );
#372 = CARTESIAN_POINT( '', ( 66.0000000000000, 9.99999999999998, 0.000000000000000 ) );
#373 = AXIS2_PLACEMENT_3D( '', #445, #446, #447 );
#374 = COLOUR_RGB( '', 0.689999997600000, 0.689999997600000, 0.689999997600000 );
#375 = CARTESIAN_POINT( '', ( 1.53349999999999, -0.900000000000010, 9.95941765365827 ) );
#376 = CARTESIAN_POINT( '', ( 1.53349999999999, -0.900000000000010, -9.95941765365827 ) );
#377 = AXIS2_PLACEMENT_3D( '', #448, #449, #450 );
#378 = CARTESIAN_POINT( '', ( -1.42108547152020E-14, -0.900000000000014, 8.41852850859341 ) );
#379 = CARTESIAN_POINT( '', ( 1.53349999999999, -0.900000000000015, 9.95941765365828 ) );
#380 = CARTESIAN_POINT( '', ( 1.02214317772919, -0.900000000000015, 9.44597716943181 ) );
#381 = CARTESIAN_POINT( '', ( 0.510941888387704, -0.900000000000015, 8.93238190869996 ) );
#382 = CARTESIAN_POINT( '', ( -1.57052458301803E-14, -0.900000000000015, 8.41852850859341 ) );
#383 = CARTESIAN_POINT( '', ( -1.42108547152020E-14, -0.900000000000014, -8.41852850859341 ) );
#384 = AXIS2_PLACEMENT_3D( '', #451, #452, #453 );
#385 = CARTESIAN_POINT( '', ( -1.69103246552106E-14, -0.900000000000015, -8.41852850859341 ) );
#386 = CARTESIAN_POINT( '', ( 0.510941899449493, -0.900000000000015, -8.93238191982478 ) );
#387 = CARTESIAN_POINT( '', ( 1.02214318709473, -0.900000000000015, -9.44597717883551 ) );
#388 = CARTESIAN_POINT( '', ( 1.53349999999999, -0.900000000000015, -9.95941765365828 ) );
#389 = COLOUR_RGB( '', 0.689999997600000, 0.689999997600000, 0.689999997600000 );
#390 = CARTESIAN_POINT( '', ( -1.42108547152020E-14, -0.900000000000015, -10.5000000000000 ) );
#391 = VECTOR( '', #454, 1000.00000000000 );
#392 = CARTESIAN_POINT( '', ( 2.99999999999999, -0.900000000000014, 9.95941765365827 ) );
#393 = CARTESIAN_POINT( '', ( 80.0000000000000, -0.900000000000015, 9.95941765365827 ) );
#394 = VECTOR( '', #455, 1000.00000000000 );
#395 = CARTESIAN_POINT( '', ( 2.99999999999999, -0.900000000000014, -9.95941765365827 ) );
#396 = CARTESIAN_POINT( '', ( 2.99999999999999, -0.900000000000015, -10.5000000000000 ) );
#397 = VECTOR( '', #456, 1000.00000000000 );
#398 = CARTESIAN_POINT( '', ( 80.0000000000000, -0.900000000000015, -9.95941765365827 ) );
#399 = VECTOR( '', #457, 1000.00000000000 );
#400 = COLOUR_RGB( '', 0.689999997600000, 0.689999997600000, 0.689999997600000 );
#401 = CARTESIAN_POINT( '', ( -1.42108547152020E-14, 0.899999999999985, -8.41852850859341 ) );
#402 = CARTESIAN_POINT( '', ( -1.42108547152020E-14, 0.899999999999985, 8.41852850859341 ) );
#403 = AXIS2_PLACEMENT_3D( '', #458, #459, #460 );
#404 = CARTESIAN_POINT( '', ( -1.42108547152020E-14, 0.899999999999985, 10.5000000000000 ) );
#405 = VECTOR( '', #461, 1000.00000000000 );
#406 = COLOUR_RGB( '', 0.689999997600000, 0.689999997600000, 0.689999997600000 );
#407 = CARTESIAN_POINT( '', ( 2.99999999999999, 0.899999999999985, -9.95941765365827 ) );
#408 = AXIS2_PLACEMENT_3D( '', #462, #463, #464 );
#409 = CARTESIAN_POINT( '', ( 2.99999999999999, 0.899999999999985, 9.95941765365827 ) );
#410 = AXIS2_PLACEMENT_3D( '', #465, #466, #467 );
#411 = CARTESIAN_POINT( '', ( 2.99999999999999, 0.899999999999985, 10.5000000000000 ) );
#412 = VECTOR( '', #468, 1000.00000000000 );
#413 = COLOUR_RGB( '', 0.689999997600000, 0.689999997600000, 0.689999997600000 );
#414 = CARTESIAN_POINT( '', ( 74.5000000000000, 7.74999999999998, 0.000000000000000 ) );
#415 = AXIS2_PLACEMENT_3D( '', #469, #470, #471 );
#416 = COLOUR_RGB( '', 0.689999997600000, 0.689999997600000, 0.689999997600000 );
#417 = CARTESIAN_POINT( '', ( 1.53349999999999, 0.899999999999990, 9.95941765365827 ) );
#418 = CARTESIAN_POINT( '', ( -1.70700571864519E-14, 0.899999999999985, 8.41852850859341 ) );
#419 = CARTESIAN_POINT( '', ( 0.510941899449493, 0.899999999999985, 8.93238191982478 ) );
#420 = CARTESIAN_POINT( '', ( 1.02214318709473, 0.899999999999985, 9.44597717883551 ) );
#421 = CARTESIAN_POINT( '', ( 1.53349999999998, 0.899999999999985, 9.95941765365827 ) );
#422 = CARTESIAN_POINT( '', ( 1.53349999999999, 0.899999999999990, -9.95941765365827 ) );
#423 = CARTESIAN_POINT( '', ( 1.53349999999998, 0.899999999999985, -9.95941765365827 ) );
#424 = CARTESIAN_POINT( '', ( 1.02214317772919, 0.899999999999985, -9.44597716943180 ) );
#425 = CARTESIAN_POINT( '', ( 0.510941888387706, 0.899999999999985, -8.93238190869996 ) );
#426 = CARTESIAN_POINT( '', ( -1.13101637653488E-14, 0.899999999999985, -8.41852850859341 ) );
#427 = CARTESIAN_POINT( '', ( 80.0000000000000, 0.899999999999985, -9.95941765365827 ) );
#428 = VECTOR( '', #472, 1000.00000000000 );
#429 = CARTESIAN_POINT( '', ( 80.0000000000000, 0.899999999999985, 9.95941765365827 ) );
#430 = VECTOR( '', #473, 1000.00000000000 );
#431 = COLOUR_RGB( '', 0.689999997600000, 0.689999997600000, 0.689999997600000 );
#432 = CARTESIAN_POINT( '', ( 77.4372760422829, 7.74999999999998, 0.000000000000000 ) );
#433 = AXIS2_PLACEMENT_3D( '', #474, #475, #476 );
#434 = COLOUR_RGB( '', 0.689999997600000, 0.689999997600000, 0.689999997600000 );
#435 = AXIS2_PLACEMENT_3D( '', #477, #478, #479 );
#436 = COLOUR_RGB( '', 0.689999997600000, 0.689999997600000, 0.689999997600000 );
#437 = COLOUR_RGB( '', 0.689999997600000, 0.689999997600000, 0.689999997600000 );
#438 = COLOUR_RGB( '', 0.689999997600000, 0.689999997600000, 0.689999997600000 );
#439 = CARTESIAN_POINT( '', ( 74.5000000000000, -1.92031473636372E-14, 0.000000000000000 ) );
#440 = DIRECTION( '', ( 1.00000000000000, -6.12323399573676E-17, -0.000000000000000 ) );
#441 = DIRECTION( '', ( 6.12323399573676E-17, 1.00000000000000, 0.000000000000000 ) );
#442 = CARTESIAN_POINT( '', ( 67.3472200000000, -1.87651659070370E-14, 0.000000000000000 ) );
#443 = DIRECTION( '', ( 1.00000000000000, -6.12323399573676E-17, -0.000000000000000 ) );
#444 = DIRECTION( '', ( 6.12323399573676E-17, 1.00000000000000, 0.000000000000000 ) );
#445 = CARTESIAN_POINT( '', ( 66.0000000000000, -1.86826724739996E-14, 0.000000000000000 ) );
#446 = DIRECTION( '', ( 1.00000000000000, -6.12323399573676E-17, -0.000000000000000 ) );
#447 = DIRECTION( '', ( 6.12323399573676E-17, 1.00000000000000, 0.000000000000000 ) );
#448 = CARTESIAN_POINT( '', ( 1.53349999999998, -1.47352378301380E-14, 0.000000000000000 ) );
#449 = DIRECTION( '', ( 1.00000000000000, -6.12323399573676E-17, -0.000000000000000 ) );
#450 = DIRECTION( '', ( 6.12323399573676E-17, 1.00000000000000, 0.000000000000000 ) );
#451 = CARTESIAN_POINT( '', ( -1.38777878078145E-14, -1.46413380368133E-14, 0.000000000000000 ) );
#452 = DIRECTION( '', ( 1.00000000000000, -6.12323399573676E-17, -0.000000000000000 ) );
#453 = DIRECTION( '', ( 6.12323399573676E-17, 1.00000000000000, 0.000000000000000 ) );
#454 = DIRECTION( '', ( 0.000000000000000, 0.000000000000000, 1.00000000000000 ) );
#455 = DIRECTION( '', ( 1.00000000000000, -6.12323399573676E-17, -0.000000000000000 ) );
#456 = DIRECTION( '', ( 0.000000000000000, 0.000000000000000, 1.00000000000000 ) );
#457 = DIRECTION( '', ( 1.00000000000000, -6.12323399573676E-17, -0.000000000000000 ) );
#458 = CARTESIAN_POINT( '', ( -1.38777878078145E-14, -1.46413380368133E-14, 0.000000000000000 ) );
#459 = DIRECTION( '', ( 1.00000000000000, -6.12323399573676E-17, -0.000000000000000 ) );
#460 = DIRECTION( '', ( 6.12323399573676E-17, 1.00000000000000, 0.000000000000000 ) );
#461 = DIRECTION( '', ( 0.000000000000000, 0.000000000000000, -1.00000000000000 ) );
#462 = CARTESIAN_POINT( '', ( 2.99999999999999, -1.48250350566854E-14, 0.000000000000000 ) );
#463 = DIRECTION( '', ( -1.00000000000000, 0.000000000000000, 0.000000000000000 ) );
#464 = DIRECTION( '', ( 0.000000000000000, 0.000000000000000, 1.00000000000000 ) );
#465 = CARTESIAN_POINT( '', ( 2.99999999999999, -1.48250350566854E-14, 0.000000000000000 ) );
#466 = DIRECTION( '', ( -1.00000000000000, 0.000000000000000, 0.000000000000000 ) );
#467 = DIRECTION( '', ( 0.000000000000000, 0.000000000000000, 1.00000000000000 ) );
#468 = DIRECTION( '', ( 0.000000000000000, 0.000000000000000, -1.00000000000000 ) );
#469 = CARTESIAN_POINT( '', ( 74.5000000000000, -1.92031473636372E-14, 0.000000000000000 ) );
#470 = DIRECTION( '', ( 1.00000000000000, -6.12323399573676E-17, -0.000000000000000 ) );
#471 = DIRECTION( '', ( 6.12323399573676E-17, 1.00000000000000, 0.000000000000000 ) );
#472 = DIRECTION( '', ( 1.00000000000000, -6.12323399573676E-17, -0.000000000000000 ) );
#473 = DIRECTION( '', ( 1.00000000000000, -6.12323399573676E-17, -0.000000000000000 ) );
#474 = CARTESIAN_POINT( '', ( 77.4372760422829, -1.93830036488069E-14, 0.000000000000000 ) );
#475 = DIRECTION( '', ( 1.00000000000000, -6.12323399573676E-17, -0.000000000000000 ) );
#476 = DIRECTION( '', ( 6.12323399573676E-17, 1.00000000000000, 0.000000000000000 ) );
#477 = CARTESIAN_POINT( '', ( 1.53349999999998, -1.47352378301380E-14, 0.000000000000000 ) );
#478 = DIRECTION( '', ( 1.00000000000000, -6.12323399573676E-17, -0.000000000000000 ) );
#479 = DIRECTION( '', ( 6.12323399573676E-17, 1.00000000000000, 0.000000000000000 ) );
ENDSEC;
END-ISO-10303-21;
