ISO-10303-21;
HEADER;
FILE_DESCRIPTION( ( 'STEP AP214' ), '1' );
FILE_NAME( '//goodhand-server/Shared Folders/GoodHand Data/Kipp CAD/K0676/K0676.2508X020.stp', '2020-12-09T11:09:51', ( '' ), ( '' ), ' ', 'PARTsolutions', ' ' );
FILE_SCHEMA( ( 'AUTOMOTIVE_DESIGN { 1 0 10303 214 1 1 1 1 }' ) );
ENDSEC;
DATA;
#1 = MECHANICAL_DESIGN_GEOMETRIC_PRESENTATION_REPRESENTATION( ' ', ( #10, #11, #12, #13, #14, #15, #16, #17, #18, #19, #20 ), #6 );
#2 = PRODUCT_DEFINITION_CONTEXT( '', #21, 'design' );
#3 = APPLICATION_PROTOCOL_DEFINITION( 'international standard', 'automotive_design', 2001, #21 );
#4 = PRODUCT_CATEGORY_RELATIONSHIP( 'NONE', 'NONE', #22, #23 );
#5 = SHAPE_DEFINITION_REPRESENTATION( #24, #25 );
#6 =  ( GEOMETRIC_REPRESENTATION_CONTEXT( 3 )GLOBAL_UNCERTAINTY_ASSIGNED_CONTEXT( ( #28 ) )GLOBAL_UNIT_ASSIGNED_CONTEXT( ( #30, #31, #32 ) )REPRESENTATION_CONTEXT( 'NONE', 'WORKSPACE' ) );
#10 = STYLED_ITEM( '', ( #34 ), #35 );
#11 = STYLED_ITEM( '', ( #36 ), #37 );
#12 = STYLED_ITEM( '', ( #38 ), #39 );
#13 = STYLED_ITEM( '', ( #40 ), #41 );
#14 = STYLED_ITEM( '', ( #42 ), #43 );
#15 = STYLED_ITEM( '', ( #44 ), #45 );
#16 = STYLED_ITEM( '', ( #46 ), #47 );
#17 = STYLED_ITEM( '', ( #48 ), #49 );
#18 = STYLED_ITEM( '', ( #50 ), #51 );
#19 = STYLED_ITEM( '', ( #52 ), #53 );
#20 = STYLED_ITEM( '', ( #54 ), #55 );
#21 = APPLICATION_CONTEXT( 'core data for automotive mechanical design processes' );
#22 = PRODUCT_CATEGORY( 'part', 'NONE' );
#23 = PRODUCT_RELATED_PRODUCT_CATEGORY( 'detail', ' ', ( #56 ) );
#24 = PRODUCT_DEFINITION_SHAPE( 'NONE', 'NONE', #57 );
#25 = ADVANCED_BREP_SHAPE_REPRESENTATION( '_K0676.2508X020', ( #58, #59 ), #6 );
#28 = UNCERTAINTY_MEASURE_WITH_UNIT( LENGTH_MEASURE( 0.00100000000000000 ), #30, '', '' );
#30 =  ( CONVERSION_BASED_UNIT( 'MILLIMETRE', #62 )LENGTH_UNIT(  )NAMED_UNIT( #65 ) );
#31 =  ( NAMED_UNIT( #67 )PLANE_ANGLE_UNIT(  )SI_UNIT( $, .RADIAN. ) );
#32 =  ( NAMED_UNIT( #67 )SI_UNIT( $, .STERADIAN. )SOLID_ANGLE_UNIT(  ) );
#34 = PRESENTATION_STYLE_ASSIGNMENT( ( #73 ) );
#35 = ADVANCED_FACE( '', ( #74, #75 ), #76, .T. );
#36 = PRESENTATION_STYLE_ASSIGNMENT( ( #77 ) );
#37 = ADVANCED_FACE( '', ( #78 ), #79, .F. );
#38 = PRESENTATION_STYLE_ASSIGNMENT( ( #80 ) );
#39 = ADVANCED_FACE( '', ( #81 ), #82, .T. );
#40 = PRESENTATION_STYLE_ASSIGNMENT( ( #83 ) );
#41 = ADVANCED_FACE( '', ( #84 ), #85, .T. );
#42 = PRESENTATION_STYLE_ASSIGNMENT( ( #86 ) );
#43 = ADVANCED_FACE( '', ( #87 ), #88, .T. );
#44 = PRESENTATION_STYLE_ASSIGNMENT( ( #89 ) );
#45 = ADVANCED_FACE( '', ( #90 ), #91, .F. );
#46 = PRESENTATION_STYLE_ASSIGNMENT( ( #92 ) );
#47 = ADVANCED_FACE( '', ( #93 ), #94, .T. );
#48 = PRESENTATION_STYLE_ASSIGNMENT( ( #95 ) );
#49 = ADVANCED_FACE( '', ( #96 ), #97, .T. );
#50 = PRESENTATION_STYLE_ASSIGNMENT( ( #98 ) );
#51 = ADVANCED_FACE( '', ( #99, #100 ), #101, .T. );
#52 = PRESENTATION_STYLE_ASSIGNMENT( ( #102 ) );
#53 = ADVANCED_FACE( '', ( #103 ), #104, .T. );
#54 = PRESENTATION_STYLE_ASSIGNMENT( ( #105 ) );
#55 = ADVANCED_FACE( '', ( #106, #107 ), #108, .T. );
#56 = PRODUCT( '_K0676.2508X020', '_K0676.2508X020', 'PART-_K0676.2508X020-DESC', ( #109 ) );
#57 = PRODUCT_DEFINITION( 'NONE', 'NONE', #110, #2 );
#58 = MANIFOLD_SOLID_BREP( '_K0676.2508X020', #111 );
#59 = AXIS2_PLACEMENT_3D( '', #112, #113, #114 );
#62 = LENGTH_MEASURE_WITH_UNIT( LENGTH_MEASURE( 1.00000000000000 ), #115 );
#65 = DIMENSIONAL_EXPONENTS( 1.00000000000000, 0.000000000000000, 0.000000000000000, 0.000000000000000, 0.000000000000000, 0.000000000000000, 0.000000000000000 );
#67 = DIMENSIONAL_EXPONENTS( 0.000000000000000, 0.000000000000000, 0.000000000000000, 0.000000000000000, 0.000000000000000, 0.000000000000000, 0.000000000000000 );
#73 = SURFACE_STYLE_USAGE( .BOTH., #116 );
#74 = FACE_OUTER_BOUND( '', #117, .T. );
#75 = FACE_OUTER_BOUND( '', #118, .T. );
#76 = CYLINDRICAL_SURFACE( '', #119, 4.00000000000000 );
#77 = SURFACE_STYLE_USAGE( .BOTH., #120 );
#78 = FACE_OUTER_BOUND( '', #121, .T. );
#79 = PLANE( '', #122 );
#80 = SURFACE_STYLE_USAGE( .BOTH., #123 );
#81 = FACE_OUTER_BOUND( '', #124, .T. );
#82 = PLANE( '', #125 );
#83 = SURFACE_STYLE_USAGE( .BOTH., #126 );
#84 = FACE_OUTER_BOUND( '', #127, .T. );
#85 = PLANE( '', #128 );
#86 = SURFACE_STYLE_USAGE( .BOTH., #129 );
#87 = FACE_OUTER_BOUND( '', #130, .T. );
#88 = PLANE( '', #131 );
#89 = SURFACE_STYLE_USAGE( .BOTH., #132 );
#90 = FACE_OUTER_BOUND( '', #133, .T. );
#91 = PLANE( '', #134 );
#92 = SURFACE_STYLE_USAGE( .BOTH., #135 );
#93 = FACE_OUTER_BOUND( '', #136, .T. );
#94 = PLANE( '', #137 );
#95 = SURFACE_STYLE_USAGE( .BOTH., #138 );
#96 = FACE_OUTER_BOUND( '', #139, .T. );
#97 = PLANE( '', #140 );
#98 = SURFACE_STYLE_USAGE( .BOTH., #141 );
#99 = FACE_BOUND( '', #142, .T. );
#100 = FACE_OUTER_BOUND( '', #143, .T. );
#101 = PLANE( '', #144 );
#102 = SURFACE_STYLE_USAGE( .BOTH., #145 );
#103 = FACE_OUTER_BOUND( '', #146, .T. );
#104 = PLANE( '', #147 );
#105 = SURFACE_STYLE_USAGE( .BOTH., #148 );
#106 = FACE_OUTER_BOUND( '', #149, .T. );
#107 = FACE_BOUND( '', #150, .T. );
#108 = CONICAL_SURFACE( '', #151, 3.23300000000000, 0.785398163400000 );
#109 = PRODUCT_CONTEXT( '', #21, 'mechanical' );
#110 = PRODUCT_DEFINITION_FORMATION_WITH_SPECIFIED_SOURCE( ' ', 'NONE', #56, .NOT_KNOWN. );
#111 = CLOSED_SHELL( '', ( #47, #37, #39, #41, #43, #49, #53, #51, #45, #55, #35 ) );
#112 = CARTESIAN_POINT( '', ( 0.000000000000000, 0.000000000000000, 0.000000000000000 ) );
#113 = DIRECTION( '', ( 0.000000000000000, 0.000000000000000, 1.00000000000000 ) );
#114 = DIRECTION( '', ( 1.00000000000000, 0.000000000000000, 0.000000000000000 ) );
#115 =  ( LENGTH_UNIT(  )NAMED_UNIT( #65 )SI_UNIT( .MILLI., .METRE. ) );
#116 = SURFACE_SIDE_STYLE( '', ( #153 ) );
#117 = EDGE_LOOP( '', ( #154 ) );
#118 = EDGE_LOOP( '', ( #155 ) );
#119 = AXIS2_PLACEMENT_3D( '', #156, #157, #158 );
#120 = SURFACE_SIDE_STYLE( '', ( #159 ) );
#121 = EDGE_LOOP( '', ( #160, #161, #162, #163, #164, #165 ) );
#122 = AXIS2_PLACEMENT_3D( '', #166, #167, #168 );
#123 = SURFACE_SIDE_STYLE( '', ( #169 ) );
#124 = EDGE_LOOP( '', ( #170, #171, #172, #173 ) );
#125 = AXIS2_PLACEMENT_3D( '', #174, #175, #176 );
#126 = SURFACE_SIDE_STYLE( '', ( #177 ) );
#127 = EDGE_LOOP( '', ( #178, #179, #180, #181 ) );
#128 = AXIS2_PLACEMENT_3D( '', #182, #183, #184 );
#129 = SURFACE_SIDE_STYLE( '', ( #185 ) );
#130 = EDGE_LOOP( '', ( #186, #187, #188, #189 ) );
#131 = AXIS2_PLACEMENT_3D( '', #190, #191, #192 );
#132 = SURFACE_SIDE_STYLE( '', ( #193 ) );
#133 = EDGE_LOOP( '', ( #194 ) );
#134 = AXIS2_PLACEMENT_3D( '', #195, #196, #197 );
#135 = SURFACE_SIDE_STYLE( '', ( #198 ) );
#136 = EDGE_LOOP( '', ( #199, #200, #201, #202 ) );
#137 = AXIS2_PLACEMENT_3D( '', #203, #204, #205 );
#138 = SURFACE_SIDE_STYLE( '', ( #206 ) );
#139 = EDGE_LOOP( '', ( #207, #208, #209, #210 ) );
#140 = AXIS2_PLACEMENT_3D( '', #211, #212, #213 );
#141 = SURFACE_SIDE_STYLE( '', ( #214 ) );
#142 = EDGE_LOOP( '', ( #215 ) );
#143 = EDGE_LOOP( '', ( #216, #217, #218, #219, #220, #221 ) );
#144 = AXIS2_PLACEMENT_3D( '', #222, #223, #224 );
#145 = SURFACE_SIDE_STYLE( '', ( #225 ) );
#146 = EDGE_LOOP( '', ( #226, #227, #228, #229 ) );
#147 = AXIS2_PLACEMENT_3D( '', #230, #231, #232 );
#148 = SURFACE_SIDE_STYLE( '', ( #233 ) );
#149 = EDGE_LOOP( '', ( #234 ) );
#150 = EDGE_LOOP( '', ( #235 ) );
#151 = AXIS2_PLACEMENT_3D( '', #236, #237, #238 );
#153 = SURFACE_STYLE_FILL_AREA( #239 );
#154 = ORIENTED_EDGE( '', *, *, #240, .F. );
#155 = ORIENTED_EDGE( '', *, *, #241, .T. );
#156 = CARTESIAN_POINT( '', ( 0.000000000000000, 7.50000000000000, 0.000000000000000 ) );
#157 = DIRECTION( '', ( -0.000000000000000, 1.00000000000000, 0.000000000000000 ) );
#158 = DIRECTION( '', ( 0.000000000000000, 0.000000000000000, -1.00000000000000 ) );
#159 = SURFACE_STYLE_FILL_AREA( #242 );
#160 = ORIENTED_EDGE( '', *, *, #243, .F. );
#161 = ORIENTED_EDGE( '', *, *, #244, .F. );
#162 = ORIENTED_EDGE( '', *, *, #245, .F. );
#163 = ORIENTED_EDGE( '', *, *, #246, .F. );
#164 = ORIENTED_EDGE( '', *, *, #247, .F. );
#165 = ORIENTED_EDGE( '', *, *, #248, .F. );
#166 = CARTESIAN_POINT( '', ( 0.000000000000000, 0.000000000000000, 0.000000000000000 ) );
#167 = DIRECTION( '', ( 0.000000000000000, 1.00000000000000, 0.000000000000000 ) );
#168 = DIRECTION( '', ( 0.000000000000000, -0.000000000000000, 1.00000000000000 ) );
#169 = SURFACE_STYLE_FILL_AREA( #249 );
#170 = ORIENTED_EDGE( '', *, *, #250, .F. );
#171 = ORIENTED_EDGE( '', *, *, #251, .F. );
#172 = ORIENTED_EDGE( '', *, *, #245, .T. );
#173 = ORIENTED_EDGE( '', *, *, #252, .T. );
#174 = CARTESIAN_POINT( '', ( 12.5000000000000, 7.50000000000000, -7.21687836487032 ) );
#175 = DIRECTION( '', ( 0.499524110790929, -0.0436193873653360, -0.865201139495554 ) );
#176 = DIRECTION( '', ( -0.866025403784439, 2.42136240865198E-18, -0.500000000000000 ) );
#177 = SURFACE_STYLE_FILL_AREA( #253 );
#178 = ORIENTED_EDGE( '', *, *, #254, .F. );
#179 = ORIENTED_EDGE( '', *, *, #255, .F. );
#180 = ORIENTED_EDGE( '', *, *, #243, .T. );
#181 = ORIENTED_EDGE( '', *, *, #256, .T. );
#182 = CARTESIAN_POINT( '', ( -12.5000000000000, 7.50000000000000, -7.21687836487032 ) );
#183 = DIRECTION( '', ( -0.999048221581858, -0.0436193873653360, 0.000000000000000 ) );
#184 = DIRECTION( '', ( 0.0436193873653360, -0.999048221581858, 0.000000000000000 ) );
#185 = SURFACE_STYLE_FILL_AREA( #257 );
#186 = ORIENTED_EDGE( '', *, *, #258, .F. );
#187 = ORIENTED_EDGE( '', *, *, #256, .F. );
#188 = ORIENTED_EDGE( '', *, *, #248, .T. );
#189 = ORIENTED_EDGE( '', *, *, #259, .T. );
#190 = CARTESIAN_POINT( '', ( -12.5000000000000, 7.50000000000000, 7.21687836487032 ) );
#191 = DIRECTION( '', ( -0.499524110790929, -0.0436193873653360, 0.865201139495554 ) );
#192 = DIRECTION( '', ( 0.866025403784439, 2.42136240865198E-18, 0.500000000000000 ) );
#193 = SURFACE_STYLE_FILL_AREA( #260 );
#194 = ORIENTED_EDGE( '', *, *, #261, .F. );
#195 = CARTESIAN_POINT( '', ( 0.000000000000000, 27.5000000000000, 0.000000000000000 ) );
#196 = DIRECTION( '', ( 0.000000000000000, -1.00000000000000, -0.000000000000000 ) );
#197 = DIRECTION( '', ( 0.000000000000000, 0.000000000000000, -1.00000000000000 ) );
#198 = SURFACE_STYLE_FILL_AREA( #262 );
#199 = ORIENTED_EDGE( '', *, *, #263, .F. );
#200 = ORIENTED_EDGE( '', *, *, #252, .F. );
#201 = ORIENTED_EDGE( '', *, *, #244, .T. );
#202 = ORIENTED_EDGE( '', *, *, #255, .T. );
#203 = CARTESIAN_POINT( '', ( 0.000000000000000, 7.50000000000000, -14.4337567297406 ) );
#204 = DIRECTION( '', ( -0.499524110790929, -0.0436193873653360, -0.865201139495554 ) );
#205 = DIRECTION( '', ( -0.866025403784439, -2.42136240865198E-18, 0.500000000000000 ) );
#206 = SURFACE_STYLE_FILL_AREA( #264 );
#207 = ORIENTED_EDGE( '', *, *, #265, .F. );
#208 = ORIENTED_EDGE( '', *, *, #259, .F. );
#209 = ORIENTED_EDGE( '', *, *, #247, .T. );
#210 = ORIENTED_EDGE( '', *, *, #266, .T. );
#211 = CARTESIAN_POINT( '', ( 0.000000000000000, 7.50000000000000, 14.4337567297406 ) );
#212 = DIRECTION( '', ( 0.499524110790929, -0.0436193873653360, 0.865201139495554 ) );
#213 = DIRECTION( '', ( 0.866025403784439, -2.42136240865198E-18, -0.500000000000000 ) );
#214 = SURFACE_STYLE_FILL_AREA( #267 );
#215 = ORIENTED_EDGE( '', *, *, #240, .T. );
#216 = ORIENTED_EDGE( '', *, *, #254, .T. );
#217 = ORIENTED_EDGE( '', *, *, #258, .T. );
#218 = ORIENTED_EDGE( '', *, *, #265, .T. );
#219 = ORIENTED_EDGE( '', *, *, #268, .T. );
#220 = ORIENTED_EDGE( '', *, *, #250, .T. );
#221 = ORIENTED_EDGE( '', *, *, #263, .T. );
#222 = CARTESIAN_POINT( '', ( 0.000000000000000, 7.50000000000000, 0.000000000000000 ) );
#223 = DIRECTION( '', ( 0.000000000000000, 1.00000000000000, 0.000000000000000 ) );
#224 = DIRECTION( '', ( 0.000000000000000, -0.000000000000000, 1.00000000000000 ) );
#225 = SURFACE_STYLE_FILL_AREA( #269 );
#226 = ORIENTED_EDGE( '', *, *, #268, .F. );
#227 = ORIENTED_EDGE( '', *, *, #266, .F. );
#228 = ORIENTED_EDGE( '', *, *, #246, .T. );
#229 = ORIENTED_EDGE( '', *, *, #251, .T. );
#230 = CARTESIAN_POINT( '', ( 12.5000000000000, 7.50000000000000, 7.21687836487032 ) );
#231 = DIRECTION( '', ( 0.999048221581858, -0.0436193873653360, 0.000000000000000 ) );
#232 = DIRECTION( '', ( 0.0436193873653360, 0.999048221581858, 0.000000000000000 ) );
#233 = SURFACE_STYLE_FILL_AREA( #270 );
#234 = ORIENTED_EDGE( '', *, *, #241, .F. );
#235 = ORIENTED_EDGE( '', *, *, #261, .T. );
#236 = CARTESIAN_POINT( '', ( 0.000000000000000, 27.5000000000000, 0.000000000000000 ) );
#237 = DIRECTION( '', ( -0.000000000000000, -1.00000000000000, -0.000000000000000 ) );
#238 = DIRECTION( '', ( 0.000000000000000, 0.000000000000000, -1.00000000000000 ) );
#239 = FILL_AREA_STYLE( '', ( #271 ) );
#240 = EDGE_CURVE( '', #272, #272, #273, .T. );
#241 = EDGE_CURVE( '', #274, #274, #275, .T. );
#242 = FILL_AREA_STYLE( '', ( #276 ) );
#243 = EDGE_CURVE( '', #277, #278, #279, .T. );
#244 = EDGE_CURVE( '', #280, #277, #281, .T. );
#245 = EDGE_CURVE( '', #282, #280, #283, .T. );
#246 = EDGE_CURVE( '', #284, #282, #285, .T. );
#247 = EDGE_CURVE( '', #286, #284, #287, .T. );
#248 = EDGE_CURVE( '', #278, #286, #288, .T. );
#249 = FILL_AREA_STYLE( '', ( #289 ) );
#250 = EDGE_CURVE( '', #290, #291, #292, .T. );
#251 = EDGE_CURVE( '', #282, #290, #293, .T. );
#252 = EDGE_CURVE( '', #280, #291, #294, .T. );
#253 = FILL_AREA_STYLE( '', ( #295 ) );
#254 = EDGE_CURVE( '', #296, #297, #298, .T. );
#255 = EDGE_CURVE( '', #277, #296, #299, .T. );
#256 = EDGE_CURVE( '', #278, #297, #300, .T. );
#257 = FILL_AREA_STYLE( '', ( #301 ) );
#258 = EDGE_CURVE( '', #297, #302, #303, .T. );
#259 = EDGE_CURVE( '', #286, #302, #304, .T. );
#260 = FILL_AREA_STYLE( '', ( #305 ) );
#261 = EDGE_CURVE( '', #306, #306, #307, .T. );
#262 = FILL_AREA_STYLE( '', ( #308 ) );
#263 = EDGE_CURVE( '', #291, #296, #309, .T. );
#264 = FILL_AREA_STYLE( '', ( #310 ) );
#265 = EDGE_CURVE( '', #302, #311, #312, .T. );
#266 = EDGE_CURVE( '', #284, #311, #313, .T. );
#267 = FILL_AREA_STYLE( '', ( #314 ) );
#268 = EDGE_CURVE( '', #311, #290, #315, .T. );
#269 = FILL_AREA_STYLE( '', ( #316 ) );
#270 = FILL_AREA_STYLE( '', ( #317 ) );
#271 = FILL_AREA_STYLE_COLOUR( '', #318 );
#272 = VERTEX_POINT( '', #319 );
#273 = CIRCLE( '', #320, 4.00000000000000 );
#274 = VERTEX_POINT( '', #321 );
#275 = CIRCLE( '', #322, 4.00000000000000 );
#276 = FILL_AREA_STYLE_COLOUR( '', #323 );
#277 = VERTEX_POINT( '', #324 );
#278 = VERTEX_POINT( '', #325 );
#279 = LINE( '', #326, #327 );
#280 = VERTEX_POINT( '', #328 );
#281 = LINE( '', #329, #330 );
#282 = VERTEX_POINT( '', #331 );
#283 = LINE( '', #332, #333 );
#284 = VERTEX_POINT( '', #334 );
#285 = LINE( '', #335, #336 );
#286 = VERTEX_POINT( '', #337 );
#287 = LINE( '', #338, #339 );
#288 = LINE( '', #340, #341 );
#289 = FILL_AREA_STYLE_COLOUR( '', #342 );
#290 = VERTEX_POINT( '', #343 );
#291 = VERTEX_POINT( '', #344 );
#292 = LINE( '', #345, #346 );
#293 = LINE( '', #347, #348 );
#294 = LINE( '', #349, #350 );
#295 = FILL_AREA_STYLE_COLOUR( '', #351 );
#296 = VERTEX_POINT( '', #352 );
#297 = VERTEX_POINT( '', #353 );
#298 = LINE( '', #354, #355 );
#299 = LINE( '', #356, #357 );
#300 = LINE( '', #358, #359 );
#301 = FILL_AREA_STYLE_COLOUR( '', #360 );
#302 = VERTEX_POINT( '', #361 );
#303 = LINE( '', #362, #363 );
#304 = LINE( '', #364, #365 );
#305 = FILL_AREA_STYLE_COLOUR( '', #366 );
#306 = VERTEX_POINT( '', #367 );
#307 = CIRCLE( '', #368, 3.23300000000000 );
#308 = FILL_AREA_STYLE_COLOUR( '', #369 );
#309 = LINE( '', #370, #371 );
#310 = FILL_AREA_STYLE_COLOUR( '', #372 );
#311 = VERTEX_POINT( '', #373 );
#312 = LINE( '', #374, #375 );
#313 = LINE( '', #376, #377 );
#314 = FILL_AREA_STYLE_COLOUR( '', #378 );
#315 = LINE( '', #379, #380 );
#316 = FILL_AREA_STYLE_COLOUR( '', #381 );
#317 = FILL_AREA_STYLE_COLOUR( '', #382 );
#318 = COLOUR_RGB( '', 0.689999997600000, 0.689999997600000, 0.689999997600000 );
#319 = CARTESIAN_POINT( '', ( 0.000000000000000, 7.50000000000000, -4.00000000000000 ) );
#320 = AXIS2_PLACEMENT_3D( '', #383, #384, #385 );
#321 = CARTESIAN_POINT( '', ( 0.000000000000000, 26.7330000000000, -4.00000000000000 ) );
#322 = AXIS2_PLACEMENT_3D( '', #386, #387, #388 );
#323 = COLOUR_RGB( '', 0.689999997600000, 0.689999997600000, 0.689999997600000 );
#324 = CARTESIAN_POINT( '', ( -12.1725429281862, 0.000000000000000, -7.02782093631055 ) );
#325 = CARTESIAN_POINT( '', ( -12.1725429281862, 0.000000000000000, 7.02782093631055 ) );
#326 = CARTESIAN_POINT( '', ( -12.1725429281862, 0.000000000000000, 0.000000000000000 ) );
#327 = VECTOR( '', #389, 1000.00000000000 );
#328 = CARTESIAN_POINT( '', ( -4.39010374806836E-16, 0.000000000000000, -14.0556418726211 ) );
#329 = CARTESIAN_POINT( '', ( -6.08627146409308, 0.000000000000000, -10.5417314044658 ) );
#330 = VECTOR( '', #390, 1000.00000000000 );
#331 = CARTESIAN_POINT( '', ( 12.1725429281862, 0.000000000000000, -7.02782093631055 ) );
#332 = CARTESIAN_POINT( '', ( 6.08627146409308, 0.000000000000000, -10.5417314044658 ) );
#333 = VECTOR( '', #391, 1000.00000000000 );
#334 = CARTESIAN_POINT( '', ( 12.1725429281862, 0.000000000000000, 7.02782093631055 ) );
#335 = CARTESIAN_POINT( '', ( 12.1725429281862, 0.000000000000000, 0.000000000000000 ) );
#336 = VECTOR( '', #392, 1000.00000000000 );
#337 = CARTESIAN_POINT( '', ( 4.39010374806836E-16, 0.000000000000000, 14.0556418726211 ) );
#338 = CARTESIAN_POINT( '', ( 6.08627146409308, 0.000000000000000, 10.5417314044658 ) );
#339 = VECTOR( '', #393, 1000.00000000000 );
#340 = CARTESIAN_POINT( '', ( -6.08627146409308, 0.000000000000000, 10.5417314044658 ) );
#341 = VECTOR( '', #394, 1000.00000000000 );
#342 = COLOUR_RGB( '', 0.689999997600000, 0.689999997600000, 0.689999997600000 );
#343 = CARTESIAN_POINT( '', ( 12.5000000000000, 7.50000000000000, -7.21687836487032 ) );
#344 = CARTESIAN_POINT( '', ( 0.000000000000000, 7.50000000000000, -14.4337567297406 ) );
#345 = CARTESIAN_POINT( '', ( 12.5000000000000, 7.50000000000000, -7.21687836487032 ) );
#346 = VECTOR( '', #395, 1000.00000000000 );
#347 = CARTESIAN_POINT( '', ( 12.4841546247884, 7.13708124112570, -7.20773003322647 ) );
#348 = VECTOR( '', #396, 1000.00000000000 );
#349 = CARTESIAN_POINT( '', ( 0.000000000000000, 7.13708124112571, -14.4154600664529 ) );
#350 = VECTOR( '', #397, 1000.00000000000 );
#351 = COLOUR_RGB( '', 0.689999997600000, 0.689999997600000, 0.689999997600000 );
#352 = CARTESIAN_POINT( '', ( -12.5000000000000, 7.50000000000000, -7.21687836487032 ) );
#353 = CARTESIAN_POINT( '', ( -12.5000000000000, 7.50000000000000, 7.21687836487032 ) );
#354 = CARTESIAN_POINT( '', ( -12.5000000000000, 7.50000000000000, -7.21687836487032 ) );
#355 = VECTOR( '', #398, 1000.00000000000 );
#356 = CARTESIAN_POINT( '', ( -12.4841546247884, 7.13708124112571, -7.20773003322647 ) );
#357 = VECTOR( '', #399, 1000.00000000000 );
#358 = CARTESIAN_POINT( '', ( -12.4841546247884, 7.13708124112570, 7.20773003322647 ) );
#359 = VECTOR( '', #400, 1000.00000000000 );
#360 = COLOUR_RGB( '', 0.689999997600000, 0.689999997600000, 0.689999997600000 );
#361 = CARTESIAN_POINT( '', ( 0.000000000000000, 7.50000000000000, 14.4337567297406 ) );
#362 = CARTESIAN_POINT( '', ( -12.5000000000000, 7.50000000000000, 7.21687836487032 ) );
#363 = VECTOR( '', #401, 1000.00000000000 );
#364 = CARTESIAN_POINT( '', ( 0.000000000000000, 7.13708124112571, 14.4154600664529 ) );
#365 = VECTOR( '', #402, 1000.00000000000 );
#366 = COLOUR_RGB( '', 0.689999997600000, 0.689999997600000, 0.689999997600000 );
#367 = CARTESIAN_POINT( '', ( 0.000000000000000, 27.5000000000000, -3.23300000000000 ) );
#368 = AXIS2_PLACEMENT_3D( '', #403, #404, #405 );
#369 = COLOUR_RGB( '', 0.689999997600000, 0.689999997600000, 0.689999997600000 );
#370 = CARTESIAN_POINT( '', ( 0.000000000000000, 7.50000000000000, -14.4337567297406 ) );
#371 = VECTOR( '', #406, 1000.00000000000 );
#372 = COLOUR_RGB( '', 0.689999997600000, 0.689999997600000, 0.689999997600000 );
#373 = CARTESIAN_POINT( '', ( 12.5000000000000, 7.50000000000000, 7.21687836487032 ) );
#374 = CARTESIAN_POINT( '', ( 0.000000000000000, 7.50000000000000, 14.4337567297406 ) );
#375 = VECTOR( '', #407, 1000.00000000000 );
#376 = CARTESIAN_POINT( '', ( 12.4841546247884, 7.13708124112571, 7.20773003322647 ) );
#377 = VECTOR( '', #408, 1000.00000000000 );
#378 = COLOUR_RGB( '', 0.689999997600000, 0.689999997600000, 0.689999997600000 );
#379 = CARTESIAN_POINT( '', ( 12.5000000000000, 7.50000000000000, 7.21687836487032 ) );
#380 = VECTOR( '', #409, 1000.00000000000 );
#381 = COLOUR_RGB( '', 0.689999997600000, 0.689999997600000, 0.689999997600000 );
#382 = COLOUR_RGB( '', 0.689999997600000, 0.689999997600000, 0.689999997600000 );
#383 = CARTESIAN_POINT( '', ( 0.000000000000000, 7.50000000000000, 0.000000000000000 ) );
#384 = DIRECTION( '', ( 0.000000000000000, -1.00000000000000, -0.000000000000000 ) );
#385 = DIRECTION( '', ( 0.000000000000000, 0.000000000000000, -1.00000000000000 ) );
#386 = CARTESIAN_POINT( '', ( 0.000000000000000, 26.7330000000000, 0.000000000000000 ) );
#387 = DIRECTION( '', ( 0.000000000000000, -1.00000000000000, -0.000000000000000 ) );
#388 = DIRECTION( '', ( 0.000000000000000, 0.000000000000000, -1.00000000000000 ) );
#389 = DIRECTION( '', ( 0.000000000000000, 0.000000000000000, 1.00000000000000 ) );
#390 = DIRECTION( '', ( -0.866025403784439, 0.000000000000000, 0.500000000000000 ) );
#391 = DIRECTION( '', ( -0.866025403784439, 0.000000000000000, -0.500000000000000 ) );
#392 = DIRECTION( '', ( 0.000000000000000, 0.000000000000000, -1.00000000000000 ) );
#393 = DIRECTION( '', ( 0.866025403784439, 0.000000000000000, -0.500000000000000 ) );
#394 = DIRECTION( '', ( 0.866025403784439, 0.000000000000000, 0.500000000000000 ) );
#395 = DIRECTION( '', ( -0.866025403784439, 0.000000000000000, -0.500000000000000 ) );
#396 = DIRECTION( '', ( 0.0436055618630999, 0.998731565520054, -0.0251756828798256 ) );
#397 = DIRECTION( '', ( 0.000000000000000, 0.998731565520054, -0.0503513657596513 ) );
#398 = DIRECTION( '', ( 0.000000000000000, 0.000000000000000, 1.00000000000000 ) );
#399 = DIRECTION( '', ( -0.0436055618630999, 0.998731565520054, -0.0251756828798256 ) );
#400 = DIRECTION( '', ( -0.0436055618630999, 0.998731565520054, 0.0251756828798256 ) );
#401 = DIRECTION( '', ( 0.866025403784439, 0.000000000000000, 0.500000000000000 ) );
#402 = DIRECTION( '', ( 0.000000000000000, 0.998731565520054, 0.0503513657596513 ) );
#403 = CARTESIAN_POINT( '', ( 0.000000000000000, 27.5000000000000, 0.000000000000000 ) );
#404 = DIRECTION( '', ( 0.000000000000000, -1.00000000000000, -0.000000000000000 ) );
#405 = DIRECTION( '', ( 0.000000000000000, 0.000000000000000, -1.00000000000000 ) );
#406 = DIRECTION( '', ( -0.866025403784439, 0.000000000000000, 0.500000000000000 ) );
#407 = DIRECTION( '', ( 0.866025403784439, 0.000000000000000, -0.500000000000000 ) );
#408 = DIRECTION( '', ( 0.0436055618630999, 0.998731565520054, 0.0251756828798256 ) );
#409 = DIRECTION( '', ( 0.000000000000000, 0.000000000000000, -1.00000000000000 ) );
ENDSEC;
END-ISO-10303-21;
