ISO-10303-21;
HEADER;
FILE_DESCRIPTION( ( 'STEP AP214' ), '1' );
FILE_NAME( '//goodhand-server/Shared Folders/GoodHand Data/Kipp CAD/K0390/K0390.14X100.stp', '2020-12-07T10:14:52', ( '' ), ( '' ), ' ', 'PARTsolutions', ' ' );
FILE_SCHEMA( ( 'AUTOMOTIVE_DESIGN { 1 0 10303 214 1 1 1 1 }' ) );
ENDSEC;
DATA;
#1 = MECHANICAL_DESIGN_GEOMETRIC_PRESENTATION_REPRESENTATION( ' ', ( #10, #11, #12, #13, #14, #15, #16, #17, #18, #19, #20, #21, #22 ), #6 );
#2 = PRODUCT_DEFINITION_CONTEXT( '', #23, 'design' );
#3 = APPLICATION_PROTOCOL_DEFINITION( 'international standard', 'automotive_design', 2001, #23 );
#4 = PRODUCT_CATEGORY_RELATIONSHIP( 'NONE', 'NONE', #24, #25 );
#5 = SHAPE_DEFINITION_REPRESENTATION( #26, #27 );
#6 =  ( GEOMETRIC_REPRESENTATION_CONTEXT( 3 )GLOBAL_UNCERTAINTY_ASSIGNED_CONTEXT( ( #30 ) )GLOBAL_UNIT_ASSIGNED_CONTEXT( ( #32, #33, #34 ) )REPRESENTATION_CONTEXT( 'NONE', 'WORKSPACE' ) );
#10 = STYLED_ITEM( '', ( #36 ), #37 );
#11 = STYLED_ITEM( '', ( #38 ), #39 );
#12 = STYLED_ITEM( '', ( #40 ), #41 );
#13 = STYLED_ITEM( '', ( #42 ), #43 );
#14 = STYLED_ITEM( '', ( #44 ), #45 );
#15 = STYLED_ITEM( '', ( #46 ), #47 );
#16 = STYLED_ITEM( '', ( #48 ), #49 );
#17 = STYLED_ITEM( '', ( #50 ), #51 );
#18 = STYLED_ITEM( '', ( #52 ), #53 );
#19 = STYLED_ITEM( '', ( #54 ), #55 );
#20 = STYLED_ITEM( '', ( #56 ), #57 );
#21 = STYLED_ITEM( '', ( #58 ), #59 );
#22 = STYLED_ITEM( '', ( #60 ), #61 );
#23 = APPLICATION_CONTEXT( 'core data for automotive mechanical design processes' );
#24 = PRODUCT_CATEGORY( 'part', 'NONE' );
#25 = PRODUCT_RELATED_PRODUCT_CATEGORY( 'detail', ' ', ( #62 ) );
#26 = PRODUCT_DEFINITION_SHAPE( 'NONE', 'NONE', #63 );
#27 = ADVANCED_BREP_SHAPE_REPRESENTATION( '_K0390.14X100', ( #64, #65 ), #6 );
#30 = UNCERTAINTY_MEASURE_WITH_UNIT( LENGTH_MEASURE( 0.00100000000000000 ), #32, '', '' );
#32 =  ( CONVERSION_BASED_UNIT( 'MILLIMETRE', #68 )LENGTH_UNIT(  )NAMED_UNIT( #71 ) );
#33 =  ( NAMED_UNIT( #73 )PLANE_ANGLE_UNIT(  )SI_UNIT( $, .RADIAN. ) );
#34 =  ( NAMED_UNIT( #73 )SI_UNIT( $, .STERADIAN. )SOLID_ANGLE_UNIT(  ) );
#36 = PRESENTATION_STYLE_ASSIGNMENT( ( #79 ) );
#37 = ADVANCED_FACE( '', ( #80, #81 ), #82, .T. );
#38 = PRESENTATION_STYLE_ASSIGNMENT( ( #83 ) );
#39 = ADVANCED_FACE( '', ( #84 ), #85, .T. );
#40 = PRESENTATION_STYLE_ASSIGNMENT( ( #86 ) );
#41 = ADVANCED_FACE( '', ( #87, #88 ), #89, .F. );
#42 = PRESENTATION_STYLE_ASSIGNMENT( ( #90 ) );
#43 = ADVANCED_FACE( '', ( #91 ), #92, .F. );
#44 = PRESENTATION_STYLE_ASSIGNMENT( ( #93 ) );
#45 = ADVANCED_FACE( '', ( #94 ), #95, .T. );
#46 = PRESENTATION_STYLE_ASSIGNMENT( ( #96 ) );
#47 = ADVANCED_FACE( '', ( #97 ), #98, .F. );
#48 = PRESENTATION_STYLE_ASSIGNMENT( ( #99 ) );
#49 = ADVANCED_FACE( '', ( #100, #101 ), #102, .T. );
#50 = PRESENTATION_STYLE_ASSIGNMENT( ( #103 ) );
#51 = ADVANCED_FACE( '', ( #104, #105 ), #106, .T. );
#52 = PRESENTATION_STYLE_ASSIGNMENT( ( #107 ) );
#53 = ADVANCED_FACE( '', ( #108, #109 ), #110, .T. );
#54 = PRESENTATION_STYLE_ASSIGNMENT( ( #111 ) );
#55 = ADVANCED_FACE( '', ( #112 ), #113, .F. );
#56 = PRESENTATION_STYLE_ASSIGNMENT( ( #114 ) );
#57 = ADVANCED_FACE( '', ( #115, #116 ), #117, .T. );
#58 = PRESENTATION_STYLE_ASSIGNMENT( ( #118 ) );
#59 = ADVANCED_FACE( '', ( #119 ), #120, .F. );
#60 = PRESENTATION_STYLE_ASSIGNMENT( ( #121 ) );
#61 = ADVANCED_FACE( '', ( #122 ), #123, .T. );
#62 = PRODUCT( '_K0390.14X100', '_K0390.14X100', 'PART-_K0390.14X100-DESC', ( #124 ) );
#63 = PRODUCT_DEFINITION( 'NONE', 'NONE', #125, #2 );
#64 = MANIFOLD_SOLID_BREP( '_K0390.14X100', #126 );
#65 = AXIS2_PLACEMENT_3D( '', #127, #128, #129 );
#68 = LENGTH_MEASURE_WITH_UNIT( LENGTH_MEASURE( 1.00000000000000 ), #130 );
#71 = DIMENSIONAL_EXPONENTS( 1.00000000000000, 0.000000000000000, 0.000000000000000, 0.000000000000000, 0.000000000000000, 0.000000000000000, 0.000000000000000 );
#73 = DIMENSIONAL_EXPONENTS( 0.000000000000000, 0.000000000000000, 0.000000000000000, 0.000000000000000, 0.000000000000000, 0.000000000000000, 0.000000000000000 );
#79 = SURFACE_STYLE_USAGE( .BOTH., #131 );
#80 = FACE_OUTER_BOUND( '', #132, .T. );
#81 = FACE_OUTER_BOUND( '', #133, .T. );
#82 = CYLINDRICAL_SURFACE( '', #134, 7.00000000000000 );
#83 = SURFACE_STYLE_USAGE( .BOTH., #135 );
#84 = FACE_OUTER_BOUND( '', #136, .T. );
#85 = CONICAL_SURFACE( '', #137, 5.77300000000000, 0.785398163400000 );
#86 = SURFACE_STYLE_USAGE( .BOTH., #138 );
#87 = FACE_OUTER_BOUND( '', #139, .T. );
#88 = FACE_BOUND( '', #140, .T. );
#89 = PLANE( '', #141 );
#90 = SURFACE_STYLE_USAGE( .BOTH., #142 );
#91 = FACE_OUTER_BOUND( '', #143, .T. );
#92 = PLANE( '', #144 );
#93 = SURFACE_STYLE_USAGE( .BOTH., #145 );
#94 = FACE_OUTER_BOUND( '', #146, .T. );
#95 = CONICAL_SURFACE( '', #147, 5.77300000000000, 0.785398163400000 );
#96 = SURFACE_STYLE_USAGE( .BOTH., #148 );
#97 = FACE_OUTER_BOUND( '', #149, .T. );
#98 = PLANE( '', #150 );
#99 = SURFACE_STYLE_USAGE( .BOTH., #151 );
#100 = FACE_OUTER_BOUND( '', #152, .T. );
#101 = FACE_OUTER_BOUND( '', #153, .T. );
#102 = CYLINDRICAL_SURFACE( '', #154, 5.00000000000000 );
#103 = SURFACE_STYLE_USAGE( .BOTH., #155 );
#104 = FACE_BOUND( '', #156, .T. );
#105 = FACE_OUTER_BOUND( '', #157, .T. );
#106 = SPHERICAL_SURFACE( '', #158, 8.38700000000000 );
#107 = SURFACE_STYLE_USAGE( .BOTH., #159 );
#108 = FACE_OUTER_BOUND( '', #160, .T. );
#109 = FACE_OUTER_BOUND( '', #161, .T. );
#110 = CYLINDRICAL_SURFACE( '', #162, 4.50000000000000 );
#111 = SURFACE_STYLE_USAGE( .BOTH., #163 );
#112 = FACE_OUTER_BOUND( '', #164, .T. );
#113 = PLANE( '', #165 );
#114 = SURFACE_STYLE_USAGE( .BOTH., #166 );
#115 = FACE_BOUND( '', #167, .T. );
#116 = FACE_OUTER_BOUND( '', #168, .T. );
#117 = CONICAL_SURFACE( '', #169, 7.00000000000000, 1.13808724680000 );
#118 = SURFACE_STYLE_USAGE( .BOTH., #170 );
#119 = FACE_OUTER_BOUND( '', #171, .T. );
#120 = PLANE( '', #172 );
#121 = SURFACE_STYLE_USAGE( .BOTH., #173 );
#122 = FACE_OUTER_BOUND( '', #174, .T. );
#123 = PLANE( '', #175 );
#124 = PRODUCT_CONTEXT( '', #23, 'mechanical' );
#125 = PRODUCT_DEFINITION_FORMATION_WITH_SPECIFIED_SOURCE( ' ', 'NONE', #62, .NOT_KNOWN. );
#126 = CLOSED_SHELL( '', ( #47, #59, #51, #49, #41, #53, #57, #37, #39, #43, #45, #55, #61 ) );
#127 = CARTESIAN_POINT( '', ( 0.000000000000000, 0.000000000000000, 0.000000000000000 ) );
#128 = DIRECTION( '', ( 0.000000000000000, 0.000000000000000, 1.00000000000000 ) );
#129 = DIRECTION( '', ( 1.00000000000000, 0.000000000000000, 0.000000000000000 ) );
#130 =  ( LENGTH_UNIT(  )NAMED_UNIT( #71 )SI_UNIT( .MILLI., .METRE. ) );
#131 = SURFACE_SIDE_STYLE( '', ( #177 ) );
#132 = EDGE_LOOP( '', ( #178 ) );
#133 = EDGE_LOOP( '', ( #179, #180, #181, #182, #183, #184, #185, #186 ) );
#134 = AXIS2_PLACEMENT_3D( '', #187, #188, #189 );
#135 = SURFACE_SIDE_STYLE( '', ( #190 ) );
#136 = EDGE_LOOP( '', ( #191, #192, #193, #194 ) );
#137 = AXIS2_PLACEMENT_3D( '', #195, #196, #197 );
#138 = SURFACE_SIDE_STYLE( '', ( #198 ) );
#139 = EDGE_LOOP( '', ( #199 ) );
#140 = EDGE_LOOP( '', ( #200 ) );
#141 = AXIS2_PLACEMENT_3D( '', #201, #202, #203 );
#142 = SURFACE_SIDE_STYLE( '', ( #204 ) );
#143 = EDGE_LOOP( '', ( #205, #206 ) );
#144 = AXIS2_PLACEMENT_3D( '', #207, #208, #209 );
#145 = SURFACE_SIDE_STYLE( '', ( #210 ) );
#146 = EDGE_LOOP( '', ( #211, #212, #213, #214 ) );
#147 = AXIS2_PLACEMENT_3D( '', #215, #216, #217 );
#148 = SURFACE_SIDE_STYLE( '', ( #218 ) );
#149 = EDGE_LOOP( '', ( #219, #220, #221, #222, #223, #224 ) );
#150 = AXIS2_PLACEMENT_3D( '', #225, #226, #227 );
#151 = SURFACE_SIDE_STYLE( '', ( #228 ) );
#152 = EDGE_LOOP( '', ( #229 ) );
#153 = EDGE_LOOP( '', ( #230 ) );
#154 = AXIS2_PLACEMENT_3D( '', #231, #232, #233 );
#155 = SURFACE_SIDE_STYLE( '', ( #234 ) );
#156 = VERTEX_LOOP( '', #235 );
#157 = EDGE_LOOP( '', ( #236 ) );
#158 = AXIS2_PLACEMENT_3D( '', #237, #238, #239 );
#159 = SURFACE_SIDE_STYLE( '', ( #240 ) );
#160 = EDGE_LOOP( '', ( #241 ) );
#161 = EDGE_LOOP( '', ( #242 ) );
#162 = AXIS2_PLACEMENT_3D( '', #243, #244, #245 );
#163 = SURFACE_SIDE_STYLE( '', ( #246 ) );
#164 = EDGE_LOOP( '', ( #247, #248 ) );
#165 = AXIS2_PLACEMENT_3D( '', #249, #250, #251 );
#166 = SURFACE_SIDE_STYLE( '', ( #252 ) );
#167 = EDGE_LOOP( '', ( #253 ) );
#168 = EDGE_LOOP( '', ( #254 ) );
#169 = AXIS2_PLACEMENT_3D( '', #255, #256, #257 );
#170 = SURFACE_SIDE_STYLE( '', ( #258 ) );
#171 = EDGE_LOOP( '', ( #259, #260, #261, #262, #263, #264 ) );
#172 = AXIS2_PLACEMENT_3D( '', #265, #266, #267 );
#173 = SURFACE_SIDE_STYLE( '', ( #268 ) );
#174 = EDGE_LOOP( '', ( #269, #270, #271, #272 ) );
#175 = AXIS2_PLACEMENT_3D( '', #273, #274, #275 );
#177 = SURFACE_STYLE_FILL_AREA( #276 );
#178 = ORIENTED_EDGE( '', *, *, #277, .F. );
#179 = ORIENTED_EDGE( '', *, *, #278, .T. );
#180 = ORIENTED_EDGE( '', *, *, #279, .T. );
#181 = ORIENTED_EDGE( '', *, *, #280, .F. );
#182 = ORIENTED_EDGE( '', *, *, #281, .T. );
#183 = ORIENTED_EDGE( '', *, *, #282, .T. );
#184 = ORIENTED_EDGE( '', *, *, #283, .T. );
#185 = ORIENTED_EDGE( '', *, *, #284, .F. );
#186 = ORIENTED_EDGE( '', *, *, #285, .T. );
#187 = CARTESIAN_POINT( '', ( 100.000000000000, 1.42108547152020E-14, 0.000000000000000 ) );
#188 = DIRECTION( '', ( -1.00000000000000, 6.12323399573677E-17, 0.000000000000000 ) );
#189 = DIRECTION( '', ( 6.12323399573677E-17, 1.00000000000000, 0.000000000000000 ) );
#190 = SURFACE_STYLE_FILL_AREA( #286 );
#191 = ORIENTED_EDGE( '', *, *, #287, .T. );
#192 = ORIENTED_EDGE( '', *, *, #288, .T. );
#193 = ORIENTED_EDGE( '', *, *, #282, .F. );
#194 = ORIENTED_EDGE( '', *, *, #289, .T. );
#195 = CARTESIAN_POINT( '', ( 1.38777878078145E-14, 2.03340887109388E-14, 0.000000000000000 ) );
#196 = DIRECTION( '', ( 1.00000000000000, -6.12323399573677E-17, -0.000000000000000 ) );
#197 = DIRECTION( '', ( 6.12323399573677E-17, 1.00000000000000, 0.000000000000000 ) );
#198 = SURFACE_STYLE_FILL_AREA( #290 );
#199 = ORIENTED_EDGE( '', *, *, #291, .F. );
#200 = ORIENTED_EDGE( '', *, *, #292, .T. );
#201 = CARTESIAN_POINT( '', ( 95.0000000000000, 4.50000000000001, 0.000000000000000 ) );
#202 = DIRECTION( '', ( 1.00000000000000, -6.12323399573677E-17, -0.000000000000000 ) );
#203 = DIRECTION( '', ( 6.12323399573677E-17, 1.00000000000000, 0.000000000000000 ) );
#204 = SURFACE_STYLE_FILL_AREA( #293 );
#205 = ORIENTED_EDGE( '', *, *, #294, .F. );
#206 = ORIENTED_EDGE( '', *, *, #295, .F. );
#207 = CARTESIAN_POINT( '', ( 1.40341075659151E-14, 2.03340887109388E-14, 0.000000000000000 ) );
#208 = DIRECTION( '', ( 1.00000000000000, -6.12323399573677E-17, -0.000000000000000 ) );
#209 = DIRECTION( '', ( 6.12323399573677E-17, 1.00000000000000, 0.000000000000000 ) );
#210 = SURFACE_STYLE_FILL_AREA( #296 );
#211 = ORIENTED_EDGE( '', *, *, #278, .F. );
#212 = ORIENTED_EDGE( '', *, *, #297, .T. );
#213 = ORIENTED_EDGE( '', *, *, #294, .T. );
#214 = ORIENTED_EDGE( '', *, *, #298, .T. );
#215 = CARTESIAN_POINT( '', ( 1.38777878078145E-14, 2.03340887109388E-14, 0.000000000000000 ) );
#216 = DIRECTION( '', ( 1.00000000000000, -6.12323399573677E-17, -0.000000000000000 ) );
#217 = DIRECTION( '', ( 6.12323399573677E-17, 1.00000000000000, 0.000000000000000 ) );
#218 = SURFACE_STYLE_FILL_AREA( #299 );
#219 = ORIENTED_EDGE( '', *, *, #288, .F. );
#220 = ORIENTED_EDGE( '', *, *, #300, .T. );
#221 = ORIENTED_EDGE( '', *, *, #289, .F. );
#222 = ORIENTED_EDGE( '', *, *, #281, .F. );
#223 = ORIENTED_EDGE( '', *, *, #301, .F. );
#224 = ORIENTED_EDGE( '', *, *, #283, .F. );
#225 = CARTESIAN_POINT( '', ( 3.00000000000001, 0.900000000000020, 10.5000000000000 ) );
#226 = DIRECTION( '', ( 0.000000000000000, 1.00000000000000, 0.000000000000000 ) );
#227 = DIRECTION( '', ( 0.000000000000000, -0.000000000000000, 1.00000000000000 ) );
#228 = SURFACE_STYLE_FILL_AREA( #302 );
#229 = ORIENTED_EDGE( '', *, *, #303, .F. );
#230 = ORIENTED_EDGE( '', *, *, #291, .T. );
#231 = CARTESIAN_POINT( '', ( 100.000000000000, 1.42108547152020E-14, 0.000000000000000 ) );
#232 = DIRECTION( '', ( -1.00000000000000, 6.12323399573677E-17, 0.000000000000000 ) );
#233 = DIRECTION( '', ( 6.12323399573677E-17, 1.00000000000000, 0.000000000000000 ) );
#234 = SURFACE_STYLE_FILL_AREA( #304 );
#235 = VERTEX_POINT( '', #305 );
#236 = ORIENTED_EDGE( '', *, *, #303, .T. );
#237 = CARTESIAN_POINT( '', ( 91.6129999999997, -9.02056207507940E-14, 0.000000000000000 ) );
#238 = DIRECTION( '', ( 1.00000000000000, 0.000000000000000, 0.000000000000000 ) );
#239 = DIRECTION( '', ( 0.000000000000000, 1.00000000000000, 0.000000000000000 ) );
#240 = SURFACE_STYLE_FILL_AREA( #306 );
#241 = ORIENTED_EDGE( '', *, *, #292, .F. );
#242 = ORIENTED_EDGE( '', *, *, #307, .T. );
#243 = CARTESIAN_POINT( '', ( 100.000000000000, 1.42108547152020E-14, 0.000000000000000 ) );
#244 = DIRECTION( '', ( -1.00000000000000, 6.12323399573677E-17, 0.000000000000000 ) );
#245 = DIRECTION( '', ( 6.12323399573677E-17, 1.00000000000000, 0.000000000000000 ) );
#246 = SURFACE_STYLE_FILL_AREA( #308 );
#247 = ORIENTED_EDGE( '', *, *, #287, .F. );
#248 = ORIENTED_EDGE( '', *, *, #300, .F. );
#249 = CARTESIAN_POINT( '', ( 1.40341075659151E-14, 2.03340887109388E-14, 0.000000000000000 ) );
#250 = DIRECTION( '', ( 1.00000000000000, -6.12323399573677E-17, -0.000000000000000 ) );
#251 = DIRECTION( '', ( 6.12323399573677E-17, 1.00000000000000, 0.000000000000000 ) );
#252 = SURFACE_STYLE_FILL_AREA( #309 );
#253 = ORIENTED_EDGE( '', *, *, #307, .F. );
#254 = ORIENTED_EDGE( '', *, *, #277, .T. );
#255 = CARTESIAN_POINT( '', ( 88.0000000000000, 1.49456427946904E-14, 0.000000000000000 ) );
#256 = DIRECTION( '', ( -1.00000000000000, 6.12323399573677E-17, -0.000000000000000 ) );
#257 = DIRECTION( '', ( -6.12323399573677E-17, -1.00000000000000, 0.000000000000000 ) );
#258 = SURFACE_STYLE_FILL_AREA( #310 );
#259 = ORIENTED_EDGE( '', *, *, #295, .T. );
#260 = ORIENTED_EDGE( '', *, *, #297, .F. );
#261 = ORIENTED_EDGE( '', *, *, #285, .F. );
#262 = ORIENTED_EDGE( '', *, *, #311, .F. );
#263 = ORIENTED_EDGE( '', *, *, #279, .F. );
#264 = ORIENTED_EDGE( '', *, *, #298, .F. );
#265 = CARTESIAN_POINT( '', ( 3.00000000000001, -0.899999999999980, -10.5000000000000 ) );
#266 = DIRECTION( '', ( 0.000000000000000, -1.00000000000000, 0.000000000000000 ) );
#267 = DIRECTION( '', ( 0.000000000000000, 0.000000000000000, -1.00000000000000 ) );
#268 = SURFACE_STYLE_FILL_AREA( #312 );
#269 = ORIENTED_EDGE( '', *, *, #280, .T. );
#270 = ORIENTED_EDGE( '', *, *, #311, .T. );
#271 = ORIENTED_EDGE( '', *, *, #284, .T. );
#272 = ORIENTED_EDGE( '', *, *, #301, .T. );
#273 = CARTESIAN_POINT( '', ( 3.00000000000001, -0.000000000000000, -0.000000000000000 ) );
#274 = DIRECTION( '', ( -1.00000000000000, 0.000000000000000, 0.000000000000000 ) );
#275 = DIRECTION( '', ( 0.000000000000000, 0.000000000000000, 1.00000000000000 ) );
#276 = FILL_AREA_STYLE( '', ( #313 ) );
#277 = EDGE_CURVE( '', #314, #314, #315, .T. );
#278 = EDGE_CURVE( '', #316, #317, #318, .T. );
#279 = EDGE_CURVE( '', #317, #319, #320, .T. );
#280 = EDGE_CURVE( '', #321, #319, #322, .T. );
#281 = EDGE_CURVE( '', #321, #323, #324, .F. );
#282 = EDGE_CURVE( '', #323, #325, #326, .T. );
#283 = EDGE_CURVE( '', #325, #327, #328, .T. );
#284 = EDGE_CURVE( '', #329, #327, #330, .T. );
#285 = EDGE_CURVE( '', #329, #316, #331, .F. );
#286 = FILL_AREA_STYLE( '', ( #332 ) );
#287 = EDGE_CURVE( '', #333, #334, #335, .T. );
#288 = EDGE_CURVE( '', #334, #325, #336, .T. );
#289 = EDGE_CURVE( '', #323, #333, #337, .T. );
#290 = FILL_AREA_STYLE( '', ( #338 ) );
#291 = EDGE_CURVE( '', #339, #339, #340, .T. );
#292 = EDGE_CURVE( '', #341, #341, #342, .T. );
#293 = FILL_AREA_STYLE( '', ( #343 ) );
#294 = EDGE_CURVE( '', #344, #345, #346, .T. );
#295 = EDGE_CURVE( '', #345, #344, #347, .T. );
#296 = FILL_AREA_STYLE( '', ( #348 ) );
#297 = EDGE_CURVE( '', #316, #344, #349, .T. );
#298 = EDGE_CURVE( '', #345, #317, #350, .T. );
#299 = FILL_AREA_STYLE( '', ( #351 ) );
#300 = EDGE_CURVE( '', #334, #333, #352, .T. );
#301 = EDGE_CURVE( '', #327, #321, #353, .T. );
#302 = FILL_AREA_STYLE( '', ( #354 ) );
#303 = EDGE_CURVE( '', #355, #355, #356, .T. );
#304 = FILL_AREA_STYLE( '', ( #357 ) );
#305 = CARTESIAN_POINT( '', ( 100.000000000000, -9.02056207507940E-14, 0.000000000000000 ) );
#306 = FILL_AREA_STYLE( '', ( #358 ) );
#307 = EDGE_CURVE( '', #359, #359, #360, .T. );
#308 = FILL_AREA_STYLE( '', ( #361 ) );
#309 = FILL_AREA_STYLE( '', ( #362 ) );
#310 = FILL_AREA_STYLE( '', ( #363 ) );
#311 = EDGE_CURVE( '', #319, #329, #364, .T. );
#312 = FILL_AREA_STYLE( '', ( #365 ) );
#313 = FILL_AREA_STYLE_COLOUR( '', #366 );
#314 = VERTEX_POINT( '', #367 );
#315 = CIRCLE( '', #368, 7.00000000000000 );
#316 = VERTEX_POINT( '', #369 );
#317 = VERTEX_POINT( '', #370 );
#318 = CIRCLE( '', #371, 7.00000000000000 );
#319 = VERTEX_POINT( '', #372 );
#320 = LINE( '', #373, #374 );
#321 = VERTEX_POINT( '', #375 );
#322 = CIRCLE( '', #376, 7.00000000000000 );
#323 = VERTEX_POINT( '', #377 );
#324 = LINE( '', #378, #379 );
#325 = VERTEX_POINT( '', #380 );
#326 = CIRCLE( '', #381, 7.00000000000000 );
#327 = VERTEX_POINT( '', #382 );
#328 = LINE( '', #383, #384 );
#329 = VERTEX_POINT( '', #385 );
#330 = CIRCLE( '', #386, 7.00000000000000 );
#331 = LINE( '', #387, #388 );
#332 = FILL_AREA_STYLE_COLOUR( '', #389 );
#333 = VERTEX_POINT( '', #390 );
#334 = VERTEX_POINT( '', #391 );
#335 = CIRCLE( '', #392, 5.77300000000000 );
#336 = B_SPLINE_CURVE_WITH_KNOTS( '', 3, ( #393, #394, #395, #396 ), .UNSPECIFIED., .F., .F., ( 4, 4 ), ( 0.0288470734708196, 0.0305935337729002 ), .UNSPECIFIED. );
#337 = B_SPLINE_CURVE_WITH_KNOTS( '', 3, ( #397, #398, #399, #400 ), .UNSPECIFIED., .F., .F., ( 4, 4 ), ( 0.0119476865857433, 0.0136917789295996 ), .UNSPECIFIED. );
#338 = FILL_AREA_STYLE_COLOUR( '', #401 );
#339 = VERTEX_POINT( '', #402 );
#340 = CIRCLE( '', #403, 5.00000000000000 );
#341 = VERTEX_POINT( '', #404 );
#342 = CIRCLE( '', #405, 4.50000000000000 );
#343 = FILL_AREA_STYLE_COLOUR( '', #406 );
#344 = VERTEX_POINT( '', #407 );
#345 = VERTEX_POINT( '', #408 );
#346 = CIRCLE( '', #409, 5.77300000000000 );
#347 = LINE( '', #410, #411 );
#348 = FILL_AREA_STYLE_COLOUR( '', #412 );
#349 = B_SPLINE_CURVE_WITH_KNOTS( '', 3, ( #413, #414, #415, #416 ), .UNSPECIFIED., .F., .F., ( 4, 4 ), ( 0.0119476865857433, 0.0136917789295996 ), .UNSPECIFIED. );
#350 = B_SPLINE_CURVE_WITH_KNOTS( '', 3, ( #417, #418, #419, #420 ), .UNSPECIFIED., .F., .F., ( 4, 4 ), ( 0.0288470734708196, 0.0305935337729002 ), .UNSPECIFIED. );
#351 = FILL_AREA_STYLE_COLOUR( '', #421 );
#352 = LINE( '', #422, #423 );
#353 = LINE( '', #424, #425 );
#354 = FILL_AREA_STYLE_COLOUR( '', #426 );
#355 = VERTEX_POINT( '', #427 );
#356 = CIRCLE( '', #428, 5.00000000000000 );
#357 = FILL_AREA_STYLE_COLOUR( '', #429 );
#358 = FILL_AREA_STYLE_COLOUR( '', #430 );
#359 = VERTEX_POINT( '', #431 );
#360 = CIRCLE( '', #432, 4.50000000000000 );
#361 = FILL_AREA_STYLE_COLOUR( '', #433 );
#362 = FILL_AREA_STYLE_COLOUR( '', #434 );
#363 = FILL_AREA_STYLE_COLOUR( '', #435 );
#364 = LINE( '', #436, #437 );
#365 = FILL_AREA_STYLE_COLOUR( '', #438 );
#366 = COLOUR_RGB( '', 0.689999997600000, 0.689999997600000, 0.689999997600000 );
#367 = CARTESIAN_POINT( '', ( 88.0000000000000, 7.00000000000002, 0.000000000000000 ) );
#368 = AXIS2_PLACEMENT_3D( '', #439, #440, #441 );
#369 = CARTESIAN_POINT( '', ( 1.22700000000002, -0.899999999999974, 6.94190175672344 ) );
#370 = CARTESIAN_POINT( '', ( 1.22700000000002, -0.899999999999974, -6.94190175672344 ) );
#371 = AXIS2_PLACEMENT_3D( '', #442, #443, #444 );
#372 = CARTESIAN_POINT( '', ( 3.00000000000002, -0.899999999999979, -6.94190175672344 ) );
#373 = CARTESIAN_POINT( '', ( 100.000000000000, -0.899999999999980, -6.94190175672344 ) );
#374 = VECTOR( '', #445, 1000.00000000000 );
#375 = CARTESIAN_POINT( '', ( 3.00000000000002, 0.900000000000020, -6.94190175672344 ) );
#376 = AXIS2_PLACEMENT_3D( '', #446, #447, #448 );
#377 = CARTESIAN_POINT( '', ( 1.22700000000002, 0.900000000000027, -6.94190175672344 ) );
#378 = CARTESIAN_POINT( '', ( 100.000000000000, 0.900000000000020, -6.94190175672344 ) );
#379 = VECTOR( '', #449, 1000.00000000000 );
#380 = CARTESIAN_POINT( '', ( 1.22700000000002, 0.900000000000027, 6.94190175672344 ) );
#381 = AXIS2_PLACEMENT_3D( '', #450, #451, #452 );
#382 = CARTESIAN_POINT( '', ( 3.00000000000002, 0.900000000000020, 6.94190175672344 ) );
#383 = CARTESIAN_POINT( '', ( 100.000000000000, 0.900000000000020, 6.94190175672344 ) );
#384 = VECTOR( '', #453, 1000.00000000000 );
#385 = CARTESIAN_POINT( '', ( 3.00000000000002, -0.899999999999979, 6.94190175672344 ) );
#386 = AXIS2_PLACEMENT_3D( '', #454, #455, #456 );
#387 = CARTESIAN_POINT( '', ( 100.000000000000, -0.899999999999980, 6.94190175672344 ) );
#388 = VECTOR( '', #457, 1000.00000000000 );
#389 = COLOUR_RGB( '', 0.689999997600000, 0.689999997600000, 0.689999997600000 );
#390 = CARTESIAN_POINT( '', ( 1.42108547152020E-14, 0.900000000000020, -5.70241431325364 ) );
#391 = CARTESIAN_POINT( '', ( 1.42108547152020E-14, 0.900000000000020, 5.70241431325364 ) );
#392 = AXIS2_PLACEMENT_3D( '', #458, #459, #460 );
#393 = CARTESIAN_POINT( '', ( 1.32711674203642E-14, 0.900000000000020, 5.70241431325364 ) );
#394 = CARTESIAN_POINT( '', ( 0.408551604172669, 0.900000000000020, 6.11602305532749 ) );
#395 = CARTESIAN_POINT( '', ( 0.817630928954759, 0.900000000000020, 6.52910658938455 ) );
#396 = CARTESIAN_POINT( '', ( 1.22700000000002, 0.900000000000020, 6.94190175672344 ) );
#397 = CARTESIAN_POINT( '', ( 1.22700000000001, 0.900000000000020, -6.94190175672345 ) );
#398 = CARTESIAN_POINT( '', ( 0.817629976282249, 0.900000000000020, -6.52910562873893 ) );
#399 = CARTESIAN_POINT( '', ( 0.408550449058598, 0.900000000000020, -6.11602188591518 ) );
#400 = CARTESIAN_POINT( '', ( 9.40904091503809E-15, 0.900000000000020, -5.70241431325365 ) );
#401 = COLOUR_RGB( '', 0.689999997600000, 0.689999997600000, 0.689999997600000 );
#402 = CARTESIAN_POINT( '', ( 95.0000000000000, 5.00000000000002, 0.000000000000000 ) );
#403 = AXIS2_PLACEMENT_3D( '', #461, #462, #463 );
#404 = CARTESIAN_POINT( '', ( 95.0000000000000, 4.50000000000002, 0.000000000000000 ) );
#405 = AXIS2_PLACEMENT_3D( '', #464, #465, #466 );
#406 = COLOUR_RGB( '', 0.689999997600000, 0.689999997600000, 0.689999997600000 );
#407 = CARTESIAN_POINT( '', ( 1.42108547152020E-14, -0.899999999999979, 5.70241431325364 ) );
#408 = CARTESIAN_POINT( '', ( 1.42108547152020E-14, -0.899999999999979, -5.70241431325364 ) );
#409 = AXIS2_PLACEMENT_3D( '', #467, #468, #469 );
#410 = CARTESIAN_POINT( '', ( 1.42108547152020E-14, -0.899999999999980, -10.5000000000000 ) );
#411 = VECTOR( '', #470, 1000.00000000000 );
#412 = COLOUR_RGB( '', 0.689999997600000, 0.689999997600000, 0.689999997600000 );
#413 = CARTESIAN_POINT( '', ( 1.22700000000001, -0.899999999999980, 6.94190175672345 ) );
#414 = CARTESIAN_POINT( '', ( 0.817629976282247, -0.899999999999980, 6.52910562873893 ) );
#415 = CARTESIAN_POINT( '', ( 0.408550449058596, -0.899999999999980, 6.11602188591518 ) );
#416 = CARTESIAN_POINT( '', ( 8.04378924018667E-15, -0.899999999999980, 5.70241431325365 ) );
#417 = CARTESIAN_POINT( '', ( 1.31617353780420E-14, -0.899999999999980, -5.70241431325364 ) );
#418 = CARTESIAN_POINT( '', ( 0.408551604172669, -0.899999999999980, -6.11602305532749 ) );
#419 = CARTESIAN_POINT( '', ( 0.817630928954758, -0.899999999999980, -6.52910658938455 ) );
#420 = CARTESIAN_POINT( '', ( 1.22700000000002, -0.899999999999980, -6.94190175672344 ) );
#421 = COLOUR_RGB( '', 0.689999997600000, 0.689999997600000, 0.689999997600000 );
#422 = CARTESIAN_POINT( '', ( 1.42108547152020E-14, 0.900000000000020, 10.5000000000000 ) );
#423 = VECTOR( '', #471, 1000.00000000000 );
#424 = CARTESIAN_POINT( '', ( 3.00000000000001, 0.900000000000020, 10.5000000000000 ) );
#425 = VECTOR( '', #472, 1000.00000000000 );
#426 = COLOUR_RGB( '', 0.689999997600000, 0.689999997600000, 0.689999997600000 );
#427 = CARTESIAN_POINT( '', ( 98.3466297046987, 5.00000000000002, 0.000000000000000 ) );
#428 = AXIS2_PLACEMENT_3D( '', #473, #474, #475 );
#429 = COLOUR_RGB( '', 0.689999997600000, 0.689999997600000, 0.689999997600000 );
#430 = COLOUR_RGB( '', 0.689999997600000, 0.689999997600000, 0.689999997600000 );
#431 = CARTESIAN_POINT( '', ( 89.1547600000000, 4.50000000000002, 0.000000000000000 ) );
#432 = AXIS2_PLACEMENT_3D( '', #476, #477, #478 );
#433 = COLOUR_RGB( '', 0.689999997600000, 0.689999997600000, 0.689999997600000 );
#434 = COLOUR_RGB( '', 0.689999997600000, 0.689999997600000, 0.689999997600000 );
#435 = COLOUR_RGB( '', 0.689999997600000, 0.689999997600000, 0.689999997600000 );
#436 = CARTESIAN_POINT( '', ( 3.00000000000001, -0.899999999999980, -10.5000000000000 ) );
#437 = VECTOR( '', #479, 1000.00000000000 );
#438 = COLOUR_RGB( '', 0.689999997600000, 0.689999997600000, 0.689999997600000 );
#439 = CARTESIAN_POINT( '', ( 88.0000000000000, 1.49456427946904E-14, 0.000000000000000 ) );
#440 = DIRECTION( '', ( 1.00000000000000, -6.12323399573677E-17, -0.000000000000000 ) );
#441 = DIRECTION( '', ( 6.12323399573677E-17, 1.00000000000000, 0.000000000000000 ) );
#442 = CARTESIAN_POINT( '', ( 1.22700000000002, 2.02589566298111E-14, 0.000000000000000 ) );
#443 = DIRECTION( '', ( 1.00000000000000, -6.12323399573677E-17, -0.000000000000000 ) );
#444 = DIRECTION( '', ( 6.12323399573677E-17, 1.00000000000000, 0.000000000000000 ) );
#445 = DIRECTION( '', ( 1.00000000000000, -6.12323399573677E-17, -0.000000000000000 ) );
#446 = CARTESIAN_POINT( '', ( 3.00000000000002, 2.01503916910667E-14, 0.000000000000000 ) );
#447 = DIRECTION( '', ( -1.00000000000000, 0.000000000000000, 0.000000000000000 ) );
#448 = DIRECTION( '', ( 0.000000000000000, 0.000000000000000, 1.00000000000000 ) );
#449 = DIRECTION( '', ( 1.00000000000000, -6.12323399573677E-17, -0.000000000000000 ) );
#450 = CARTESIAN_POINT( '', ( 1.22700000000002, 2.02589566298111E-14, 0.000000000000000 ) );
#451 = DIRECTION( '', ( 1.00000000000000, -6.12323399573677E-17, -0.000000000000000 ) );
#452 = DIRECTION( '', ( 6.12323399573677E-17, 1.00000000000000, 0.000000000000000 ) );
#453 = DIRECTION( '', ( 1.00000000000000, -6.12323399573677E-17, -0.000000000000000 ) );
#454 = CARTESIAN_POINT( '', ( 3.00000000000002, 2.01503916910667E-14, 0.000000000000000 ) );
#455 = DIRECTION( '', ( -1.00000000000000, 0.000000000000000, 0.000000000000000 ) );
#456 = DIRECTION( '', ( 0.000000000000000, 0.000000000000000, 1.00000000000000 ) );
#457 = DIRECTION( '', ( 1.00000000000000, -6.12323399573677E-17, -0.000000000000000 ) );
#458 = CARTESIAN_POINT( '', ( 1.38777878078145E-14, 2.03340887109388E-14, 0.000000000000000 ) );
#459 = DIRECTION( '', ( 1.00000000000000, -6.12323399573677E-17, -0.000000000000000 ) );
#460 = DIRECTION( '', ( 6.12323399573677E-17, 1.00000000000000, 0.000000000000000 ) );
#461 = CARTESIAN_POINT( '', ( 95.0000000000000, 1.45170164149888E-14, 0.000000000000000 ) );
#462 = DIRECTION( '', ( 1.00000000000000, -6.12323399573677E-17, -0.000000000000000 ) );
#463 = DIRECTION( '', ( 6.12323399573677E-17, 1.00000000000000, 0.000000000000000 ) );
#464 = CARTESIAN_POINT( '', ( 95.0000000000000, 1.45170164149888E-14, 0.000000000000000 ) );
#465 = DIRECTION( '', ( 1.00000000000000, -6.12323399573677E-17, -0.000000000000000 ) );
#466 = DIRECTION( '', ( 6.12323399573677E-17, 1.00000000000000, 0.000000000000000 ) );
#467 = CARTESIAN_POINT( '', ( 1.38777878078145E-14, 2.03340887109388E-14, 0.000000000000000 ) );
#468 = DIRECTION( '', ( 1.00000000000000, -6.12323399573677E-17, -0.000000000000000 ) );
#469 = DIRECTION( '', ( 6.12323399573677E-17, 1.00000000000000, 0.000000000000000 ) );
#470 = DIRECTION( '', ( 0.000000000000000, 0.000000000000000, 1.00000000000000 ) );
#471 = DIRECTION( '', ( 0.000000000000000, 0.000000000000000, -1.00000000000000 ) );
#472 = DIRECTION( '', ( 0.000000000000000, 0.000000000000000, -1.00000000000000 ) );
#473 = CARTESIAN_POINT( '', ( 98.3466297046987, 1.43120944471993E-14, 0.000000000000000 ) );
#474 = DIRECTION( '', ( 1.00000000000000, -6.12323399573677E-17, -0.000000000000000 ) );
#475 = DIRECTION( '', ( 6.12323399573677E-17, 1.00000000000000, 0.000000000000000 ) );
#476 = CARTESIAN_POINT( '', ( 89.1547600000000, 1.48749341378012E-14, 0.000000000000000 ) );
#477 = DIRECTION( '', ( 1.00000000000000, -6.12323399573677E-17, -0.000000000000000 ) );
#478 = DIRECTION( '', ( 6.12323399573677E-17, 1.00000000000000, 0.000000000000000 ) );
#479 = DIRECTION( '', ( 0.000000000000000, 0.000000000000000, 1.00000000000000 ) );
ENDSEC;
END-ISO-10303-21;
