ISO-10303-21;
HEADER;
FILE_DESCRIPTION( ( 'STEP AP214' ), '1' );
FILE_NAME( '//goodhand-server/Shared Folders/GoodHand Data/Kipp CAD/K0250/K0250.2410.stp', '2020-11-26T15:00:44', ( '' ), ( '' ), ' ', 'PARTsolutions', ' ' );
FILE_SCHEMA( ( 'AUTOMOTIVE_DESIGN { 1 0 10303 214 1 1 1 1 }' ) );
ENDSEC;
DATA;
#1 = MECHANICAL_DESIGN_GEOMETRIC_PRESENTATION_REPRESENTATION( ' ', ( #10, #11, #12, #13, #14, #15, #16, #17, #18, #19, #20, #21, #22 ), #6 );
#2 = PRODUCT_DEFINITION_CONTEXT( '', #23, 'design' );
#3 = APPLICATION_PROTOCOL_DEFINITION( 'international standard', 'automotive_design', 2001, #23 );
#4 = PRODUCT_CATEGORY_RELATIONSHIP( 'NONE', 'NONE', #24, #25 );
#5 = SHAPE_DEFINITION_REPRESENTATION( #26, #27 );
#6 =  ( GEOMETRIC_REPRESENTATION_CONTEXT( 3 )GLOBAL_UNCERTAINTY_ASSIGNED_CONTEXT( ( #30 ) )GLOBAL_UNIT_ASSIGNED_CONTEXT( ( #32, #33, #34 ) )REPRESENTATION_CONTEXT( 'NONE', 'WORKSPACE' ) );
#10 = STYLED_ITEM( '', ( #36 ), #37 );
#11 = STYLED_ITEM( '', ( #38 ), #39 );
#12 = STYLED_ITEM( '', ( #40 ), #41 );
#13 = STYLED_ITEM( '', ( #42 ), #43 );
#14 = STYLED_ITEM( '', ( #44 ), #45 );
#15 = STYLED_ITEM( '', ( #46 ), #47 );
#16 = STYLED_ITEM( '', ( #48 ), #49 );
#17 = STYLED_ITEM( '', ( #50 ), #51 );
#18 = STYLED_ITEM( '', ( #52 ), #53 );
#19 = STYLED_ITEM( '', ( #54 ), #55 );
#20 = STYLED_ITEM( '', ( #56 ), #57 );
#21 = STYLED_ITEM( '', ( #58 ), #59 );
#22 = STYLED_ITEM( '', ( #60 ), #61 );
#23 = APPLICATION_CONTEXT( 'core data for automotive mechanical design processes' );
#24 = PRODUCT_CATEGORY( 'part', 'NONE' );
#25 = PRODUCT_RELATED_PRODUCT_CATEGORY( 'detail', ' ', ( #62 ) );
#26 = PRODUCT_DEFINITION_SHAPE( 'NONE', 'NONE', #63 );
#27 = ADVANCED_BREP_SHAPE_REPRESENTATION( '_K0250.2410', ( #64, #65 ), #6 );
#30 = UNCERTAINTY_MEASURE_WITH_UNIT( LENGTH_MEASURE( 0.00100000000000000 ), #32, '', '' );
#32 =  ( CONVERSION_BASED_UNIT( 'MILLIMETRE', #68 )LENGTH_UNIT(  )NAMED_UNIT( #71 ) );
#33 =  ( NAMED_UNIT( #73 )PLANE_ANGLE_UNIT(  )SI_UNIT( $, .RADIAN. ) );
#34 =  ( NAMED_UNIT( #73 )SI_UNIT( $, .STERADIAN. )SOLID_ANGLE_UNIT(  ) );
#36 = PRESENTATION_STYLE_ASSIGNMENT( ( #79 ) );
#37 = ADVANCED_FACE( '', ( #80, #81 ), #82, .F. );
#38 = PRESENTATION_STYLE_ASSIGNMENT( ( #83 ) );
#39 = ADVANCED_FACE( '', ( #84, #85 ), #86, .T. );
#40 = PRESENTATION_STYLE_ASSIGNMENT( ( #87 ) );
#41 = ADVANCED_FACE( '', ( #88, #89 ), #90, .F. );
#42 = PRESENTATION_STYLE_ASSIGNMENT( ( #91 ) );
#43 = ADVANCED_FACE( '', ( #92, #93 ), #94, .F. );
#44 = PRESENTATION_STYLE_ASSIGNMENT( ( #95 ) );
#45 = ADVANCED_FACE( '', ( #96, #97 ), #98, .F. );
#46 = PRESENTATION_STYLE_ASSIGNMENT( ( #99 ) );
#47 = ADVANCED_FACE( '', ( #100, #101 ), #102, .F. );
#48 = PRESENTATION_STYLE_ASSIGNMENT( ( #103 ) );
#49 = ADVANCED_FACE( '', ( #104, #105 ), #106, .T. );
#50 = PRESENTATION_STYLE_ASSIGNMENT( ( #107 ) );
#51 = ADVANCED_FACE( '', ( #108, #109 ), #110, .T. );
#52 = PRESENTATION_STYLE_ASSIGNMENT( ( #111 ) );
#53 = ADVANCED_FACE( '', ( #112, #113 ), #114, .T. );
#54 = PRESENTATION_STYLE_ASSIGNMENT( ( #115 ) );
#55 = ADVANCED_FACE( '', ( #116, #117 ), #118, .T. );
#56 = PRESENTATION_STYLE_ASSIGNMENT( ( #119 ) );
#57 = ADVANCED_FACE( '', ( #120, #121 ), #122, .F. );
#58 = PRESENTATION_STYLE_ASSIGNMENT( ( #123 ) );
#59 = ADVANCED_FACE( '', ( #124, #125 ), #126, .T. );
#60 = PRESENTATION_STYLE_ASSIGNMENT( ( #127 ) );
#61 = ADVANCED_FACE( '', ( #128, #129 ), #130, .F. );
#62 = PRODUCT( '_K0250.2410', '_K0250.2410', 'PART-_K0250.2410-DESC', ( #131 ) );
#63 = PRODUCT_DEFINITION( 'NONE', 'NONE', #132, #2 );
#64 = MANIFOLD_SOLID_BREP( '_K0250.2410', #133 );
#65 = AXIS2_PLACEMENT_3D( '', #134, #135, #136 );
#68 = LENGTH_MEASURE_WITH_UNIT( LENGTH_MEASURE( 1.00000000000000 ), #137 );
#71 = DIMENSIONAL_EXPONENTS( 1.00000000000000, 0.000000000000000, 0.000000000000000, 0.000000000000000, 0.000000000000000, 0.000000000000000, 0.000000000000000 );
#73 = DIMENSIONAL_EXPONENTS( 0.000000000000000, 0.000000000000000, 0.000000000000000, 0.000000000000000, 0.000000000000000, 0.000000000000000, 0.000000000000000 );
#79 = SURFACE_STYLE_USAGE( .BOTH., #138 );
#80 = FACE_OUTER_BOUND( '', #139, .T. );
#81 = FACE_BOUND( '', #140, .T. );
#82 = PLANE( '', #141 );
#83 = SURFACE_STYLE_USAGE( .BOTH., #142 );
#84 = FACE_OUTER_BOUND( '', #143, .T. );
#85 = FACE_OUTER_BOUND( '', #144, .T. );
#86 = TOROIDAL_SURFACE( '', #145, 16.0000000000000, 4.00000000000000 );
#87 = SURFACE_STYLE_USAGE( .BOTH., #146 );
#88 = FACE_OUTER_BOUND( '', #147, .T. );
#89 = FACE_BOUND( '', #148, .T. );
#90 = CONICAL_SURFACE( '', #149, 866.025403784400, 1.04719755120000 );
#91 = SURFACE_STYLE_USAGE( .BOTH., #150 );
#92 = FACE_BOUND( '', #151, .T. );
#93 = FACE_OUTER_BOUND( '', #152, .T. );
#94 = PLANE( '', #153 );
#95 = SURFACE_STYLE_USAGE( .BOTH., #154 );
#96 = FACE_BOUND( '', #155, .T. );
#97 = FACE_OUTER_BOUND( '', #156, .T. );
#98 = SPHERICAL_SURFACE( '', #157, 80.0000000000000 );
#99 = SURFACE_STYLE_USAGE( .BOTH., #158 );
#100 = FACE_OUTER_BOUND( '', #159, .T. );
#101 = FACE_OUTER_BOUND( '', #160, .T. );
#102 = TOROIDAL_SURFACE( '', #161, 16.0000000000000, 4.00000000000000 );
#103 = SURFACE_STYLE_USAGE( .BOTH., #162 );
#104 = FACE_OUTER_BOUND( '', #163, .T. );
#105 = FACE_OUTER_BOUND( '', #164, .T. );
#106 = TOROIDAL_SURFACE( '', #165, 10.0000000000000, 2.00000000000000 );
#107 = SURFACE_STYLE_USAGE( .BOTH., #166 );
#108 = FACE_BOUND( '', #167, .T. );
#109 = FACE_OUTER_BOUND( '', #168, .T. );
#110 = CONICAL_SURFACE( '', #169, 19.0641777725000, 0.698131700800000 );
#111 = SURFACE_STYLE_USAGE( .BOTH., #170 );
#112 = FACE_OUTER_BOUND( '', #171, .T. );
#113 = FACE_OUTER_BOUND( '', #172, .T. );
#114 = TOROIDAL_SURFACE( '', #173, 18.0000000000000, 2.00000000000000 );
#115 = SURFACE_STYLE_USAGE( .BOTH., #174 );
#116 = FACE_OUTER_BOUND( '', #175, .T. );
#117 = FACE_OUTER_BOUND( '', #176, .T. );
#118 = CYLINDRICAL_SURFACE( '', #177, 20.0000000000000 );
#119 = SURFACE_STYLE_USAGE( .BOTH., #178 );
#120 = FACE_OUTER_BOUND( '', #179, .T. );
#121 = FACE_OUTER_BOUND( '', #180, .T. );
#122 = CYLINDRICAL_SURFACE( '', #181, 4.18800000000000 );
#123 = SURFACE_STYLE_USAGE( .BOTH., #182 );
#124 = FACE_OUTER_BOUND( '', #183, .T. );
#125 = FACE_OUTER_BOUND( '', #184, .T. );
#126 = CYLINDRICAL_SURFACE( '', #185, 12.0000000000000 );
#127 = SURFACE_STYLE_USAGE( .BOTH., #186 );
#128 = FACE_OUTER_BOUND( '', #187, .T. );
#129 = FACE_BOUND( '', #188, .T. );
#130 = CONICAL_SURFACE( '', #189, 4.18800000000000, 0.785398163400000 );
#131 = PRODUCT_CONTEXT( '', #23, 'mechanical' );
#132 = PRODUCT_DEFINITION_FORMATION_WITH_SPECIFIED_SOURCE( ' ', 'NONE', #62, .NOT_KNOWN. );
#133 = CLOSED_SHELL( '', ( #41, #57, #43, #45, #37, #53, #55, #39, #51, #47, #59, #49, #61 ) );
#134 = CARTESIAN_POINT( '', ( 0.000000000000000, 0.000000000000000, 0.000000000000000 ) );
#135 = DIRECTION( '', ( 0.000000000000000, 0.000000000000000, 1.00000000000000 ) );
#136 = DIRECTION( '', ( 1.00000000000000, 0.000000000000000, 0.000000000000000 ) );
#137 =  ( LENGTH_UNIT(  )NAMED_UNIT( #71 )SI_UNIT( .MILLI., .METRE. ) );
#138 = SURFACE_SIDE_STYLE( '', ( #191 ) );
#139 = EDGE_LOOP( '', ( #192 ) );
#140 = EDGE_LOOP( '', ( #193 ) );
#141 = AXIS2_PLACEMENT_3D( '', #194, #195, #196 );
#142 = SURFACE_SIDE_STYLE( '', ( #197 ) );
#143 = EDGE_LOOP( '', ( #198 ) );
#144 = EDGE_LOOP( '', ( #199 ) );
#145 = AXIS2_PLACEMENT_3D( '', #200, #201, #202 );
#146 = SURFACE_SIDE_STYLE( '', ( #203 ) );
#147 = EDGE_LOOP( '', ( #204 ) );
#148 = VERTEX_LOOP( '', #205 );
#149 = AXIS2_PLACEMENT_3D( '', #206, #207, #208 );
#150 = SURFACE_SIDE_STYLE( '', ( #209 ) );
#151 = EDGE_LOOP( '', ( #210 ) );
#152 = EDGE_LOOP( '', ( #211 ) );
#153 = AXIS2_PLACEMENT_3D( '', #212, #213, #214 );
#154 = SURFACE_SIDE_STYLE( '', ( #215 ) );
#155 = VERTEX_LOOP( '', #216 );
#156 = EDGE_LOOP( '', ( #217 ) );
#157 = AXIS2_PLACEMENT_3D( '', #218, #219, #220 );
#158 = SURFACE_SIDE_STYLE( '', ( #221 ) );
#159 = EDGE_LOOP( '', ( #222 ) );
#160 = EDGE_LOOP( '', ( #223 ) );
#161 = AXIS2_PLACEMENT_3D( '', #224, #225, #226 );
#162 = SURFACE_SIDE_STYLE( '', ( #227 ) );
#163 = EDGE_LOOP( '', ( #228 ) );
#164 = EDGE_LOOP( '', ( #229 ) );
#165 = AXIS2_PLACEMENT_3D( '', #230, #231, #232 );
#166 = SURFACE_SIDE_STYLE( '', ( #233 ) );
#167 = EDGE_LOOP( '', ( #234 ) );
#168 = EDGE_LOOP( '', ( #235 ) );
#169 = AXIS2_PLACEMENT_3D( '', #236, #237, #238 );
#170 = SURFACE_SIDE_STYLE( '', ( #239 ) );
#171 = EDGE_LOOP( '', ( #240 ) );
#172 = EDGE_LOOP( '', ( #241 ) );
#173 = AXIS2_PLACEMENT_3D( '', #242, #243, #244 );
#174 = SURFACE_SIDE_STYLE( '', ( #245 ) );
#175 = EDGE_LOOP( '', ( #246 ) );
#176 = EDGE_LOOP( '', ( #247 ) );
#177 = AXIS2_PLACEMENT_3D( '', #248, #249, #250 );
#178 = SURFACE_SIDE_STYLE( '', ( #251 ) );
#179 = EDGE_LOOP( '', ( #252 ) );
#180 = EDGE_LOOP( '', ( #253 ) );
#181 = AXIS2_PLACEMENT_3D( '', #254, #255, #256 );
#182 = SURFACE_SIDE_STYLE( '', ( #257 ) );
#183 = EDGE_LOOP( '', ( #258 ) );
#184 = EDGE_LOOP( '', ( #259 ) );
#185 = AXIS2_PLACEMENT_3D( '', #260, #261, #262 );
#186 = SURFACE_SIDE_STYLE( '', ( #263 ) );
#187 = EDGE_LOOP( '', ( #264 ) );
#188 = EDGE_LOOP( '', ( #265 ) );
#189 = AXIS2_PLACEMENT_3D( '', #266, #267, #268 );
#191 = SURFACE_STYLE_FILL_AREA( #269 );
#192 = ORIENTED_EDGE( '', *, *, #270, .F. );
#193 = ORIENTED_EDGE( '', *, *, #271, .T. );
#194 = CARTESIAN_POINT( '', ( 17.7763888346312, 40.0000000000000, 0.000000000000000 ) );
#195 = DIRECTION( '', ( 0.000000000000000, -1.00000000000000, -0.000000000000000 ) );
#196 = DIRECTION( '', ( 0.000000000000000, 0.000000000000000, -1.00000000000000 ) );
#197 = SURFACE_STYLE_FILL_AREA( #272 );
#198 = ORIENTED_EDGE( '', *, *, #273, .T. );
#199 = ORIENTED_EDGE( '', *, *, #274, .F. );
#200 = CARTESIAN_POINT( '', ( 0.000000000000000, 29.6899096778185, 0.000000000000000 ) );
#201 = DIRECTION( '', ( 0.000000000000000, -1.00000000000000, -0.000000000000000 ) );
#202 = DIRECTION( '', ( 0.000000000000000, 0.000000000000000, -1.00000000000000 ) );
#203 = SURFACE_STYLE_FILL_AREA( #275 );
#204 = ORIENTED_EDGE( '', *, *, #276, .T. );
#205 = VERTEX_POINT( '', #277 );
#206 = CARTESIAN_POINT( '', ( 0.000000000000000, -473.582057072634, 0.000000000000000 ) );
#207 = DIRECTION( '', ( -0.000000000000000, -1.00000000000000, -0.000000000000000 ) );
#208 = DIRECTION( '', ( 0.000000000000000, 0.000000000000000, -1.00000000000000 ) );
#209 = SURFACE_STYLE_FILL_AREA( #278 );
#210 = ORIENTED_EDGE( '', *, *, #279, .F. );
#211 = ORIENTED_EDGE( '', *, *, #280, .T. );
#212 = CARTESIAN_POINT( '', ( 10.0000000000000, 2.16840434497101E-16, 0.000000000000000 ) );
#213 = DIRECTION( '', ( 0.000000000000000, 1.00000000000000, 0.000000000000000 ) );
#214 = DIRECTION( '', ( 0.000000000000000, -0.000000000000000, 1.00000000000000 ) );
#215 = SURFACE_STYLE_FILL_AREA( #281 );
#216 = VERTEX_POINT( '', #282 );
#217 = ORIENTED_EDGE( '', *, *, #271, .F. );
#218 = CARTESIAN_POINT( '', ( -2.44596010112730E-13, 118.000000000002, 0.000000000000000 ) );
#219 = DIRECTION( '', ( 0.000000000000000, -1.00000000000000, 0.000000000000000 ) );
#220 = DIRECTION( '', ( 1.00000000000000, 0.000000000000000, 0.000000000000000 ) );
#221 = SURFACE_STYLE_FILL_AREA( #283 );
#222 = ORIENTED_EDGE( '', *, *, #284, .F. );
#223 = ORIENTED_EDGE( '', *, *, #285, .T. );
#224 = CARTESIAN_POINT( '', ( 0.000000000000000, 17.2441190629352, 0.000000000000000 ) );
#225 = DIRECTION( '', ( 0.000000000000000, -1.00000000000000, -0.000000000000000 ) );
#226 = DIRECTION( '', ( 0.000000000000000, 0.000000000000000, -1.00000000000000 ) );
#227 = SURFACE_STYLE_FILL_AREA( #286 );
#228 = ORIENTED_EDGE( '', *, *, #287, .T. );
#229 = ORIENTED_EDGE( '', *, *, #280, .F. );
#230 = CARTESIAN_POINT( '', ( 0.000000000000000, 2.00000000000000, 0.000000000000000 ) );
#231 = DIRECTION( '', ( 0.000000000000000, -1.00000000000000, -0.000000000000000 ) );
#232 = DIRECTION( '', ( 0.000000000000000, 0.000000000000000, -1.00000000000000 ) );
#233 = SURFACE_STYLE_FILL_AREA( #288 );
#234 = ORIENTED_EDGE( '', *, *, #285, .F. );
#235 = ORIENTED_EDGE( '', *, *, #274, .T. );
#236 = CARTESIAN_POINT( '', ( 0.000000000000000, 27.1187592390723, 0.000000000000000 ) );
#237 = DIRECTION( '', ( -0.000000000000000, 1.00000000000000, 0.000000000000000 ) );
#238 = DIRECTION( '', ( 0.000000000000000, -0.000000000000000, 1.00000000000000 ) );
#239 = SURFACE_STYLE_FILL_AREA( #289 );
#240 = ORIENTED_EDGE( '', *, *, #270, .T. );
#241 = ORIENTED_EDGE( '', *, *, #290, .F. );
#242 = CARTESIAN_POINT( '', ( 0.000000000000000, 38.0000000000000, 0.000000000000000 ) );
#243 = DIRECTION( '', ( 0.000000000000000, -1.00000000000000, -0.000000000000000 ) );
#244 = DIRECTION( '', ( 0.000000000000000, 0.000000000000000, -1.00000000000000 ) );
#245 = SURFACE_STYLE_FILL_AREA( #291 );
#246 = ORIENTED_EDGE( '', *, *, #273, .F. );
#247 = ORIENTED_EDGE( '', *, *, #290, .T. );
#248 = CARTESIAN_POINT( '', ( 0.000000000000000, 0.000000000000000, 0.000000000000000 ) );
#249 = DIRECTION( '', ( -0.000000000000000, 1.00000000000000, 0.000000000000000 ) );
#250 = DIRECTION( '', ( 0.000000000000000, 0.000000000000000, -1.00000000000000 ) );
#251 = SURFACE_STYLE_FILL_AREA( #292 );
#252 = ORIENTED_EDGE( '', *, *, #293, .T. );
#253 = ORIENTED_EDGE( '', *, *, #276, .F. );
#254 = CARTESIAN_POINT( '', ( 0.000000000000000, 0.000000000000000, 0.000000000000000 ) );
#255 = DIRECTION( '', ( -0.000000000000000, 1.00000000000000, 0.000000000000000 ) );
#256 = DIRECTION( '', ( 0.000000000000000, 0.000000000000000, -1.00000000000000 ) );
#257 = SURFACE_STYLE_FILL_AREA( #294 );
#258 = ORIENTED_EDGE( '', *, *, #287, .F. );
#259 = ORIENTED_EDGE( '', *, *, #284, .T. );
#260 = CARTESIAN_POINT( '', ( 0.000000000000000, 0.000000000000000, 0.000000000000000 ) );
#261 = DIRECTION( '', ( -0.000000000000000, 1.00000000000000, 0.000000000000000 ) );
#262 = DIRECTION( '', ( 0.000000000000000, 0.000000000000000, -1.00000000000000 ) );
#263 = SURFACE_STYLE_FILL_AREA( #295 );
#264 = ORIENTED_EDGE( '', *, *, #279, .T. );
#265 = ORIENTED_EDGE( '', *, *, #293, .F. );
#266 = CARTESIAN_POINT( '', ( 0.000000000000000, 0.812000000000000, 0.000000000000000 ) );
#267 = DIRECTION( '', ( -0.000000000000000, -1.00000000000000, -0.000000000000000 ) );
#268 = DIRECTION( '', ( 0.000000000000000, 0.000000000000000, -1.00000000000000 ) );
#269 = FILL_AREA_STYLE( '', ( #296 ) );
#270 = EDGE_CURVE( '', #297, #297, #298, .T. );
#271 = EDGE_CURVE( '', #299, #299, #300, .T. );
#272 = FILL_AREA_STYLE( '', ( #301 ) );
#273 = EDGE_CURVE( '', #302, #302, #303, .T. );
#274 = EDGE_CURVE( '', #304, #304, #305, .T. );
#275 = FILL_AREA_STYLE( '', ( #306 ) );
#276 = EDGE_CURVE( '', #307, #307, #308, .T. );
#277 = CARTESIAN_POINT( '', ( 0.000000000000000, 26.4179429273662, 0.000000000000000 ) );
#278 = FILL_AREA_STYLE( '', ( #309 ) );
#279 = EDGE_CURVE( '', #310, #310, #311, .T. );
#280 = EDGE_CURVE( '', #312, #312, #313, .T. );
#281 = FILL_AREA_STYLE( '', ( #314 ) );
#282 = CARTESIAN_POINT( '', ( -2.39697422916140E-13, 38.0000000000000, 0.000000000000000 ) );
#283 = FILL_AREA_STYLE( '', ( #315 ) );
#284 = EDGE_CURVE( '', #316, #316, #317, .T. );
#285 = EDGE_CURVE( '', #318, #318, #319, .T. );
#286 = FILL_AREA_STYLE( '', ( #320 ) );
#287 = EDGE_CURVE( '', #321, #321, #322, .T. );
#288 = FILL_AREA_STYLE( '', ( #323 ) );
#289 = FILL_AREA_STYLE( '', ( #324 ) );
#290 = EDGE_CURVE( '', #325, #325, #326, .T. );
#291 = FILL_AREA_STYLE( '', ( #327 ) );
#292 = FILL_AREA_STYLE( '', ( #328 ) );
#293 = EDGE_CURVE( '', #329, #329, #330, .T. );
#294 = FILL_AREA_STYLE( '', ( #331 ) );
#295 = FILL_AREA_STYLE( '', ( #332 ) );
#296 = FILL_AREA_STYLE_COLOUR( '', #333 );
#297 = VERTEX_POINT( '', #334 );
#298 = CIRCLE( '', #335, 18.0000000000000 );
#299 = VERTEX_POINT( '', #336 );
#300 = CIRCLE( '', #337, 17.7763888346000 );
#301 = FILL_AREA_STYLE_COLOUR( '', #338 );
#302 = VERTEX_POINT( '', #339 );
#303 = CIRCLE( '', #340, 20.0000000000000 );
#304 = VERTEX_POINT( '', #341 );
#305 = CIRCLE( '', #342, 19.0641777725000 );
#306 = FILL_AREA_STYLE_COLOUR( '', #343 );
#307 = VERTEX_POINT( '', #344 );
#308 = CIRCLE( '', #345, 4.18800000000000 );
#309 = FILL_AREA_STYLE_COLOUR( '', #346 );
#310 = VERTEX_POINT( '', #347 );
#311 = CIRCLE( '', #348, 5.00000000000000 );
#312 = VERTEX_POINT( '', #349 );
#313 = CIRCLE( '', #350, 10.0000000000000 );
#314 = FILL_AREA_STYLE_COLOUR( '', #351 );
#315 = FILL_AREA_STYLE_COLOUR( '', #352 );
#316 = VERTEX_POINT( '', #353 );
#317 = CIRCLE( '', #354, 12.0000000000000 );
#318 = VERTEX_POINT( '', #355 );
#319 = CIRCLE( '', #356, 12.9358222275000 );
#320 = FILL_AREA_STYLE_COLOUR( '', #357 );
#321 = VERTEX_POINT( '', #358 );
#322 = CIRCLE( '', #359, 12.0000000000000 );
#323 = FILL_AREA_STYLE_COLOUR( '', #360 );
#324 = FILL_AREA_STYLE_COLOUR( '', #361 );
#325 = VERTEX_POINT( '', #362 );
#326 = CIRCLE( '', #363, 20.0000000000000 );
#327 = FILL_AREA_STYLE_COLOUR( '', #364 );
#328 = FILL_AREA_STYLE_COLOUR( '', #365 );
#329 = VERTEX_POINT( '', #366 );
#330 = CIRCLE( '', #367, 4.18800000000000 );
#331 = FILL_AREA_STYLE_COLOUR( '', #368 );
#332 = FILL_AREA_STYLE_COLOUR( '', #369 );
#333 = COLOUR_RGB( '', 0.689999997600000, 0.689999997600000, 0.689999997600000 );
#334 = CARTESIAN_POINT( '', ( 0.000000000000000, 40.0000000000000, -18.0000000000000 ) );
#335 = AXIS2_PLACEMENT_3D( '', #370, #371, #372 );
#336 = CARTESIAN_POINT( '', ( 0.000000000000000, 40.0000000000000, -17.7763888346312 ) );
#337 = AXIS2_PLACEMENT_3D( '', #373, #374, #375 );
#338 = COLOUR_RGB( '', 0.689999997600000, 0.689999997600000, 0.689999997600000 );
#339 = CARTESIAN_POINT( '', ( 0.000000000000000, 29.6899096778185, -20.0000000000000 ) );
#340 = AXIS2_PLACEMENT_3D( '', #376, #377, #378 );
#341 = CARTESIAN_POINT( '', ( 0.000000000000000, 27.1187592390723, -19.0641777724759 ) );
#342 = AXIS2_PLACEMENT_3D( '', #379, #380, #381 );
#343 = COLOUR_RGB( '', 0.689999997600000, 0.689999997600000, 0.689999997600000 );
#344 = CARTESIAN_POINT( '', ( 0.000000000000000, 24.0000000000000, -4.18800000000000 ) );
#345 = AXIS2_PLACEMENT_3D( '', #382, #383, #384 );
#346 = COLOUR_RGB( '', 0.689999997600000, 0.689999997600000, 0.689999997600000 );
#347 = CARTESIAN_POINT( '', ( 0.000000000000000, 0.000000000000000, -5.00000000000000 ) );
#348 = AXIS2_PLACEMENT_3D( '', #385, #386, #387 );
#349 = CARTESIAN_POINT( '', ( 0.000000000000000, 4.33680868994202E-16, -10.0000000000000 ) );
#350 = AXIS2_PLACEMENT_3D( '', #388, #389, #390 );
#351 = COLOUR_RGB( '', 0.689999997600000, 0.689999997600000, 0.689999997600000 );
#352 = COLOUR_RGB( '', 0.689999997600000, 0.689999997600000, 0.689999997600000 );
#353 = CARTESIAN_POINT( '', ( 0.000000000000000, 17.2441190629352, -12.0000000000000 ) );
#354 = AXIS2_PLACEMENT_3D( '', #391, #392, #393 );
#355 = CARTESIAN_POINT( '', ( 0.000000000000000, 19.8152695016813, -12.9358222275241 ) );
#356 = AXIS2_PLACEMENT_3D( '', #394, #395, #396 );
#357 = COLOUR_RGB( '', 0.689999997600000, 0.689999997600000, 0.689999997600000 );
#358 = CARTESIAN_POINT( '', ( 0.000000000000000, 2.00000000000000, -12.0000000000000 ) );
#359 = AXIS2_PLACEMENT_3D( '', #397, #398, #399 );
#360 = COLOUR_RGB( '', 0.689999997600000, 0.689999997600000, 0.689999997600000 );
#361 = COLOUR_RGB( '', 0.689999997600000, 0.689999997600000, 0.689999997600000 );
#362 = CARTESIAN_POINT( '', ( 0.000000000000000, 38.0000000000000, -20.0000000000000 ) );
#363 = AXIS2_PLACEMENT_3D( '', #400, #401, #402 );
#364 = COLOUR_RGB( '', 0.689999997600000, 0.689999997600000, 0.689999997600000 );
#365 = COLOUR_RGB( '', 0.689999997600000, 0.689999997600000, 0.689999997600000 );
#366 = CARTESIAN_POINT( '', ( 0.000000000000000, 0.812000000000000, -4.18800000000000 ) );
#367 = AXIS2_PLACEMENT_3D( '', #403, #404, #405 );
#368 = COLOUR_RGB( '', 0.689999997600000, 0.689999997600000, 0.689999997600000 );
#369 = COLOUR_RGB( '', 0.689999997600000, 0.689999997600000, 0.689999997600000 );
#370 = CARTESIAN_POINT( '', ( 0.000000000000000, 40.0000000000000, 0.000000000000000 ) );
#371 = DIRECTION( '', ( 0.000000000000000, -1.00000000000000, -0.000000000000000 ) );
#372 = DIRECTION( '', ( 0.000000000000000, 0.000000000000000, -1.00000000000000 ) );
#373 = CARTESIAN_POINT( '', ( 0.000000000000000, 40.0000000000000, 0.000000000000000 ) );
#374 = DIRECTION( '', ( 0.000000000000000, -1.00000000000000, -0.000000000000000 ) );
#375 = DIRECTION( '', ( 0.000000000000000, 0.000000000000000, -1.00000000000000 ) );
#376 = CARTESIAN_POINT( '', ( 0.000000000000000, 29.6899096778185, 0.000000000000000 ) );
#377 = DIRECTION( '', ( 0.000000000000000, -1.00000000000000, -0.000000000000000 ) );
#378 = DIRECTION( '', ( 0.000000000000000, 0.000000000000000, -1.00000000000000 ) );
#379 = CARTESIAN_POINT( '', ( 0.000000000000000, 27.1187592390723, 0.000000000000000 ) );
#380 = DIRECTION( '', ( 0.000000000000000, -1.00000000000000, -0.000000000000000 ) );
#381 = DIRECTION( '', ( 0.000000000000000, 0.000000000000000, -1.00000000000000 ) );
#382 = CARTESIAN_POINT( '', ( 0.000000000000000, 24.0000000000000, 0.000000000000000 ) );
#383 = DIRECTION( '', ( 0.000000000000000, -1.00000000000000, -0.000000000000000 ) );
#384 = DIRECTION( '', ( 0.000000000000000, 0.000000000000000, -1.00000000000000 ) );
#385 = CARTESIAN_POINT( '', ( 0.000000000000000, 0.000000000000000, 0.000000000000000 ) );
#386 = DIRECTION( '', ( 0.000000000000000, -1.00000000000000, -0.000000000000000 ) );
#387 = DIRECTION( '', ( 0.000000000000000, 0.000000000000000, -1.00000000000000 ) );
#388 = CARTESIAN_POINT( '', ( 0.000000000000000, 4.33680868994202E-16, 0.000000000000000 ) );
#389 = DIRECTION( '', ( 0.000000000000000, -1.00000000000000, -0.000000000000000 ) );
#390 = DIRECTION( '', ( 0.000000000000000, 0.000000000000000, -1.00000000000000 ) );
#391 = CARTESIAN_POINT( '', ( 0.000000000000000, 17.2441190629352, 0.000000000000000 ) );
#392 = DIRECTION( '', ( 0.000000000000000, -1.00000000000000, -0.000000000000000 ) );
#393 = DIRECTION( '', ( 0.000000000000000, 0.000000000000000, -1.00000000000000 ) );
#394 = CARTESIAN_POINT( '', ( 0.000000000000000, 19.8152695016813, 0.000000000000000 ) );
#395 = DIRECTION( '', ( 0.000000000000000, -1.00000000000000, -0.000000000000000 ) );
#396 = DIRECTION( '', ( 0.000000000000000, 0.000000000000000, -1.00000000000000 ) );
#397 = CARTESIAN_POINT( '', ( 0.000000000000000, 2.00000000000000, 0.000000000000000 ) );
#398 = DIRECTION( '', ( 0.000000000000000, -1.00000000000000, -0.000000000000000 ) );
#399 = DIRECTION( '', ( 0.000000000000000, 0.000000000000000, -1.00000000000000 ) );
#400 = CARTESIAN_POINT( '', ( 0.000000000000000, 38.0000000000000, 0.000000000000000 ) );
#401 = DIRECTION( '', ( 0.000000000000000, -1.00000000000000, -0.000000000000000 ) );
#402 = DIRECTION( '', ( 0.000000000000000, 0.000000000000000, -1.00000000000000 ) );
#403 = CARTESIAN_POINT( '', ( 0.000000000000000, 0.812000000000000, 0.000000000000000 ) );
#404 = DIRECTION( '', ( 0.000000000000000, -1.00000000000000, -0.000000000000000 ) );
#405 = DIRECTION( '', ( 0.000000000000000, 0.000000000000000, -1.00000000000000 ) );
ENDSEC;
END-ISO-10303-21;
