ISO-10303-21;
HEADER;
FILE_DESCRIPTION( ( 'STEP AP214' ), '1' );
FILE_NAME( '//goodhand-server/Shared Folders/GoodHand Data/Kipp CAD/K0390/K0390.14X60.stp', '2020-12-07T10:14:47', ( '' ), ( '' ), ' ', 'PARTsolutions', ' ' );
FILE_SCHEMA( ( 'AUTOMOTIVE_DESIGN { 1 0 10303 214 1 1 1 1 }' ) );
ENDSEC;
DATA;
#1 = MECHANICAL_DESIGN_GEOMETRIC_PRESENTATION_REPRESENTATION( ' ', ( #10, #11, #12, #13, #14, #15, #16, #17, #18, #19, #20, #21, #22 ), #6 );
#2 = PRODUCT_DEFINITION_CONTEXT( '', #23, 'design' );
#3 = APPLICATION_PROTOCOL_DEFINITION( 'international standard', 'automotive_design', 2001, #23 );
#4 = PRODUCT_CATEGORY_RELATIONSHIP( 'NONE', 'NONE', #24, #25 );
#5 = SHAPE_DEFINITION_REPRESENTATION( #26, #27 );
#6 =  ( GEOMETRIC_REPRESENTATION_CONTEXT( 3 )GLOBAL_UNCERTAINTY_ASSIGNED_CONTEXT( ( #30 ) )GLOBAL_UNIT_ASSIGNED_CONTEXT( ( #32, #33, #34 ) )REPRESENTATION_CONTEXT( 'NONE', 'WORKSPACE' ) );
#10 = STYLED_ITEM( '', ( #36 ), #37 );
#11 = STYLED_ITEM( '', ( #38 ), #39 );
#12 = STYLED_ITEM( '', ( #40 ), #41 );
#13 = STYLED_ITEM( '', ( #42 ), #43 );
#14 = STYLED_ITEM( '', ( #44 ), #45 );
#15 = STYLED_ITEM( '', ( #46 ), #47 );
#16 = STYLED_ITEM( '', ( #48 ), #49 );
#17 = STYLED_ITEM( '', ( #50 ), #51 );
#18 = STYLED_ITEM( '', ( #52 ), #53 );
#19 = STYLED_ITEM( '', ( #54 ), #55 );
#20 = STYLED_ITEM( '', ( #56 ), #57 );
#21 = STYLED_ITEM( '', ( #58 ), #59 );
#22 = STYLED_ITEM( '', ( #60 ), #61 );
#23 = APPLICATION_CONTEXT( 'core data for automotive mechanical design processes' );
#24 = PRODUCT_CATEGORY( 'part', 'NONE' );
#25 = PRODUCT_RELATED_PRODUCT_CATEGORY( 'detail', ' ', ( #62 ) );
#26 = PRODUCT_DEFINITION_SHAPE( 'NONE', 'NONE', #63 );
#27 = ADVANCED_BREP_SHAPE_REPRESENTATION( '_K0390.14X60', ( #64, #65 ), #6 );
#30 = UNCERTAINTY_MEASURE_WITH_UNIT( LENGTH_MEASURE( 0.00100000000000000 ), #32, '', '' );
#32 =  ( CONVERSION_BASED_UNIT( 'MILLIMETRE', #68 )LENGTH_UNIT(  )NAMED_UNIT( #71 ) );
#33 =  ( NAMED_UNIT( #73 )PLANE_ANGLE_UNIT(  )SI_UNIT( $, .RADIAN. ) );
#34 =  ( NAMED_UNIT( #73 )SI_UNIT( $, .STERADIAN. )SOLID_ANGLE_UNIT(  ) );
#36 = PRESENTATION_STYLE_ASSIGNMENT( ( #79 ) );
#37 = ADVANCED_FACE( '', ( #80 ), #81, .T. );
#38 = PRESENTATION_STYLE_ASSIGNMENT( ( #82 ) );
#39 = ADVANCED_FACE( '', ( #83, #84 ), #85, .T. );
#40 = PRESENTATION_STYLE_ASSIGNMENT( ( #86 ) );
#41 = ADVANCED_FACE( '', ( #87 ), #88, .F. );
#42 = PRESENTATION_STYLE_ASSIGNMENT( ( #89 ) );
#43 = ADVANCED_FACE( '', ( #90 ), #91, .F. );
#44 = PRESENTATION_STYLE_ASSIGNMENT( ( #92 ) );
#45 = ADVANCED_FACE( '', ( #93 ), #94, .T. );
#46 = PRESENTATION_STYLE_ASSIGNMENT( ( #95 ) );
#47 = ADVANCED_FACE( '', ( #96, #97 ), #98, .T. );
#48 = PRESENTATION_STYLE_ASSIGNMENT( ( #99 ) );
#49 = ADVANCED_FACE( '', ( #100, #101 ), #102, .T. );
#50 = PRESENTATION_STYLE_ASSIGNMENT( ( #103 ) );
#51 = ADVANCED_FACE( '', ( #104 ), #105, .F. );
#52 = PRESENTATION_STYLE_ASSIGNMENT( ( #106 ) );
#53 = ADVANCED_FACE( '', ( #107, #108 ), #109, .T. );
#54 = PRESENTATION_STYLE_ASSIGNMENT( ( #110 ) );
#55 = ADVANCED_FACE( '', ( #111 ), #112, .F. );
#56 = PRESENTATION_STYLE_ASSIGNMENT( ( #113 ) );
#57 = ADVANCED_FACE( '', ( #114, #115 ), #116, .F. );
#58 = PRESENTATION_STYLE_ASSIGNMENT( ( #117 ) );
#59 = ADVANCED_FACE( '', ( #118 ), #119, .T. );
#60 = PRESENTATION_STYLE_ASSIGNMENT( ( #120 ) );
#61 = ADVANCED_FACE( '', ( #121, #122 ), #123, .T. );
#62 = PRODUCT( '_K0390.14X60', '_K0390.14X60', 'PART-_K0390.14X60-DESC', ( #124 ) );
#63 = PRODUCT_DEFINITION( 'NONE', 'NONE', #125, #2 );
#64 = MANIFOLD_SOLID_BREP( '_K0390.14X60', #126 );
#65 = AXIS2_PLACEMENT_3D( '', #127, #128, #129 );
#68 = LENGTH_MEASURE_WITH_UNIT( LENGTH_MEASURE( 1.00000000000000 ), #130 );
#71 = DIMENSIONAL_EXPONENTS( 1.00000000000000, 0.000000000000000, 0.000000000000000, 0.000000000000000, 0.000000000000000, 0.000000000000000, 0.000000000000000 );
#73 = DIMENSIONAL_EXPONENTS( 0.000000000000000, 0.000000000000000, 0.000000000000000, 0.000000000000000, 0.000000000000000, 0.000000000000000, 0.000000000000000 );
#79 = SURFACE_STYLE_USAGE( .BOTH., #131 );
#80 = FACE_OUTER_BOUND( '', #132, .T. );
#81 = CONICAL_SURFACE( '', #133, 5.77300000000000, 0.785398163400000 );
#82 = SURFACE_STYLE_USAGE( .BOTH., #134 );
#83 = FACE_BOUND( '', #135, .T. );
#84 = FACE_OUTER_BOUND( '', #136, .T. );
#85 = CONICAL_SURFACE( '', #137, 7.00000000000000, 1.13808724680000 );
#86 = SURFACE_STYLE_USAGE( .BOTH., #138 );
#87 = FACE_OUTER_BOUND( '', #139, .T. );
#88 = PLANE( '', #140 );
#89 = SURFACE_STYLE_USAGE( .BOTH., #141 );
#90 = FACE_OUTER_BOUND( '', #142, .T. );
#91 = PLANE( '', #143 );
#92 = SURFACE_STYLE_USAGE( .BOTH., #144 );
#93 = FACE_OUTER_BOUND( '', #145, .T. );
#94 = PLANE( '', #146 );
#95 = SURFACE_STYLE_USAGE( .BOTH., #147 );
#96 = FACE_OUTER_BOUND( '', #148, .T. );
#97 = FACE_OUTER_BOUND( '', #149, .T. );
#98 = CYLINDRICAL_SURFACE( '', #150, 5.00000000000000 );
#99 = SURFACE_STYLE_USAGE( .BOTH., #151 );
#100 = FACE_OUTER_BOUND( '', #152, .T. );
#101 = FACE_OUTER_BOUND( '', #153, .T. );
#102 = CYLINDRICAL_SURFACE( '', #154, 4.50000000000000 );
#103 = SURFACE_STYLE_USAGE( .BOTH., #155 );
#104 = FACE_OUTER_BOUND( '', #156, .T. );
#105 = PLANE( '', #157 );
#106 = SURFACE_STYLE_USAGE( .BOTH., #158 );
#107 = FACE_BOUND( '', #159, .T. );
#108 = FACE_OUTER_BOUND( '', #160, .T. );
#109 = SPHERICAL_SURFACE( '', #161, 8.38700000000000 );
#110 = SURFACE_STYLE_USAGE( .BOTH., #162 );
#111 = FACE_OUTER_BOUND( '', #163, .T. );
#112 = PLANE( '', #164 );
#113 = SURFACE_STYLE_USAGE( .BOTH., #165 );
#114 = FACE_OUTER_BOUND( '', #166, .T. );
#115 = FACE_BOUND( '', #167, .T. );
#116 = PLANE( '', #168 );
#117 = SURFACE_STYLE_USAGE( .BOTH., #169 );
#118 = FACE_OUTER_BOUND( '', #170, .T. );
#119 = CONICAL_SURFACE( '', #171, 5.77300000000000, 0.785398163400000 );
#120 = SURFACE_STYLE_USAGE( .BOTH., #172 );
#121 = FACE_OUTER_BOUND( '', #173, .T. );
#122 = FACE_OUTER_BOUND( '', #174, .T. );
#123 = CYLINDRICAL_SURFACE( '', #175, 7.00000000000000 );
#124 = PRODUCT_CONTEXT( '', #23, 'mechanical' );
#125 = PRODUCT_DEFINITION_FORMATION_WITH_SPECIFIED_SOURCE( ' ', 'NONE', #62, .NOT_KNOWN. );
#126 = CLOSED_SHELL( '', ( #41, #43, #53, #47, #57, #49, #39, #61, #37, #51, #59, #55, #45 ) );
#127 = CARTESIAN_POINT( '', ( 0.000000000000000, 0.000000000000000, 0.000000000000000 ) );
#128 = DIRECTION( '', ( 0.000000000000000, 0.000000000000000, 1.00000000000000 ) );
#129 = DIRECTION( '', ( 1.00000000000000, 0.000000000000000, 0.000000000000000 ) );
#130 =  ( LENGTH_UNIT(  )NAMED_UNIT( #71 )SI_UNIT( .MILLI., .METRE. ) );
#131 = SURFACE_SIDE_STYLE( '', ( #177 ) );
#132 = EDGE_LOOP( '', ( #178, #179, #180, #181 ) );
#133 = AXIS2_PLACEMENT_3D( '', #182, #183, #184 );
#134 = SURFACE_SIDE_STYLE( '', ( #185 ) );
#135 = EDGE_LOOP( '', ( #186 ) );
#136 = EDGE_LOOP( '', ( #187 ) );
#137 = AXIS2_PLACEMENT_3D( '', #188, #189, #190 );
#138 = SURFACE_SIDE_STYLE( '', ( #191 ) );
#139 = EDGE_LOOP( '', ( #192, #193, #194, #195, #196, #197 ) );
#140 = AXIS2_PLACEMENT_3D( '', #198, #199, #200 );
#141 = SURFACE_SIDE_STYLE( '', ( #201 ) );
#142 = EDGE_LOOP( '', ( #202, #203, #204, #205, #206, #207 ) );
#143 = AXIS2_PLACEMENT_3D( '', #208, #209, #210 );
#144 = SURFACE_SIDE_STYLE( '', ( #211 ) );
#145 = EDGE_LOOP( '', ( #212, #213, #214, #215 ) );
#146 = AXIS2_PLACEMENT_3D( '', #216, #217, #218 );
#147 = SURFACE_SIDE_STYLE( '', ( #219 ) );
#148 = EDGE_LOOP( '', ( #220 ) );
#149 = EDGE_LOOP( '', ( #221 ) );
#150 = AXIS2_PLACEMENT_3D( '', #222, #223, #224 );
#151 = SURFACE_SIDE_STYLE( '', ( #225 ) );
#152 = EDGE_LOOP( '', ( #226 ) );
#153 = EDGE_LOOP( '', ( #227 ) );
#154 = AXIS2_PLACEMENT_3D( '', #228, #229, #230 );
#155 = SURFACE_SIDE_STYLE( '', ( #231 ) );
#156 = EDGE_LOOP( '', ( #232, #233 ) );
#157 = AXIS2_PLACEMENT_3D( '', #234, #235, #236 );
#158 = SURFACE_SIDE_STYLE( '', ( #237 ) );
#159 = VERTEX_LOOP( '', #238 );
#160 = EDGE_LOOP( '', ( #239 ) );
#161 = AXIS2_PLACEMENT_3D( '', #240, #241, #242 );
#162 = SURFACE_SIDE_STYLE( '', ( #243 ) );
#163 = EDGE_LOOP( '', ( #244, #245 ) );
#164 = AXIS2_PLACEMENT_3D( '', #246, #247, #248 );
#165 = SURFACE_SIDE_STYLE( '', ( #249 ) );
#166 = EDGE_LOOP( '', ( #250 ) );
#167 = EDGE_LOOP( '', ( #251 ) );
#168 = AXIS2_PLACEMENT_3D( '', #252, #253, #254 );
#169 = SURFACE_SIDE_STYLE( '', ( #255 ) );
#170 = EDGE_LOOP( '', ( #256, #257, #258, #259 ) );
#171 = AXIS2_PLACEMENT_3D( '', #260, #261, #262 );
#172 = SURFACE_SIDE_STYLE( '', ( #263 ) );
#173 = EDGE_LOOP( '', ( #264 ) );
#174 = EDGE_LOOP( '', ( #265, #266, #267, #268, #269, #270, #271, #272 ) );
#175 = AXIS2_PLACEMENT_3D( '', #273, #274, #275 );
#177 = SURFACE_STYLE_FILL_AREA( #276 );
#178 = ORIENTED_EDGE( '', *, *, #277, .T. );
#179 = ORIENTED_EDGE( '', *, *, #278, .T. );
#180 = ORIENTED_EDGE( '', *, *, #279, .F. );
#181 = ORIENTED_EDGE( '', *, *, #280, .T. );
#182 = CARTESIAN_POINT( '', ( 0.000000000000000, 3.67394039744206E-15, 0.000000000000000 ) );
#183 = DIRECTION( '', ( 1.00000000000000, -6.12323399573677E-17, -0.000000000000000 ) );
#184 = DIRECTION( '', ( 6.12323399573677E-17, 1.00000000000000, 0.000000000000000 ) );
#185 = SURFACE_STYLE_FILL_AREA( #281 );
#186 = ORIENTED_EDGE( '', *, *, #282, .F. );
#187 = ORIENTED_EDGE( '', *, *, #283, .T. );
#188 = CARTESIAN_POINT( '', ( 48.0000000000000, 7.34788079488412E-16, 0.000000000000000 ) );
#189 = DIRECTION( '', ( -1.00000000000000, 6.12323399573677E-17, -0.000000000000000 ) );
#190 = DIRECTION( '', ( -6.12323399573677E-17, -1.00000000000000, 0.000000000000000 ) );
#191 = SURFACE_STYLE_FILL_AREA( #284 );
#192 = ORIENTED_EDGE( '', *, *, #278, .F. );
#193 = ORIENTED_EDGE( '', *, *, #285, .T. );
#194 = ORIENTED_EDGE( '', *, *, #280, .F. );
#195 = ORIENTED_EDGE( '', *, *, #286, .F. );
#196 = ORIENTED_EDGE( '', *, *, #287, .F. );
#197 = ORIENTED_EDGE( '', *, *, #288, .F. );
#198 = CARTESIAN_POINT( '', ( 3.00000000000000, 0.900000000000004, 10.5000000000000 ) );
#199 = DIRECTION( '', ( 0.000000000000000, 1.00000000000000, 0.000000000000000 ) );
#200 = DIRECTION( '', ( 0.000000000000000, -0.000000000000000, 1.00000000000000 ) );
#201 = SURFACE_STYLE_FILL_AREA( #289 );
#202 = ORIENTED_EDGE( '', *, *, #290, .T. );
#203 = ORIENTED_EDGE( '', *, *, #291, .F. );
#204 = ORIENTED_EDGE( '', *, *, #292, .F. );
#205 = ORIENTED_EDGE( '', *, *, #293, .F. );
#206 = ORIENTED_EDGE( '', *, *, #294, .F. );
#207 = ORIENTED_EDGE( '', *, *, #295, .F. );
#208 = CARTESIAN_POINT( '', ( 3.00000000000000, -0.899999999999996, -10.5000000000000 ) );
#209 = DIRECTION( '', ( 0.000000000000000, -1.00000000000000, 0.000000000000000 ) );
#210 = DIRECTION( '', ( 0.000000000000000, 0.000000000000000, -1.00000000000000 ) );
#211 = SURFACE_STYLE_FILL_AREA( #296 );
#212 = ORIENTED_EDGE( '', *, *, #297, .T. );
#213 = ORIENTED_EDGE( '', *, *, #293, .T. );
#214 = ORIENTED_EDGE( '', *, *, #298, .T. );
#215 = ORIENTED_EDGE( '', *, *, #287, .T. );
#216 = CARTESIAN_POINT( '', ( 3.00000000000000, 0.000000000000000, 0.000000000000000 ) );
#217 = DIRECTION( '', ( -1.00000000000000, 0.000000000000000, 0.000000000000000 ) );
#218 = DIRECTION( '', ( 0.000000000000000, 0.000000000000000, 1.00000000000000 ) );
#219 = SURFACE_STYLE_FILL_AREA( #299 );
#220 = ORIENTED_EDGE( '', *, *, #300, .F. );
#221 = ORIENTED_EDGE( '', *, *, #301, .T. );
#222 = CARTESIAN_POINT( '', ( 60.0000000000000, 0.000000000000000, 0.000000000000000 ) );
#223 = DIRECTION( '', ( -1.00000000000000, 6.12323399573677E-17, 0.000000000000000 ) );
#224 = DIRECTION( '', ( 6.12323399573677E-17, 1.00000000000000, 0.000000000000000 ) );
#225 = SURFACE_STYLE_FILL_AREA( #302 );
#226 = ORIENTED_EDGE( '', *, *, #303, .F. );
#227 = ORIENTED_EDGE( '', *, *, #282, .T. );
#228 = CARTESIAN_POINT( '', ( 60.0000000000000, 0.000000000000000, 0.000000000000000 ) );
#229 = DIRECTION( '', ( -1.00000000000000, 6.12323399573677E-17, 0.000000000000000 ) );
#230 = DIRECTION( '', ( 6.12323399573677E-17, 1.00000000000000, 0.000000000000000 ) );
#231 = SURFACE_STYLE_FILL_AREA( #304 );
#232 = ORIENTED_EDGE( '', *, *, #305, .F. );
#233 = ORIENTED_EDGE( '', *, *, #290, .F. );
#234 = CARTESIAN_POINT( '', ( -1.76747149286942E-16, 3.67394039744206E-15, 0.000000000000000 ) );
#235 = DIRECTION( '', ( 1.00000000000000, -6.12323399573677E-17, -0.000000000000000 ) );
#236 = DIRECTION( '', ( 6.12323399573677E-17, 1.00000000000000, 0.000000000000000 ) );
#237 = SURFACE_STYLE_FILL_AREA( #306 );
#238 = VERTEX_POINT( '', #307 );
#239 = ORIENTED_EDGE( '', *, *, #300, .T. );
#240 = CARTESIAN_POINT( '', ( 51.6129999999999, -3.46944695195361E-14, 0.000000000000000 ) );
#241 = DIRECTION( '', ( 1.00000000000000, 0.000000000000000, 0.000000000000000 ) );
#242 = DIRECTION( '', ( 0.000000000000000, 1.00000000000000, 0.000000000000000 ) );
#243 = SURFACE_STYLE_FILL_AREA( #308 );
#244 = ORIENTED_EDGE( '', *, *, #277, .F. );
#245 = ORIENTED_EDGE( '', *, *, #285, .F. );
#246 = CARTESIAN_POINT( '', ( -1.76747149286942E-16, 3.67394039744206E-15, 0.000000000000000 ) );
#247 = DIRECTION( '', ( 1.00000000000000, -6.12323399573677E-17, -0.000000000000000 ) );
#248 = DIRECTION( '', ( 6.12323399573677E-17, 1.00000000000000, 0.000000000000000 ) );
#249 = SURFACE_STYLE_FILL_AREA( #309 );
#250 = ORIENTED_EDGE( '', *, *, #301, .F. );
#251 = ORIENTED_EDGE( '', *, *, #303, .T. );
#252 = CARTESIAN_POINT( '', ( 55.0000000000000, 4.50000000000000, 0.000000000000000 ) );
#253 = DIRECTION( '', ( 1.00000000000000, -6.12323399573677E-17, -0.000000000000000 ) );
#254 = DIRECTION( '', ( 6.12323399573677E-17, 1.00000000000000, 0.000000000000000 ) );
#255 = SURFACE_STYLE_FILL_AREA( #310 );
#256 = ORIENTED_EDGE( '', *, *, #311, .F. );
#257 = ORIENTED_EDGE( '', *, *, #291, .T. );
#258 = ORIENTED_EDGE( '', *, *, #305, .T. );
#259 = ORIENTED_EDGE( '', *, *, #295, .T. );
#260 = CARTESIAN_POINT( '', ( 0.000000000000000, 3.67394039744206E-15, 0.000000000000000 ) );
#261 = DIRECTION( '', ( 1.00000000000000, -6.12323399573677E-17, -0.000000000000000 ) );
#262 = DIRECTION( '', ( 6.12323399573677E-17, 1.00000000000000, 0.000000000000000 ) );
#263 = SURFACE_STYLE_FILL_AREA( #312 );
#264 = ORIENTED_EDGE( '', *, *, #283, .F. );
#265 = ORIENTED_EDGE( '', *, *, #311, .T. );
#266 = ORIENTED_EDGE( '', *, *, #294, .T. );
#267 = ORIENTED_EDGE( '', *, *, #297, .F. );
#268 = ORIENTED_EDGE( '', *, *, #286, .T. );
#269 = ORIENTED_EDGE( '', *, *, #279, .T. );
#270 = ORIENTED_EDGE( '', *, *, #288, .T. );
#271 = ORIENTED_EDGE( '', *, *, #298, .F. );
#272 = ORIENTED_EDGE( '', *, *, #292, .T. );
#273 = CARTESIAN_POINT( '', ( 60.0000000000000, 0.000000000000000, 0.000000000000000 ) );
#274 = DIRECTION( '', ( -1.00000000000000, 6.12323399573677E-17, 0.000000000000000 ) );
#275 = DIRECTION( '', ( 6.12323399573677E-17, 1.00000000000000, 0.000000000000000 ) );
#276 = FILL_AREA_STYLE( '', ( #313 ) );
#277 = EDGE_CURVE( '', #314, #315, #316, .T. );
#278 = EDGE_CURVE( '', #315, #317, #318, .T. );
#279 = EDGE_CURVE( '', #319, #317, #320, .T. );
#280 = EDGE_CURVE( '', #319, #314, #321, .T. );
#281 = FILL_AREA_STYLE( '', ( #322 ) );
#282 = EDGE_CURVE( '', #323, #323, #324, .T. );
#283 = EDGE_CURVE( '', #325, #325, #326, .T. );
#284 = FILL_AREA_STYLE( '', ( #327 ) );
#285 = EDGE_CURVE( '', #315, #314, #328, .T. );
#286 = EDGE_CURVE( '', #329, #319, #330, .F. );
#287 = EDGE_CURVE( '', #331, #329, #332, .T. );
#288 = EDGE_CURVE( '', #317, #331, #333, .T. );
#289 = FILL_AREA_STYLE( '', ( #334 ) );
#290 = EDGE_CURVE( '', #335, #336, #337, .T. );
#291 = EDGE_CURVE( '', #338, #336, #339, .T. );
#292 = EDGE_CURVE( '', #340, #338, #341, .F. );
#293 = EDGE_CURVE( '', #342, #340, #343, .T. );
#294 = EDGE_CURVE( '', #344, #342, #345, .T. );
#295 = EDGE_CURVE( '', #335, #344, #346, .T. );
#296 = FILL_AREA_STYLE( '', ( #347 ) );
#297 = EDGE_CURVE( '', #329, #342, #348, .T. );
#298 = EDGE_CURVE( '', #340, #331, #349, .T. );
#299 = FILL_AREA_STYLE( '', ( #350 ) );
#300 = EDGE_CURVE( '', #351, #351, #352, .T. );
#301 = EDGE_CURVE( '', #353, #353, #354, .T. );
#302 = FILL_AREA_STYLE( '', ( #355 ) );
#303 = EDGE_CURVE( '', #356, #356, #357, .T. );
#304 = FILL_AREA_STYLE( '', ( #358 ) );
#305 = EDGE_CURVE( '', #336, #335, #359, .T. );
#306 = FILL_AREA_STYLE( '', ( #360 ) );
#307 = CARTESIAN_POINT( '', ( 60.0000000000000, -3.46944695195361E-14, 0.000000000000000 ) );
#308 = FILL_AREA_STYLE( '', ( #361 ) );
#309 = FILL_AREA_STYLE( '', ( #362 ) );
#310 = FILL_AREA_STYLE( '', ( #363 ) );
#311 = EDGE_CURVE( '', #338, #344, #364, .T. );
#312 = FILL_AREA_STYLE( '', ( #365 ) );
#313 = FILL_AREA_STYLE_COLOUR( '', #366 );
#314 = VERTEX_POINT( '', #367 );
#315 = VERTEX_POINT( '', #368 );
#316 = CIRCLE( '', #369, 5.77300000000000 );
#317 = VERTEX_POINT( '', #370 );
#318 = B_SPLINE_CURVE_WITH_KNOTS( '', 3, ( #371, #372, #373, #374 ), .UNSPECIFIED., .F., .F., ( 4, 4 ), ( 0.0288470734708196, 0.0305935337729002 ), .UNSPECIFIED. );
#319 = VERTEX_POINT( '', #375 );
#320 = CIRCLE( '', #376, 7.00000000000000 );
#321 = B_SPLINE_CURVE_WITH_KNOTS( '', 3, ( #377, #378, #379, #380 ), .UNSPECIFIED., .F., .F., ( 4, 4 ), ( 0.0119476865857433, 0.0136917789295996 ), .UNSPECIFIED. );
#322 = FILL_AREA_STYLE_COLOUR( '', #381 );
#323 = VERTEX_POINT( '', #382 );
#324 = CIRCLE( '', #383, 4.50000000000000 );
#325 = VERTEX_POINT( '', #384 );
#326 = CIRCLE( '', #385, 7.00000000000000 );
#327 = FILL_AREA_STYLE_COLOUR( '', #386 );
#328 = LINE( '', #387, #388 );
#329 = VERTEX_POINT( '', #389 );
#330 = LINE( '', #390, #391 );
#331 = VERTEX_POINT( '', #392 );
#332 = LINE( '', #393, #394 );
#333 = LINE( '', #395, #396 );
#334 = FILL_AREA_STYLE_COLOUR( '', #397 );
#335 = VERTEX_POINT( '', #398 );
#336 = VERTEX_POINT( '', #399 );
#337 = LINE( '', #400, #401 );
#338 = VERTEX_POINT( '', #402 );
#339 = B_SPLINE_CURVE_WITH_KNOTS( '', 3, ( #403, #404, #405, #406 ), .UNSPECIFIED., .F., .F., ( 4, 4 ), ( 0.0119476865857433, 0.0136917789295996 ), .UNSPECIFIED. );
#340 = VERTEX_POINT( '', #407 );
#341 = LINE( '', #408, #409 );
#342 = VERTEX_POINT( '', #410 );
#343 = LINE( '', #411, #412 );
#344 = VERTEX_POINT( '', #413 );
#345 = LINE( '', #414, #415 );
#346 = B_SPLINE_CURVE_WITH_KNOTS( '', 3, ( #416, #417, #418, #419 ), .UNSPECIFIED., .F., .F., ( 4, 4 ), ( 0.0288470734708196, 0.0305935337729001 ), .UNSPECIFIED. );
#347 = FILL_AREA_STYLE_COLOUR( '', #420 );
#348 = CIRCLE( '', #421, 7.00000000000000 );
#349 = CIRCLE( '', #422, 7.00000000000000 );
#350 = FILL_AREA_STYLE_COLOUR( '', #423 );
#351 = VERTEX_POINT( '', #424 );
#352 = CIRCLE( '', #425, 5.00000000000000 );
#353 = VERTEX_POINT( '', #426 );
#354 = CIRCLE( '', #427, 5.00000000000000 );
#355 = FILL_AREA_STYLE_COLOUR( '', #428 );
#356 = VERTEX_POINT( '', #429 );
#357 = CIRCLE( '', #430, 4.50000000000000 );
#358 = FILL_AREA_STYLE_COLOUR( '', #431 );
#359 = CIRCLE( '', #432, 5.77300000000000 );
#360 = FILL_AREA_STYLE_COLOUR( '', #433 );
#361 = FILL_AREA_STYLE_COLOUR( '', #434 );
#362 = FILL_AREA_STYLE_COLOUR( '', #435 );
#363 = FILL_AREA_STYLE_COLOUR( '', #436 );
#364 = CIRCLE( '', #437, 7.00000000000000 );
#365 = FILL_AREA_STYLE_COLOUR( '', #438 );
#366 = COLOUR_RGB( '', 0.689999997600000, 0.689999997600000, 0.689999997600000 );
#367 = CARTESIAN_POINT( '', ( 0.000000000000000, 0.900000000000004, -5.70241431325364 ) );
#368 = CARTESIAN_POINT( '', ( 0.000000000000000, 0.900000000000004, 5.70241431325364 ) );
#369 = AXIS2_PLACEMENT_3D( '', #439, #440, #441 );
#370 = CARTESIAN_POINT( '', ( 1.22700000000000, 0.900000000000007, 6.94190175672344 ) );
#371 = CARTESIAN_POINT( '', ( -1.01774174492066E-15, 0.900000000000004, 5.70241431325364 ) );
#372 = CARTESIAN_POINT( '', ( 0.408551604172652, 0.900000000000004, 6.11602305532749 ) );
#373 = CARTESIAN_POINT( '', ( 0.817630928954739, 0.900000000000004, 6.52910658938455 ) );
#374 = CARTESIAN_POINT( '', ( 1.22700000000000, 0.900000000000004, 6.94190175672344 ) );
#375 = CARTESIAN_POINT( '', ( 1.22700000000000, 0.900000000000007, -6.94190175672344 ) );
#376 = AXIS2_PLACEMENT_3D( '', #442, #443, #444 );
#377 = CARTESIAN_POINT( '', ( 1.22699999999999, 0.900000000000004, -6.94190175672345 ) );
#378 = CARTESIAN_POINT( '', ( 0.817629976282229, 0.900000000000004, -6.52910562873893 ) );
#379 = CARTESIAN_POINT( '', ( 0.408550449058580, 0.900000000000004, -6.11602188591518 ) );
#380 = CARTESIAN_POINT( '', ( -5.41731129713788E-15, 0.900000000000004, -5.70241431325365 ) );
#381 = COLOUR_RGB( '', 0.689999997600000, 0.689999997600000, 0.689999997600000 );
#382 = CARTESIAN_POINT( '', ( 49.1547600000000, 4.50000000000000, 0.000000000000000 ) );
#383 = AXIS2_PLACEMENT_3D( '', #445, #446, #447 );
#384 = CARTESIAN_POINT( '', ( 48.0000000000000, 7.00000000000000, 0.000000000000000 ) );
#385 = AXIS2_PLACEMENT_3D( '', #448, #449, #450 );
#386 = COLOUR_RGB( '', 0.689999997600000, 0.689999997600000, 0.689999997600000 );
#387 = CARTESIAN_POINT( '', ( 0.000000000000000, 0.900000000000004, 10.5000000000000 ) );
#388 = VECTOR( '', #451, 1000.00000000000 );
#389 = CARTESIAN_POINT( '', ( 3.00000000000000, 0.900000000000004, -6.94190175672344 ) );
#390 = CARTESIAN_POINT( '', ( 60.0000000000000, 0.900000000000004, -6.94190175672344 ) );
#391 = VECTOR( '', #452, 1000.00000000000 );
#392 = CARTESIAN_POINT( '', ( 3.00000000000000, 0.900000000000004, 6.94190175672344 ) );
#393 = CARTESIAN_POINT( '', ( 3.00000000000000, 0.900000000000004, 10.5000000000000 ) );
#394 = VECTOR( '', #453, 1000.00000000000 );
#395 = CARTESIAN_POINT( '', ( 60.0000000000000, 0.900000000000004, 6.94190175672344 ) );
#396 = VECTOR( '', #454, 1000.00000000000 );
#397 = COLOUR_RGB( '', 0.689999997600000, 0.689999997600000, 0.689999997600000 );
#398 = CARTESIAN_POINT( '', ( 0.000000000000000, -0.899999999999996, -5.70241431325364 ) );
#399 = CARTESIAN_POINT( '', ( 0.000000000000000, -0.899999999999996, 5.70241431325364 ) );
#400 = CARTESIAN_POINT( '', ( 0.000000000000000, -0.899999999999996, -10.5000000000000 ) );
#401 = VECTOR( '', #455, 1000.00000000000 );
#402 = CARTESIAN_POINT( '', ( 1.22700000000000, -0.899999999999993, 6.94190175672344 ) );
#403 = CARTESIAN_POINT( '', ( 1.22699999999999, -0.899999999999996, 6.94190175672345 ) );
#404 = CARTESIAN_POINT( '', ( 0.817629976282229, -0.899999999999996, 6.52910562873893 ) );
#405 = CARTESIAN_POINT( '', ( 0.408550449058580, -0.899999999999996, 6.11602188591518 ) );
#406 = CARTESIAN_POINT( '', ( -6.77771569359974E-15, -0.899999999999996, 5.70241431325364 ) );
#407 = CARTESIAN_POINT( '', ( 3.00000000000000, -0.899999999999996, 6.94190175672344 ) );
#408 = CARTESIAN_POINT( '', ( 60.0000000000000, -0.899999999999996, 6.94190175672344 ) );
#409 = VECTOR( '', #456, 1000.00000000000 );
#410 = CARTESIAN_POINT( '', ( 3.00000000000000, -0.899999999999996, -6.94190175672344 ) );
#411 = CARTESIAN_POINT( '', ( 3.00000000000000, -0.899999999999996, -10.5000000000000 ) );
#412 = VECTOR( '', #457, 1000.00000000000 );
#413 = CARTESIAN_POINT( '', ( 1.22700000000000, -0.899999999999993, -6.94190175672344 ) );
#414 = CARTESIAN_POINT( '', ( 60.0000000000000, -0.899999999999996, -6.94190175672344 ) );
#415 = VECTOR( '', #458, 1000.00000000000 );
#416 = CARTESIAN_POINT( '', ( -5.95551152116425E-16, -0.899999999999996, -5.70241431325364 ) );
#417 = CARTESIAN_POINT( '', ( 0.408551604172652, -0.899999999999996, -6.11602305532749 ) );
#418 = CARTESIAN_POINT( '', ( 0.817630928954739, -0.899999999999996, -6.52910658938455 ) );
#419 = CARTESIAN_POINT( '', ( 1.22700000000000, -0.899999999999996, -6.94190175672344 ) );
#420 = COLOUR_RGB( '', 0.689999997600000, 0.689999997600000, 0.689999997600000 );
#421 = AXIS2_PLACEMENT_3D( '', #459, #460, #461 );
#422 = AXIS2_PLACEMENT_3D( '', #462, #463, #464 );
#423 = COLOUR_RGB( '', 0.689999997600000, 0.689999997600000, 0.689999997600000 );
#424 = CARTESIAN_POINT( '', ( 58.3466297046986, 5.00000000000000, 0.000000000000000 ) );
#425 = AXIS2_PLACEMENT_3D( '', #465, #466, #467 );
#426 = CARTESIAN_POINT( '', ( 55.0000000000000, 5.00000000000000, 0.000000000000000 ) );
#427 = AXIS2_PLACEMENT_3D( '', #468, #469, #470 );
#428 = COLOUR_RGB( '', 0.689999997600000, 0.689999997600000, 0.689999997600000 );
#429 = CARTESIAN_POINT( '', ( 55.0000000000000, 4.50000000000000, 0.000000000000000 ) );
#430 = AXIS2_PLACEMENT_3D( '', #471, #472, #473 );
#431 = COLOUR_RGB( '', 0.689999997600000, 0.689999997600000, 0.689999997600000 );
#432 = AXIS2_PLACEMENT_3D( '', #474, #475, #476 );
#433 = COLOUR_RGB( '', 0.689999997600000, 0.689999997600000, 0.689999997600000 );
#434 = COLOUR_RGB( '', 0.689999997600000, 0.689999997600000, 0.689999997600000 );
#435 = COLOUR_RGB( '', 0.689999997600000, 0.689999997600000, 0.689999997600000 );
#436 = COLOUR_RGB( '', 0.689999997600000, 0.689999997600000, 0.689999997600000 );
#437 = AXIS2_PLACEMENT_3D( '', #477, #478, #479 );
#438 = COLOUR_RGB( '', 0.689999997600000, 0.689999997600000, 0.689999997600000 );
#439 = CARTESIAN_POINT( '', ( 0.000000000000000, 3.67394039744206E-15, 0.000000000000000 ) );
#440 = DIRECTION( '', ( 1.00000000000000, -6.12323399573677E-17, -0.000000000000000 ) );
#441 = DIRECTION( '', ( 6.12323399573677E-17, 1.00000000000000, 0.000000000000000 ) );
#442 = CARTESIAN_POINT( '', ( 1.22700000000000, 3.59880831631437E-15, 0.000000000000000 ) );
#443 = DIRECTION( '', ( 1.00000000000000, -6.12323399573677E-17, -0.000000000000000 ) );
#444 = DIRECTION( '', ( 6.12323399573677E-17, 1.00000000000000, 0.000000000000000 ) );
#445 = CARTESIAN_POINT( '', ( 49.1547600000000, 6.64079422599242E-16, 0.000000000000000 ) );
#446 = DIRECTION( '', ( 1.00000000000000, -6.12323399573677E-17, -0.000000000000000 ) );
#447 = DIRECTION( '', ( 6.12323399573677E-17, 1.00000000000000, 0.000000000000000 ) );
#448 = CARTESIAN_POINT( '', ( 48.0000000000000, 7.34788079488412E-16, 0.000000000000000 ) );
#449 = DIRECTION( '', ( 1.00000000000000, -6.12323399573677E-17, -0.000000000000000 ) );
#450 = DIRECTION( '', ( 6.12323399573677E-17, 1.00000000000000, 0.000000000000000 ) );
#451 = DIRECTION( '', ( 0.000000000000000, 0.000000000000000, -1.00000000000000 ) );
#452 = DIRECTION( '', ( 1.00000000000000, -6.12323399573677E-17, -0.000000000000000 ) );
#453 = DIRECTION( '', ( 0.000000000000000, 0.000000000000000, -1.00000000000000 ) );
#454 = DIRECTION( '', ( 1.00000000000000, -6.12323399573677E-17, -0.000000000000000 ) );
#455 = DIRECTION( '', ( 0.000000000000000, 0.000000000000000, 1.00000000000000 ) );
#456 = DIRECTION( '', ( 1.00000000000000, -6.12323399573677E-17, -0.000000000000000 ) );
#457 = DIRECTION( '', ( 0.000000000000000, 0.000000000000000, 1.00000000000000 ) );
#458 = DIRECTION( '', ( 1.00000000000000, -6.12323399573677E-17, -0.000000000000000 ) );
#459 = CARTESIAN_POINT( '', ( 3.00000000000000, 3.49024337756996E-15, 0.000000000000000 ) );
#460 = DIRECTION( '', ( -1.00000000000000, 0.000000000000000, 0.000000000000000 ) );
#461 = DIRECTION( '', ( 0.000000000000000, 0.000000000000000, 1.00000000000000 ) );
#462 = CARTESIAN_POINT( '', ( 3.00000000000000, 3.49024337756996E-15, 0.000000000000000 ) );
#463 = DIRECTION( '', ( -1.00000000000000, 0.000000000000000, 0.000000000000000 ) );
#464 = DIRECTION( '', ( 0.000000000000000, 0.000000000000000, 1.00000000000000 ) );
#465 = CARTESIAN_POINT( '', ( 58.3466297046986, 1.01239731997305E-16, 0.000000000000000 ) );
#466 = DIRECTION( '', ( 1.00000000000000, -6.12323399573677E-17, -0.000000000000000 ) );
#467 = DIRECTION( '', ( 6.12323399573677E-17, 1.00000000000000, 0.000000000000000 ) );
#468 = CARTESIAN_POINT( '', ( 55.0000000000000, 3.06161699786838E-16, 0.000000000000000 ) );
#469 = DIRECTION( '', ( 1.00000000000000, -6.12323399573677E-17, -0.000000000000000 ) );
#470 = DIRECTION( '', ( 6.12323399573677E-17, 1.00000000000000, 0.000000000000000 ) );
#471 = CARTESIAN_POINT( '', ( 55.0000000000000, 3.06161699786838E-16, 0.000000000000000 ) );
#472 = DIRECTION( '', ( 1.00000000000000, -6.12323399573677E-17, -0.000000000000000 ) );
#473 = DIRECTION( '', ( 6.12323399573677E-17, 1.00000000000000, 0.000000000000000 ) );
#474 = CARTESIAN_POINT( '', ( 0.000000000000000, 3.67394039744206E-15, 0.000000000000000 ) );
#475 = DIRECTION( '', ( 1.00000000000000, -6.12323399573677E-17, -0.000000000000000 ) );
#476 = DIRECTION( '', ( 6.12323399573677E-17, 1.00000000000000, 0.000000000000000 ) );
#477 = CARTESIAN_POINT( '', ( 1.22700000000000, 3.59880831631437E-15, 0.000000000000000 ) );
#478 = DIRECTION( '', ( 1.00000000000000, -6.12323399573677E-17, -0.000000000000000 ) );
#479 = DIRECTION( '', ( 6.12323399573677E-17, 1.00000000000000, 0.000000000000000 ) );
ENDSEC;
END-ISO-10303-21;
