ISO-10303-21;
HEADER;
FILE_DESCRIPTION( ( 'STEP AP214' ), '1' );
FILE_NAME( '//goodhand-server/Shared Folders/GoodHand Data/Kipp CAD/K0390/K0390.06X50.stp', '2020-12-07T10:14:15', ( '' ), ( '' ), ' ', 'PARTsolutions', ' ' );
FILE_SCHEMA( ( 'AUTOMOTIVE_DESIGN { 1 0 10303 214 1 1 1 1 }' ) );
ENDSEC;
DATA;
#1 = MECHANICAL_DESIGN_GEOMETRIC_PRESENTATION_REPRESENTATION( ' ', ( #10, #11, #12, #13, #14, #15, #16, #17, #18, #19, #20, #21, #22 ), #6 );
#2 = PRODUCT_DEFINITION_CONTEXT( '', #23, 'design' );
#3 = APPLICATION_PROTOCOL_DEFINITION( 'international standard', 'automotive_design', 2001, #23 );
#4 = PRODUCT_CATEGORY_RELATIONSHIP( 'NONE', 'NONE', #24, #25 );
#5 = SHAPE_DEFINITION_REPRESENTATION( #26, #27 );
#6 =  ( GEOMETRIC_REPRESENTATION_CONTEXT( 3 )GLOBAL_UNCERTAINTY_ASSIGNED_CONTEXT( ( #30 ) )GLOBAL_UNIT_ASSIGNED_CONTEXT( ( #32, #33, #34 ) )REPRESENTATION_CONTEXT( 'NONE', 'WORKSPACE' ) );
#10 = STYLED_ITEM( '', ( #36 ), #37 );
#11 = STYLED_ITEM( '', ( #38 ), #39 );
#12 = STYLED_ITEM( '', ( #40 ), #41 );
#13 = STYLED_ITEM( '', ( #42 ), #43 );
#14 = STYLED_ITEM( '', ( #44 ), #45 );
#15 = STYLED_ITEM( '', ( #46 ), #47 );
#16 = STYLED_ITEM( '', ( #48 ), #49 );
#17 = STYLED_ITEM( '', ( #50 ), #51 );
#18 = STYLED_ITEM( '', ( #52 ), #53 );
#19 = STYLED_ITEM( '', ( #54 ), #55 );
#20 = STYLED_ITEM( '', ( #56 ), #57 );
#21 = STYLED_ITEM( '', ( #58 ), #59 );
#22 = STYLED_ITEM( '', ( #60 ), #61 );
#23 = APPLICATION_CONTEXT( 'core data for automotive mechanical design processes' );
#24 = PRODUCT_CATEGORY( 'part', 'NONE' );
#25 = PRODUCT_RELATED_PRODUCT_CATEGORY( 'detail', ' ', ( #62 ) );
#26 = PRODUCT_DEFINITION_SHAPE( 'NONE', 'NONE', #63 );
#27 = ADVANCED_BREP_SHAPE_REPRESENTATION( '_K0390.06X50', ( #64, #65 ), #6 );
#30 = UNCERTAINTY_MEASURE_WITH_UNIT( LENGTH_MEASURE( 0.00100000000000000 ), #32, '', '' );
#32 =  ( CONVERSION_BASED_UNIT( 'MILLIMETRE', #68 )LENGTH_UNIT(  )NAMED_UNIT( #71 ) );
#33 =  ( NAMED_UNIT( #73 )PLANE_ANGLE_UNIT(  )SI_UNIT( $, .RADIAN. ) );
#34 =  ( NAMED_UNIT( #73 )SI_UNIT( $, .STERADIAN. )SOLID_ANGLE_UNIT(  ) );
#36 = PRESENTATION_STYLE_ASSIGNMENT( ( #79 ) );
#37 = ADVANCED_FACE( '', ( #80 ), #81, .T. );
#38 = PRESENTATION_STYLE_ASSIGNMENT( ( #82 ) );
#39 = ADVANCED_FACE( '', ( #83, #84 ), #85, .T. );
#40 = PRESENTATION_STYLE_ASSIGNMENT( ( #86 ) );
#41 = ADVANCED_FACE( '', ( #87 ), #88, .F. );
#42 = PRESENTATION_STYLE_ASSIGNMENT( ( #89 ) );
#43 = ADVANCED_FACE( '', ( #90, #91 ), #92, .F. );
#44 = PRESENTATION_STYLE_ASSIGNMENT( ( #93 ) );
#45 = ADVANCED_FACE( '', ( #94 ), #95, .F. );
#46 = PRESENTATION_STYLE_ASSIGNMENT( ( #96 ) );
#47 = ADVANCED_FACE( '', ( #97 ), #98, .F. );
#48 = PRESENTATION_STYLE_ASSIGNMENT( ( #99 ) );
#49 = ADVANCED_FACE( '', ( #100, #101 ), #102, .T. );
#50 = PRESENTATION_STYLE_ASSIGNMENT( ( #103 ) );
#51 = ADVANCED_FACE( '', ( #104 ), #105, .T. );
#52 = PRESENTATION_STYLE_ASSIGNMENT( ( #106 ) );
#53 = ADVANCED_FACE( '', ( #107, #108 ), #109, .T. );
#54 = PRESENTATION_STYLE_ASSIGNMENT( ( #110 ) );
#55 = ADVANCED_FACE( '', ( #111, #112 ), #113, .T. );
#56 = PRESENTATION_STYLE_ASSIGNMENT( ( #114 ) );
#57 = ADVANCED_FACE( '', ( #115 ), #116, .T. );
#58 = PRESENTATION_STYLE_ASSIGNMENT( ( #117 ) );
#59 = ADVANCED_FACE( '', ( #118, #119 ), #120, .T. );
#60 = PRESENTATION_STYLE_ASSIGNMENT( ( #121 ) );
#61 = ADVANCED_FACE( '', ( #122 ), #123, .F. );
#62 = PRODUCT( '_K0390.06X50', '_K0390.06X50', 'PART-_K0390.06X50-DESC', ( #124 ) );
#63 = PRODUCT_DEFINITION( 'NONE', 'NONE', #125, #2 );
#64 = MANIFOLD_SOLID_BREP( '_K0390.06X50', #126 );
#65 = AXIS2_PLACEMENT_3D( '', #127, #128, #129 );
#68 = LENGTH_MEASURE_WITH_UNIT( LENGTH_MEASURE( 1.00000000000000 ), #130 );
#71 = DIMENSIONAL_EXPONENTS( 1.00000000000000, 0.000000000000000, 0.000000000000000, 0.000000000000000, 0.000000000000000, 0.000000000000000, 0.000000000000000 );
#73 = DIMENSIONAL_EXPONENTS( 0.000000000000000, 0.000000000000000, 0.000000000000000, 0.000000000000000, 0.000000000000000, 0.000000000000000, 0.000000000000000 );
#79 = SURFACE_STYLE_USAGE( .BOTH., #131 );
#80 = FACE_OUTER_BOUND( '', #132, .T. );
#81 = CONICAL_SURFACE( '', #133, 2.38650000000000, 0.785398163400000 );
#82 = SURFACE_STYLE_USAGE( .BOTH., #134 );
#83 = FACE_OUTER_BOUND( '', #135, .T. );
#84 = FACE_OUTER_BOUND( '', #136, .T. );
#85 = CYLINDRICAL_SURFACE( '', #137, 2.00000000000000 );
#86 = SURFACE_STYLE_USAGE( .BOTH., #138 );
#87 = FACE_OUTER_BOUND( '', #139, .T. );
#88 = PLANE( '', #140 );
#89 = SURFACE_STYLE_USAGE( .BOTH., #141 );
#90 = FACE_OUTER_BOUND( '', #142, .T. );
#91 = FACE_BOUND( '', #143, .T. );
#92 = PLANE( '', #144 );
#93 = SURFACE_STYLE_USAGE( .BOTH., #145 );
#94 = FACE_OUTER_BOUND( '', #146, .T. );
#95 = PLANE( '', #147 );
#96 = SURFACE_STYLE_USAGE( .BOTH., #148 );
#97 = FACE_OUTER_BOUND( '', #149, .T. );
#98 = PLANE( '', #150 );
#99 = SURFACE_STYLE_USAGE( .BOTH., #151 );
#100 = FACE_OUTER_BOUND( '', #152, .T. );
#101 = FACE_OUTER_BOUND( '', #153, .T. );
#102 = CYLINDRICAL_SURFACE( '', #154, 2.25000000000000 );
#103 = SURFACE_STYLE_USAGE( .BOTH., #155 );
#104 = FACE_OUTER_BOUND( '', #156, .T. );
#105 = PLANE( '', #157 );
#106 = SURFACE_STYLE_USAGE( .BOTH., #158 );
#107 = FACE_BOUND( '', #159, .T. );
#108 = FACE_OUTER_BOUND( '', #160, .T. );
#109 = SPHERICAL_SURFACE( '', #161, 3.77415000000000 );
#110 = SURFACE_STYLE_USAGE( .BOTH., #162 );
#111 = FACE_OUTER_BOUND( '', #163, .T. );
#112 = FACE_OUTER_BOUND( '', #164, .T. );
#113 = CYLINDRICAL_SURFACE( '', #165, 3.00000000000000 );
#114 = SURFACE_STYLE_USAGE( .BOTH., #166 );
#115 = FACE_OUTER_BOUND( '', #167, .T. );
#116 = CONICAL_SURFACE( '', #168, 2.38650000000000, 0.785398163400000 );
#117 = SURFACE_STYLE_USAGE( .BOTH., #169 );
#118 = FACE_BOUND( '', #170, .T. );
#119 = FACE_OUTER_BOUND( '', #171, .T. );
#120 = CONICAL_SURFACE( '', #172, 3.00000000000000, 1.04717525340000 );
#121 = SURFACE_STYLE_USAGE( .BOTH., #173 );
#122 = FACE_OUTER_BOUND( '', #174, .T. );
#123 = PLANE( '', #175 );
#124 = PRODUCT_CONTEXT( '', #23, 'mechanical' );
#125 = PRODUCT_DEFINITION_FORMATION_WITH_SPECIFIED_SOURCE( ' ', 'NONE', #62, .NOT_KNOWN. );
#126 = CLOSED_SHELL( '', ( #61, #47, #53, #49, #43, #39, #59, #55, #37, #41, #57, #45, #51 ) );
#127 = CARTESIAN_POINT( '', ( 0.000000000000000, 0.000000000000000, 0.000000000000000 ) );
#128 = DIRECTION( '', ( 0.000000000000000, 0.000000000000000, 1.00000000000000 ) );
#129 = DIRECTION( '', ( 1.00000000000000, 0.000000000000000, 0.000000000000000 ) );
#130 =  ( LENGTH_UNIT(  )NAMED_UNIT( #71 )SI_UNIT( .MILLI., .METRE. ) );
#131 = SURFACE_SIDE_STYLE( '', ( #177 ) );
#132 = EDGE_LOOP( '', ( #178, #179, #180, #181 ) );
#133 = AXIS2_PLACEMENT_3D( '', #182, #183, #184 );
#134 = SURFACE_SIDE_STYLE( '', ( #185 ) );
#135 = EDGE_LOOP( '', ( #186 ) );
#136 = EDGE_LOOP( '', ( #187 ) );
#137 = AXIS2_PLACEMENT_3D( '', #188, #189, #190 );
#138 = SURFACE_SIDE_STYLE( '', ( #191 ) );
#139 = EDGE_LOOP( '', ( #192, #193 ) );
#140 = AXIS2_PLACEMENT_3D( '', #194, #195, #196 );
#141 = SURFACE_SIDE_STYLE( '', ( #197 ) );
#142 = EDGE_LOOP( '', ( #198 ) );
#143 = EDGE_LOOP( '', ( #199 ) );
#144 = AXIS2_PLACEMENT_3D( '', #200, #201, #202 );
#145 = SURFACE_SIDE_STYLE( '', ( #203 ) );
#146 = EDGE_LOOP( '', ( #204, #205 ) );
#147 = AXIS2_PLACEMENT_3D( '', #206, #207, #208 );
#148 = SURFACE_SIDE_STYLE( '', ( #209 ) );
#149 = EDGE_LOOP( '', ( #210, #211, #212, #213, #214, #215 ) );
#150 = AXIS2_PLACEMENT_3D( '', #216, #217, #218 );
#151 = SURFACE_SIDE_STYLE( '', ( #219 ) );
#152 = EDGE_LOOP( '', ( #220 ) );
#153 = EDGE_LOOP( '', ( #221 ) );
#154 = AXIS2_PLACEMENT_3D( '', #222, #223, #224 );
#155 = SURFACE_SIDE_STYLE( '', ( #225 ) );
#156 = EDGE_LOOP( '', ( #226, #227, #228, #229 ) );
#157 = AXIS2_PLACEMENT_3D( '', #230, #231, #232 );
#158 = SURFACE_SIDE_STYLE( '', ( #233 ) );
#159 = VERTEX_LOOP( '', #234 );
#160 = EDGE_LOOP( '', ( #235 ) );
#161 = AXIS2_PLACEMENT_3D( '', #236, #237, #238 );
#162 = SURFACE_SIDE_STYLE( '', ( #239 ) );
#163 = EDGE_LOOP( '', ( #240 ) );
#164 = EDGE_LOOP( '', ( #241, #242, #243, #244, #245, #246, #247, #248 ) );
#165 = AXIS2_PLACEMENT_3D( '', #249, #250, #251 );
#166 = SURFACE_SIDE_STYLE( '', ( #252 ) );
#167 = EDGE_LOOP( '', ( #253, #254, #255, #256 ) );
#168 = AXIS2_PLACEMENT_3D( '', #257, #258, #259 );
#169 = SURFACE_SIDE_STYLE( '', ( #260 ) );
#170 = EDGE_LOOP( '', ( #261 ) );
#171 = EDGE_LOOP( '', ( #262 ) );
#172 = AXIS2_PLACEMENT_3D( '', #263, #264, #265 );
#173 = SURFACE_SIDE_STYLE( '', ( #266 ) );
#174 = EDGE_LOOP( '', ( #267, #268, #269, #270, #271, #272 ) );
#175 = AXIS2_PLACEMENT_3D( '', #273, #274, #275 );
#177 = SURFACE_STYLE_FILL_AREA( #276 );
#178 = ORIENTED_EDGE( '', *, *, #277, .T. );
#179 = ORIENTED_EDGE( '', *, *, #278, .T. );
#180 = ORIENTED_EDGE( '', *, *, #279, .F. );
#181 = ORIENTED_EDGE( '', *, *, #280, .T. );
#182 = CARTESIAN_POINT( '', ( 0.000000000000000, 1.72934936831820E-15, 0.000000000000000 ) );
#183 = DIRECTION( '', ( 1.00000000000000, -6.12323399573677E-17, -0.000000000000000 ) );
#184 = DIRECTION( '', ( 6.12323399573677E-17, 1.00000000000000, 0.000000000000000 ) );
#185 = SURFACE_STYLE_FILL_AREA( #281 );
#186 = ORIENTED_EDGE( '', *, *, #282, .F. );
#187 = ORIENTED_EDGE( '', *, *, #283, .T. );
#188 = CARTESIAN_POINT( '', ( 50.0000000000000, -1.33226762955019E-15, 0.000000000000000 ) );
#189 = DIRECTION( '', ( -1.00000000000000, 6.12323399573677E-17, 0.000000000000000 ) );
#190 = DIRECTION( '', ( 6.12323399573677E-17, 1.00000000000000, 0.000000000000000 ) );
#191 = SURFACE_STYLE_FILL_AREA( #284 );
#192 = ORIENTED_EDGE( '', *, *, #285, .F. );
#193 = ORIENTED_EDGE( '', *, *, #286, .F. );
#194 = CARTESIAN_POINT( '', ( -7.30654896541290E-17, 1.72934936831820E-15, 0.000000000000000 ) );
#195 = DIRECTION( '', ( 1.00000000000000, -6.12323399573677E-17, -0.000000000000000 ) );
#196 = DIRECTION( '', ( 6.12323399573677E-17, 1.00000000000000, 0.000000000000000 ) );
#197 = SURFACE_STYLE_FILL_AREA( #287 );
#198 = ORIENTED_EDGE( '', *, *, #288, .F. );
#199 = ORIENTED_EDGE( '', *, *, #282, .T. );
#200 = CARTESIAN_POINT( '', ( 47.5000000000000, 2.00000000000000, 0.000000000000000 ) );
#201 = DIRECTION( '', ( 1.00000000000000, -6.12323399573677E-17, -0.000000000000000 ) );
#202 = DIRECTION( '', ( 6.12323399573677E-17, 1.00000000000000, 0.000000000000000 ) );
#203 = SURFACE_STYLE_FILL_AREA( #289 );
#204 = ORIENTED_EDGE( '', *, *, #277, .F. );
#205 = ORIENTED_EDGE( '', *, *, #290, .F. );
#206 = CARTESIAN_POINT( '', ( -7.30654896541290E-17, 1.72934936831820E-15, 0.000000000000000 ) );
#207 = DIRECTION( '', ( 1.00000000000000, -6.12323399573677E-17, -0.000000000000000 ) );
#208 = DIRECTION( '', ( 6.12323399573677E-17, 1.00000000000000, 0.000000000000000 ) );
#209 = SURFACE_STYLE_FILL_AREA( #291 );
#210 = ORIENTED_EDGE( '', *, *, #286, .T. );
#211 = ORIENTED_EDGE( '', *, *, #292, .F. );
#212 = ORIENTED_EDGE( '', *, *, #293, .F. );
#213 = ORIENTED_EDGE( '', *, *, #294, .F. );
#214 = ORIENTED_EDGE( '', *, *, #295, .F. );
#215 = ORIENTED_EDGE( '', *, *, #296, .F. );
#216 = CARTESIAN_POINT( '', ( 3.00000000000000, -0.899999999999998, -10.5000000000000 ) );
#217 = DIRECTION( '', ( 0.000000000000000, -1.00000000000000, 0.000000000000000 ) );
#218 = DIRECTION( '', ( 0.000000000000000, 0.000000000000000, -1.00000000000000 ) );
#219 = SURFACE_STYLE_FILL_AREA( #297 );
#220 = ORIENTED_EDGE( '', *, *, #298, .F. );
#221 = ORIENTED_EDGE( '', *, *, #288, .T. );
#222 = CARTESIAN_POINT( '', ( 50.0000000000000, -1.33226762955019E-15, 0.000000000000000 ) );
#223 = DIRECTION( '', ( -1.00000000000000, 6.12323399573677E-17, 0.000000000000000 ) );
#224 = DIRECTION( '', ( 6.12323399573677E-17, 1.00000000000000, 0.000000000000000 ) );
#225 = SURFACE_STYLE_FILL_AREA( #299 );
#226 = ORIENTED_EDGE( '', *, *, #300, .T. );
#227 = ORIENTED_EDGE( '', *, *, #294, .T. );
#228 = ORIENTED_EDGE( '', *, *, #301, .T. );
#229 = ORIENTED_EDGE( '', *, *, #302, .T. );
#230 = CARTESIAN_POINT( '', ( 3.00000000000000, 0.000000000000000, 0.000000000000000 ) );
#231 = DIRECTION( '', ( -1.00000000000000, 0.000000000000000, 0.000000000000000 ) );
#232 = DIRECTION( '', ( 0.000000000000000, 0.000000000000000, 1.00000000000000 ) );
#233 = SURFACE_STYLE_FILL_AREA( #303 );
#234 = VERTEX_POINT( '', #304 );
#235 = ORIENTED_EDGE( '', *, *, #298, .T. );
#236 = CARTESIAN_POINT( '', ( 46.2258499999999, -2.88397777881144E-14, 0.000000000000000 ) );
#237 = DIRECTION( '', ( 1.00000000000000, 0.000000000000000, 0.000000000000000 ) );
#238 = DIRECTION( '', ( 0.000000000000000, 1.00000000000000, 0.000000000000000 ) );
#239 = SURFACE_STYLE_FILL_AREA( #305 );
#240 = ORIENTED_EDGE( '', *, *, #306, .F. );
#241 = ORIENTED_EDGE( '', *, *, #307, .T. );
#242 = ORIENTED_EDGE( '', *, *, #295, .T. );
#243 = ORIENTED_EDGE( '', *, *, #300, .F. );
#244 = ORIENTED_EDGE( '', *, *, #308, .T. );
#245 = ORIENTED_EDGE( '', *, *, #279, .T. );
#246 = ORIENTED_EDGE( '', *, *, #309, .T. );
#247 = ORIENTED_EDGE( '', *, *, #301, .F. );
#248 = ORIENTED_EDGE( '', *, *, #293, .T. );
#249 = CARTESIAN_POINT( '', ( 50.0000000000000, -1.33226762955019E-15, 0.000000000000000 ) );
#250 = DIRECTION( '', ( -1.00000000000000, 6.12323399573677E-17, 0.000000000000000 ) );
#251 = DIRECTION( '', ( 6.12323399573677E-17, 1.00000000000000, 0.000000000000000 ) );
#252 = SURFACE_STYLE_FILL_AREA( #310 );
#253 = ORIENTED_EDGE( '', *, *, #307, .F. );
#254 = ORIENTED_EDGE( '', *, *, #292, .T. );
#255 = ORIENTED_EDGE( '', *, *, #285, .T. );
#256 = ORIENTED_EDGE( '', *, *, #296, .T. );
#257 = CARTESIAN_POINT( '', ( 0.000000000000000, 1.72934936831820E-15, 0.000000000000000 ) );
#258 = DIRECTION( '', ( 1.00000000000000, -6.12323399573677E-17, -0.000000000000000 ) );
#259 = DIRECTION( '', ( 6.12323399573677E-17, 1.00000000000000, 0.000000000000000 ) );
#260 = SURFACE_STYLE_FILL_AREA( #311 );
#261 = ORIENTED_EDGE( '', *, *, #283, .F. );
#262 = ORIENTED_EDGE( '', *, *, #306, .T. );
#263 = CARTESIAN_POINT( '', ( 44.0000000000000, -9.64873589805982E-16, 0.000000000000000 ) );
#264 = DIRECTION( '', ( -1.00000000000000, 6.12323399573677E-17, -0.000000000000000 ) );
#265 = DIRECTION( '', ( -6.12323399573677E-17, -1.00000000000000, 0.000000000000000 ) );
#266 = SURFACE_STYLE_FILL_AREA( #312 );
#267 = ORIENTED_EDGE( '', *, *, #278, .F. );
#268 = ORIENTED_EDGE( '', *, *, #290, .T. );
#269 = ORIENTED_EDGE( '', *, *, #280, .F. );
#270 = ORIENTED_EDGE( '', *, *, #308, .F. );
#271 = ORIENTED_EDGE( '', *, *, #302, .F. );
#272 = ORIENTED_EDGE( '', *, *, #309, .F. );
#273 = CARTESIAN_POINT( '', ( 3.00000000000000, 0.900000000000002, 10.5000000000000 ) );
#274 = DIRECTION( '', ( 0.000000000000000, 1.00000000000000, 0.000000000000000 ) );
#275 = DIRECTION( '', ( 0.000000000000000, -0.000000000000000, 1.00000000000000 ) );
#276 = FILL_AREA_STYLE( '', ( #313 ) );
#277 = EDGE_CURVE( '', #314, #315, #316, .T. );
#278 = EDGE_CURVE( '', #315, #317, #318, .T. );
#279 = EDGE_CURVE( '', #319, #317, #320, .T. );
#280 = EDGE_CURVE( '', #319, #314, #321, .T. );
#281 = FILL_AREA_STYLE( '', ( #322 ) );
#282 = EDGE_CURVE( '', #323, #323, #324, .T. );
#283 = EDGE_CURVE( '', #325, #325, #326, .T. );
#284 = FILL_AREA_STYLE( '', ( #327 ) );
#285 = EDGE_CURVE( '', #328, #329, #330, .T. );
#286 = EDGE_CURVE( '', #329, #328, #331, .T. );
#287 = FILL_AREA_STYLE( '', ( #332 ) );
#288 = EDGE_CURVE( '', #333, #333, #334, .T. );
#289 = FILL_AREA_STYLE( '', ( #335 ) );
#290 = EDGE_CURVE( '', #315, #314, #336, .T. );
#291 = FILL_AREA_STYLE( '', ( #337 ) );
#292 = EDGE_CURVE( '', #338, #328, #339, .T. );
#293 = EDGE_CURVE( '', #340, #338, #341, .F. );
#294 = EDGE_CURVE( '', #342, #340, #343, .T. );
#295 = EDGE_CURVE( '', #344, #342, #345, .T. );
#296 = EDGE_CURVE( '', #329, #344, #346, .T. );
#297 = FILL_AREA_STYLE( '', ( #347 ) );
#298 = EDGE_CURVE( '', #348, #348, #349, .T. );
#299 = FILL_AREA_STYLE( '', ( #350 ) );
#300 = EDGE_CURVE( '', #351, #342, #352, .T. );
#301 = EDGE_CURVE( '', #340, #353, #354, .T. );
#302 = EDGE_CURVE( '', #353, #351, #355, .T. );
#303 = FILL_AREA_STYLE( '', ( #356 ) );
#304 = CARTESIAN_POINT( '', ( 50.0000000000000, -2.88397777881144E-14, 0.000000000000000 ) );
#305 = FILL_AREA_STYLE( '', ( #357 ) );
#306 = EDGE_CURVE( '', #358, #358, #359, .T. );
#307 = EDGE_CURVE( '', #338, #344, #360, .T. );
#308 = EDGE_CURVE( '', #351, #319, #361, .F. );
#309 = EDGE_CURVE( '', #317, #353, #362, .T. );
#310 = FILL_AREA_STYLE( '', ( #363 ) );
#311 = FILL_AREA_STYLE( '', ( #364 ) );
#312 = FILL_AREA_STYLE( '', ( #365 ) );
#313 = FILL_AREA_STYLE_COLOUR( '', #366 );
#314 = VERTEX_POINT( '', #367 );
#315 = VERTEX_POINT( '', #368 );
#316 = CIRCLE( '', #369, 2.38650000000000 );
#317 = VERTEX_POINT( '', #370 );
#318 = B_SPLINE_CURVE_WITH_KNOTS( '', 3, ( #371, #372, #373, #374 ), .UNSPECIFIED., .F., .F., ( 4, 4 ), ( 0.0114683889299691, 0.0123621468805004 ), .UNSPECIFIED. );
#319 = VERTEX_POINT( '', #375 );
#320 = CIRCLE( '', #376, 3.00000000000000 );
#321 = B_SPLINE_CURVE_WITH_KNOTS( '', 3, ( #377, #378, #379, #380 ), .UNSPECIFIED., .F., .F., ( 4, 4 ), ( 0.00517174792821181, 0.00606665925501704 ), .UNSPECIFIED. );
#322 = FILL_AREA_STYLE_COLOUR( '', #381 );
#323 = VERTEX_POINT( '', #382 );
#324 = CIRCLE( '', #383, 2.00000000000000 );
#325 = VERTEX_POINT( '', #384 );
#326 = CIRCLE( '', #385, 2.00000000000000 );
#327 = FILL_AREA_STYLE_COLOUR( '', #386 );
#328 = VERTEX_POINT( '', #387 );
#329 = VERTEX_POINT( '', #388 );
#330 = CIRCLE( '', #389, 2.38650000000000 );
#331 = LINE( '', #390, #391 );
#332 = FILL_AREA_STYLE_COLOUR( '', #392 );
#333 = VERTEX_POINT( '', #393 );
#334 = CIRCLE( '', #394, 2.25000000000000 );
#335 = FILL_AREA_STYLE_COLOUR( '', #395 );
#336 = LINE( '', #396, #397 );
#337 = FILL_AREA_STYLE_COLOUR( '', #398 );
#338 = VERTEX_POINT( '', #399 );
#339 = B_SPLINE_CURVE_WITH_KNOTS( '', 3, ( #400, #401, #402, #403 ), .UNSPECIFIED., .F., .F., ( 4, 4 ), ( 0.00517174792821181, 0.00606665925501704 ), .UNSPECIFIED. );
#340 = VERTEX_POINT( '', #404 );
#341 = LINE( '', #405, #406 );
#342 = VERTEX_POINT( '', #407 );
#343 = LINE( '', #408, #409 );
#344 = VERTEX_POINT( '', #410 );
#345 = LINE( '', #411, #412 );
#346 = B_SPLINE_CURVE_WITH_KNOTS( '', 3, ( #413, #414, #415, #416 ), .UNSPECIFIED., .F., .F., ( 4, 4 ), ( 0.0114683889299691, 0.0123621468805004 ), .UNSPECIFIED. );
#347 = FILL_AREA_STYLE_COLOUR( '', #417 );
#348 = VERTEX_POINT( '', #418 );
#349 = CIRCLE( '', #419, 2.25000000000000 );
#350 = FILL_AREA_STYLE_COLOUR( '', #420 );
#351 = VERTEX_POINT( '', #421 );
#352 = CIRCLE( '', #422, 3.00000000000000 );
#353 = VERTEX_POINT( '', #423 );
#354 = CIRCLE( '', #424, 3.00000000000000 );
#355 = LINE( '', #425, #426 );
#356 = FILL_AREA_STYLE_COLOUR( '', #427 );
#357 = FILL_AREA_STYLE_COLOUR( '', #428 );
#358 = VERTEX_POINT( '', #429 );
#359 = CIRCLE( '', #430, 3.00000000000000 );
#360 = CIRCLE( '', #431, 3.00000000000000 );
#361 = LINE( '', #432, #433 );
#362 = LINE( '', #434, #435 );
#363 = FILL_AREA_STYLE_COLOUR( '', #436 );
#364 = FILL_AREA_STYLE_COLOUR( '', #437 );
#365 = FILL_AREA_STYLE_COLOUR( '', #438 );
#366 = COLOUR_RGB( '', 0.689999997600000, 0.689999997600000, 0.689999997600000 );
#367 = CARTESIAN_POINT( '', ( 0.000000000000000, 0.900000000000002, -2.21029008277194 ) );
#368 = CARTESIAN_POINT( '', ( 0.000000000000000, 0.900000000000002, 2.21029008277194 ) );
#369 = AXIS2_PLACEMENT_3D( '', #439, #440, #441 );
#370 = CARTESIAN_POINT( '', ( 0.613500000000003, 0.900000000000005, 2.86181760425084 ) );
#371 = CARTESIAN_POINT( '', ( -1.25453026698814E-15, 0.900000000000002, 2.21029008277194 ) );
#372 = CARTESIAN_POINT( '', ( 0.202635101633543, 0.900000000000002, 2.42907976735578 ) );
#373 = CARTESIAN_POINT( '', ( 0.407562831349363, 0.900000000000002, 2.64593679303693 ) );
#374 = CARTESIAN_POINT( '', ( 0.613500000000002, 0.900000000000002, 2.86181760425084 ) );
#375 = CARTESIAN_POINT( '', ( 0.613500000000003, 0.900000000000005, -2.86181760425084 ) );
#376 = AXIS2_PLACEMENT_3D( '', #442, #443, #444 );
#377 = CARTESIAN_POINT( '', ( 0.613500000000002, 0.900000000000002, -2.86181760425084 ) );
#378 = CARTESIAN_POINT( '', ( 0.407595119446491, 0.900000000000002, -2.64597064015955 ) );
#379 = CARTESIAN_POINT( '', ( 0.202709233475277, 0.900000000000002, -2.42915980917548 ) );
#380 = CARTESIAN_POINT( '', ( -3.31094482839699E-16, 0.900000000000002, -2.21029008277194 ) );
#381 = COLOUR_RGB( '', 0.689999997600000, 0.689999997600000, 0.689999997600000 );
#382 = CARTESIAN_POINT( '', ( 47.5000000000000, 2.00000000000000, 0.000000000000000 ) );
#383 = AXIS2_PLACEMENT_3D( '', #445, #446, #447 );
#384 = CARTESIAN_POINT( '', ( 44.5773800000000, 2.00000000000000, 0.000000000000000 ) );
#385 = AXIS2_PLACEMENT_3D( '', #448, #449, #450 );
#386 = COLOUR_RGB( '', 0.689999997600000, 0.689999997600000, 0.689999997600000 );
#387 = CARTESIAN_POINT( '', ( 0.000000000000000, -0.899999999999998, 2.21029008277194 ) );
#388 = CARTESIAN_POINT( '', ( 0.000000000000000, -0.899999999999998, -2.21029008277194 ) );
#389 = AXIS2_PLACEMENT_3D( '', #451, #452, #453 );
#390 = CARTESIAN_POINT( '', ( 0.000000000000000, -0.899999999999998, -10.5000000000000 ) );
#391 = VECTOR( '', #454, 1000.00000000000 );
#392 = COLOUR_RGB( '', 0.689999997600000, 0.689999997600000, 0.689999997600000 );
#393 = CARTESIAN_POINT( '', ( 47.5000000000000, 2.25000000000000, 0.000000000000000 ) );
#394 = AXIS2_PLACEMENT_3D( '', #455, #456, #457 );
#395 = COLOUR_RGB( '', 0.689999997600000, 0.689999997600000, 0.689999997600000 );
#396 = CARTESIAN_POINT( '', ( 0.000000000000000, 0.900000000000002, 10.5000000000000 ) );
#397 = VECTOR( '', #458, 1000.00000000000 );
#398 = COLOUR_RGB( '', 0.689999997600000, 0.689999997600000, 0.689999997600000 );
#399 = CARTESIAN_POINT( '', ( 0.613500000000003, -0.899999999999995, 2.86181760425084 ) );
#400 = CARTESIAN_POINT( '', ( 0.613500000000003, -0.899999999999998, 2.86181760425084 ) );
#401 = CARTESIAN_POINT( '', ( 0.407595119446492, -0.899999999999998, 2.64597064015955 ) );
#402 = CARTESIAN_POINT( '', ( 0.202709233475277, -0.899999999999998, 2.42915980917548 ) );
#403 = CARTESIAN_POINT( '', ( -3.83957656086282E-16, -0.899999999999998, 2.21029008277194 ) );
#404 = CARTESIAN_POINT( '', ( 3.00000000000000, -0.899999999999998, 2.86181760425084 ) );
#405 = CARTESIAN_POINT( '', ( 50.0000000000000, -0.899999999999998, 2.86181760425084 ) );
#406 = VECTOR( '', #459, 1000.00000000000 );
#407 = CARTESIAN_POINT( '', ( 3.00000000000000, -0.899999999999998, -2.86181760425084 ) );
#408 = CARTESIAN_POINT( '', ( 3.00000000000000, -0.899999999999998, -10.5000000000000 ) );
#409 = VECTOR( '', #460, 1000.00000000000 );
#410 = CARTESIAN_POINT( '', ( 0.613500000000003, -0.899999999999995, -2.86181760425084 ) );
#411 = CARTESIAN_POINT( '', ( 50.0000000000000, -0.899999999999998, -2.86181760425084 ) );
#412 = VECTOR( '', #461, 1000.00000000000 );
#413 = CARTESIAN_POINT( '', ( -1.06495352453503E-15, -0.899999999999998, -2.21029008277194 ) );
#414 = CARTESIAN_POINT( '', ( 0.202635101633544, -0.899999999999998, -2.42907976735578 ) );
#415 = CARTESIAN_POINT( '', ( 0.407562831349364, -0.899999999999998, -2.64593679303693 ) );
#416 = CARTESIAN_POINT( '', ( 0.613500000000004, -0.899999999999998, -2.86181760425084 ) );
#417 = COLOUR_RGB( '', 0.689999997600000, 0.689999997600000, 0.689999997600000 );
#418 = CARTESIAN_POINT( '', ( 49.2559833671144, 2.25000000000000, 0.000000000000000 ) );
#419 = AXIS2_PLACEMENT_3D( '', #462, #463, #464 );
#420 = COLOUR_RGB( '', 0.689999997600000, 0.689999997600000, 0.689999997600000 );
#421 = CARTESIAN_POINT( '', ( 3.00000000000000, 0.900000000000002, -2.86181760425084 ) );
#422 = AXIS2_PLACEMENT_3D( '', #465, #466, #467 );
#423 = CARTESIAN_POINT( '', ( 3.00000000000000, 0.900000000000002, 2.86181760425084 ) );
#424 = AXIS2_PLACEMENT_3D( '', #468, #469, #470 );
#425 = CARTESIAN_POINT( '', ( 3.00000000000000, 0.900000000000002, 10.5000000000000 ) );
#426 = VECTOR( '', #471, 1000.00000000000 );
#427 = COLOUR_RGB( '', 0.689999997600000, 0.689999997600000, 0.689999997600000 );
#428 = COLOUR_RGB( '', 0.689999997600000, 0.689999997600000, 0.689999997600000 );
#429 = CARTESIAN_POINT( '', ( 44.0000000000000, 3.00000000000000, 0.000000000000000 ) );
#430 = AXIS2_PLACEMENT_3D( '', #472, #473, #474 );
#431 = AXIS2_PLACEMENT_3D( '', #475, #476, #477 );
#432 = CARTESIAN_POINT( '', ( 50.0000000000000, 0.900000000000002, -2.86181760425084 ) );
#433 = VECTOR( '', #478, 1000.00000000000 );
#434 = CARTESIAN_POINT( '', ( 50.0000000000000, 0.900000000000002, 2.86181760425084 ) );
#435 = VECTOR( '', #479, 1000.00000000000 );
#436 = COLOUR_RGB( '', 0.689999997600000, 0.689999997600000, 0.689999997600000 );
#437 = COLOUR_RGB( '', 0.689999997600000, 0.689999997600000, 0.689999997600000 );
#438 = COLOUR_RGB( '', 0.689999997600000, 0.689999997600000, 0.689999997600000 );
#439 = CARTESIAN_POINT( '', ( 0.000000000000000, 1.72934936831820E-15, 0.000000000000000 ) );
#440 = DIRECTION( '', ( 1.00000000000000, -6.12323399573677E-17, -0.000000000000000 ) );
#441 = DIRECTION( '', ( 6.12323399573677E-17, 1.00000000000000, 0.000000000000000 ) );
#442 = CARTESIAN_POINT( '', ( 0.613500000000003, 1.69178332775435E-15, 0.000000000000000 ) );
#443 = DIRECTION( '', ( 1.00000000000000, -6.12323399573677E-17, -0.000000000000000 ) );
#444 = DIRECTION( '', ( 6.12323399573677E-17, 1.00000000000000, 0.000000000000000 ) );
#445 = CARTESIAN_POINT( '', ( 47.5000000000000, -1.17918677965677E-15, 0.000000000000000 ) );
#446 = DIRECTION( '', ( 1.00000000000000, -6.12323399573677E-17, -0.000000000000000 ) );
#447 = DIRECTION( '', ( 6.12323399573677E-17, 1.00000000000000, 0.000000000000000 ) );
#448 = CARTESIAN_POINT( '', ( 44.5773800000000, -1.00022791825057E-15, 0.000000000000000 ) );
#449 = DIRECTION( '', ( 1.00000000000000, -6.12323399573677E-17, -0.000000000000000 ) );
#450 = DIRECTION( '', ( 6.12323399573677E-17, 1.00000000000000, 0.000000000000000 ) );
#451 = CARTESIAN_POINT( '', ( 0.000000000000000, 1.72934936831820E-15, 0.000000000000000 ) );
#452 = DIRECTION( '', ( 1.00000000000000, -6.12323399573677E-17, -0.000000000000000 ) );
#453 = DIRECTION( '', ( 6.12323399573677E-17, 1.00000000000000, 0.000000000000000 ) );
#454 = DIRECTION( '', ( 0.000000000000000, 0.000000000000000, 1.00000000000000 ) );
#455 = CARTESIAN_POINT( '', ( 47.5000000000000, -1.17918677965677E-15, 0.000000000000000 ) );
#456 = DIRECTION( '', ( 1.00000000000000, -6.12323399573677E-17, -0.000000000000000 ) );
#457 = DIRECTION( '', ( 6.12323399573677E-17, 1.00000000000000, 0.000000000000000 ) );
#458 = DIRECTION( '', ( 0.000000000000000, 0.000000000000000, -1.00000000000000 ) );
#459 = DIRECTION( '', ( 1.00000000000000, -6.12323399573677E-17, -0.000000000000000 ) );
#460 = DIRECTION( '', ( 0.000000000000000, 0.000000000000000, 1.00000000000000 ) );
#461 = DIRECTION( '', ( 1.00000000000000, -6.12323399573677E-17, -0.000000000000000 ) );
#462 = CARTESIAN_POINT( '', ( 49.2559833671144, -1.28670975015140E-15, 0.000000000000000 ) );
#463 = DIRECTION( '', ( 1.00000000000000, -6.12323399573677E-17, -0.000000000000000 ) );
#464 = DIRECTION( '', ( 6.12323399573677E-17, 1.00000000000000, 0.000000000000000 ) );
#465 = CARTESIAN_POINT( '', ( 3.00000000000000, 1.54565234844609E-15, 0.000000000000000 ) );
#466 = DIRECTION( '', ( -1.00000000000000, 0.000000000000000, 0.000000000000000 ) );
#467 = DIRECTION( '', ( 0.000000000000000, 0.000000000000000, 1.00000000000000 ) );
#468 = CARTESIAN_POINT( '', ( 3.00000000000000, 1.54565234844609E-15, 0.000000000000000 ) );
#469 = DIRECTION( '', ( -1.00000000000000, 0.000000000000000, 0.000000000000000 ) );
#470 = DIRECTION( '', ( 0.000000000000000, 0.000000000000000, 1.00000000000000 ) );
#471 = DIRECTION( '', ( 0.000000000000000, 0.000000000000000, -1.00000000000000 ) );
#472 = CARTESIAN_POINT( '', ( 44.0000000000000, -9.64873589805982E-16, 0.000000000000000 ) );
#473 = DIRECTION( '', ( 1.00000000000000, -6.12323399573677E-17, -0.000000000000000 ) );
#474 = DIRECTION( '', ( 6.12323399573677E-17, 1.00000000000000, 0.000000000000000 ) );
#475 = CARTESIAN_POINT( '', ( 0.613500000000003, 1.69178332775435E-15, 0.000000000000000 ) );
#476 = DIRECTION( '', ( 1.00000000000000, -6.12323399573677E-17, -0.000000000000000 ) );
#477 = DIRECTION( '', ( 6.12323399573677E-17, 1.00000000000000, 0.000000000000000 ) );
#478 = DIRECTION( '', ( 1.00000000000000, -6.12323399573677E-17, -0.000000000000000 ) );
#479 = DIRECTION( '', ( 1.00000000000000, -6.12323399573677E-17, -0.000000000000000 ) );
ENDSEC;
END-ISO-10303-21;
