ISO-10303-21;
HEADER;
FILE_DESCRIPTION( ( 'STEP AP214' ), '1' );
FILE_NAME( '//goodhand-server/Shared Folders/GoodHand Data/Kipp CAD/K0391/K0391.08X45.stp', '2020-12-07T10:16:44', ( '' ), ( '' ), ' ', 'PARTsolutions', ' ' );
FILE_SCHEMA( ( 'AUTOMOTIVE_DESIGN { 1 0 10303 214 1 1 1 1 }' ) );
ENDSEC;
DATA;
#1 = MECHANICAL_DESIGN_GEOMETRIC_PRESENTATION_REPRESENTATION( ' ', ( #10, #11, #12, #13, #14, #15, #16, #17, #18, #19, #20, #21, #22 ), #6 );
#2 = PRODUCT_DEFINITION_CONTEXT( '', #23, 'design' );
#3 = APPLICATION_PROTOCOL_DEFINITION( 'international standard', 'automotive_design', 2001, #23 );
#4 = PRODUCT_CATEGORY_RELATIONSHIP( 'NONE', 'NONE', #24, #25 );
#5 = SHAPE_DEFINITION_REPRESENTATION( #26, #27 );
#6 =  ( GEOMETRIC_REPRESENTATION_CONTEXT( 3 )GLOBAL_UNCERTAINTY_ASSIGNED_CONTEXT( ( #30 ) )GLOBAL_UNIT_ASSIGNED_CONTEXT( ( #32, #33, #34 ) )REPRESENTATION_CONTEXT( 'NONE', 'WORKSPACE' ) );
#10 = STYLED_ITEM( '', ( #36 ), #37 );
#11 = STYLED_ITEM( '', ( #38 ), #39 );
#12 = STYLED_ITEM( '', ( #40 ), #41 );
#13 = STYLED_ITEM( '', ( #42 ), #43 );
#14 = STYLED_ITEM( '', ( #44 ), #45 );
#15 = STYLED_ITEM( '', ( #46 ), #47 );
#16 = STYLED_ITEM( '', ( #48 ), #49 );
#17 = STYLED_ITEM( '', ( #50 ), #51 );
#18 = STYLED_ITEM( '', ( #52 ), #53 );
#19 = STYLED_ITEM( '', ( #54 ), #55 );
#20 = STYLED_ITEM( '', ( #56 ), #57 );
#21 = STYLED_ITEM( '', ( #58 ), #59 );
#22 = STYLED_ITEM( '', ( #60 ), #61 );
#23 = APPLICATION_CONTEXT( 'core data for automotive mechanical design processes' );
#24 = PRODUCT_CATEGORY( 'part', 'NONE' );
#25 = PRODUCT_RELATED_PRODUCT_CATEGORY( 'detail', ' ', ( #62 ) );
#26 = PRODUCT_DEFINITION_SHAPE( 'NONE', 'NONE', #63 );
#27 = ADVANCED_BREP_SHAPE_REPRESENTATION( '_K0391.08X45', ( #64, #65 ), #6 );
#30 = UNCERTAINTY_MEASURE_WITH_UNIT( LENGTH_MEASURE( 0.00100000000000000 ), #32, '', '' );
#32 =  ( CONVERSION_BASED_UNIT( 'MILLIMETRE', #68 )LENGTH_UNIT(  )NAMED_UNIT( #71 ) );
#33 =  ( NAMED_UNIT( #73 )PLANE_ANGLE_UNIT(  )SI_UNIT( $, .RADIAN. ) );
#34 =  ( NAMED_UNIT( #73 )SI_UNIT( $, .STERADIAN. )SOLID_ANGLE_UNIT(  ) );
#36 = PRESENTATION_STYLE_ASSIGNMENT( ( #79 ) );
#37 = ADVANCED_FACE( '', ( #80 ), #81, .T. );
#38 = PRESENTATION_STYLE_ASSIGNMENT( ( #82 ) );
#39 = ADVANCED_FACE( '', ( #83 ), #84, .T. );
#40 = PRESENTATION_STYLE_ASSIGNMENT( ( #85 ) );
#41 = ADVANCED_FACE( '', ( #86, #87 ), #88, .T. );
#42 = PRESENTATION_STYLE_ASSIGNMENT( ( #89 ) );
#43 = ADVANCED_FACE( '', ( #90 ), #91, .T. );
#44 = PRESENTATION_STYLE_ASSIGNMENT( ( #92 ) );
#45 = ADVANCED_FACE( '', ( #93, #94 ), #95, .T. );
#46 = PRESENTATION_STYLE_ASSIGNMENT( ( #96 ) );
#47 = ADVANCED_FACE( '', ( #97, #98 ), #99, .T. );
#48 = PRESENTATION_STYLE_ASSIGNMENT( ( #100 ) );
#49 = ADVANCED_FACE( '', ( #101 ), #102, .T. );
#50 = PRESENTATION_STYLE_ASSIGNMENT( ( #103 ) );
#51 = ADVANCED_FACE( '', ( #104 ), #105, .F. );
#52 = PRESENTATION_STYLE_ASSIGNMENT( ( #106 ) );
#53 = ADVANCED_FACE( '', ( #107 ), #108, .T. );
#54 = PRESENTATION_STYLE_ASSIGNMENT( ( #109 ) );
#55 = ADVANCED_FACE( '', ( #110, #111 ), #112, .T. );
#56 = PRESENTATION_STYLE_ASSIGNMENT( ( #113 ) );
#57 = ADVANCED_FACE( '', ( #114, #115 ), #116, .F. );
#58 = PRESENTATION_STYLE_ASSIGNMENT( ( #117 ) );
#59 = ADVANCED_FACE( '', ( #118, #119 ), #120, .T. );
#60 = PRESENTATION_STYLE_ASSIGNMENT( ( #121 ) );
#61 = ADVANCED_FACE( '', ( #122 ), #123, .T. );
#62 = PRODUCT( '_K0391.08X45', '_K0391.08X45', 'PART-_K0391.08X45-DESC', ( #124 ) );
#63 = PRODUCT_DEFINITION( 'NONE', 'NONE', #125, #2 );
#64 = MANIFOLD_SOLID_BREP( '_K0391.08X45', #126 );
#65 = AXIS2_PLACEMENT_3D( '', #127, #128, #129 );
#68 = LENGTH_MEASURE_WITH_UNIT( LENGTH_MEASURE( 1.00000000000000 ), #130 );
#71 = DIMENSIONAL_EXPONENTS( 1.00000000000000, 0.000000000000000, 0.000000000000000, 0.000000000000000, 0.000000000000000, 0.000000000000000, 0.000000000000000 );
#73 = DIMENSIONAL_EXPONENTS( 0.000000000000000, 0.000000000000000, 0.000000000000000, 0.000000000000000, 0.000000000000000, 0.000000000000000, 0.000000000000000 );
#79 = SURFACE_STYLE_USAGE( .BOTH., #131 );
#80 = FACE_OUTER_BOUND( '', #132, .T. );
#81 = PLANE( '', #133 );
#82 = SURFACE_STYLE_USAGE( .BOTH., #134 );
#83 = FACE_OUTER_BOUND( '', #135, .T. );
#84 = PLANE( '', #136 );
#85 = SURFACE_STYLE_USAGE( .BOTH., #137 );
#86 = FACE_BOUND( '', #138, .T. );
#87 = FACE_OUTER_BOUND( '', #139, .T. );
#88 = SPHERICAL_SURFACE( '', #140, 3.00000000000000 );
#89 = SURFACE_STYLE_USAGE( .BOTH., #141 );
#90 = FACE_OUTER_BOUND( '', #142, .T. );
#91 = PLANE( '', #143 );
#92 = SURFACE_STYLE_USAGE( .BOTH., #144 );
#93 = FACE_OUTER_BOUND( '', #145, .T. );
#94 = FACE_OUTER_BOUND( '', #146, .T. );
#95 = CYLINDRICAL_SURFACE( '', #147, 4.00000000000000 );
#96 = SURFACE_STYLE_USAGE( .BOTH., #148 );
#97 = FACE_BOUND( '', #149, .T. );
#98 = FACE_OUTER_BOUND( '', #150, .T. );
#99 = CONICAL_SURFACE( '', #151, 4.00000000000000, 0.785398163400000 );
#100 = SURFACE_STYLE_USAGE( .BOTH., #152 );
#101 = FACE_OUTER_BOUND( '', #153, .T. );
#102 = PLANE( '', #154 );
#103 = SURFACE_STYLE_USAGE( .BOTH., #155 );
#104 = FACE_OUTER_BOUND( '', #156, .T. );
#105 = PLANE( '', #157 );
#106 = SURFACE_STYLE_USAGE( .BOTH., #158 );
#107 = FACE_OUTER_BOUND( '', #159, .T. );
#108 = PLANE( '', #160 );
#109 = SURFACE_STYLE_USAGE( .BOTH., #161 );
#110 = FACE_OUTER_BOUND( '', #162, .T. );
#111 = FACE_BOUND( '', #163, .T. );
#112 = CONICAL_SURFACE( '', #164, 3.23300000000000, 0.785398163400000 );
#113 = SURFACE_STYLE_USAGE( .BOTH., #165 );
#114 = FACE_OUTER_BOUND( '', #166, .T. );
#115 = FACE_BOUND( '', #167, .T. );
#116 = PLANE( '', #168 );
#117 = SURFACE_STYLE_USAGE( .BOTH., #169 );
#118 = FACE_OUTER_BOUND( '', #170, .T. );
#119 = FACE_OUTER_BOUND( '', #171, .T. );
#120 = CYLINDRICAL_SURFACE( '', #172, 2.40000000000000 );
#121 = SURFACE_STYLE_USAGE( .BOTH., #173 );
#122 = FACE_OUTER_BOUND( '', #174, .T. );
#123 = PLANE( '', #175 );
#124 = PRODUCT_CONTEXT( '', #23, 'mechanical' );
#125 = PRODUCT_DEFINITION_FORMATION_WITH_SPECIFIED_SOURCE( ' ', 'NONE', #62, .NOT_KNOWN. );
#126 = CLOSED_SHELL( '', ( #55, #57, #53, #37, #43, #41, #59, #47, #45, #61, #39, #49, #51 ) );
#127 = CARTESIAN_POINT( '', ( 0.000000000000000, 0.000000000000000, 0.000000000000000 ) );
#128 = DIRECTION( '', ( 0.000000000000000, 0.000000000000000, 1.00000000000000 ) );
#129 = DIRECTION( '', ( 1.00000000000000, 0.000000000000000, 0.000000000000000 ) );
#130 =  ( LENGTH_UNIT(  )NAMED_UNIT( #71 )SI_UNIT( .MILLI., .METRE. ) );
#131 = SURFACE_SIDE_STYLE( '', ( #177 ) );
#132 = EDGE_LOOP( '', ( #178, #179, #180, #181 ) );
#133 = AXIS2_PLACEMENT_3D( '', #182, #183, #184 );
#134 = SURFACE_SIDE_STYLE( '', ( #185 ) );
#135 = EDGE_LOOP( '', ( #186, #187, #188, #189 ) );
#136 = AXIS2_PLACEMENT_3D( '', #190, #191, #192 );
#137 = SURFACE_SIDE_STYLE( '', ( #193 ) );
#138 = VERTEX_LOOP( '', #194 );
#139 = EDGE_LOOP( '', ( #195 ) );
#140 = AXIS2_PLACEMENT_3D( '', #196, #197, #198 );
#141 = SURFACE_SIDE_STYLE( '', ( #199 ) );
#142 = EDGE_LOOP( '', ( #200, #201, #202, #203 ) );
#143 = AXIS2_PLACEMENT_3D( '', #204, #205, #206 );
#144 = SURFACE_SIDE_STYLE( '', ( #207 ) );
#145 = EDGE_LOOP( '', ( #208 ) );
#146 = EDGE_LOOP( '', ( #209 ) );
#147 = AXIS2_PLACEMENT_3D( '', #210, #211, #212 );
#148 = SURFACE_SIDE_STYLE( '', ( #213 ) );
#149 = EDGE_LOOP( '', ( #214 ) );
#150 = EDGE_LOOP( '', ( #215 ) );
#151 = AXIS2_PLACEMENT_3D( '', #216, #217, #218 );
#152 = SURFACE_SIDE_STYLE( '', ( #219 ) );
#153 = EDGE_LOOP( '', ( #220, #221, #222, #223 ) );
#154 = AXIS2_PLACEMENT_3D( '', #224, #225, #226 );
#155 = SURFACE_SIDE_STYLE( '', ( #227 ) );
#156 = EDGE_LOOP( '', ( #228, #229, #230, #231, #232, #233 ) );
#157 = AXIS2_PLACEMENT_3D( '', #234, #235, #236 );
#158 = SURFACE_SIDE_STYLE( '', ( #237 ) );
#159 = EDGE_LOOP( '', ( #238, #239, #240, #241 ) );
#160 = AXIS2_PLACEMENT_3D( '', #242, #243, #244 );
#161 = SURFACE_SIDE_STYLE( '', ( #245 ) );
#162 = EDGE_LOOP( '', ( #246 ) );
#163 = EDGE_LOOP( '', ( #247 ) );
#164 = AXIS2_PLACEMENT_3D( '', #248, #249, #250 );
#165 = SURFACE_SIDE_STYLE( '', ( #251 ) );
#166 = EDGE_LOOP( '', ( #252 ) );
#167 = EDGE_LOOP( '', ( #253, #254, #255, #256, #257, #258 ) );
#168 = AXIS2_PLACEMENT_3D( '', #259, #260, #261 );
#169 = SURFACE_SIDE_STYLE( '', ( #262 ) );
#170 = EDGE_LOOP( '', ( #263 ) );
#171 = EDGE_LOOP( '', ( #264 ) );
#172 = AXIS2_PLACEMENT_3D( '', #265, #266, #267 );
#173 = SURFACE_SIDE_STYLE( '', ( #268 ) );
#174 = EDGE_LOOP( '', ( #269, #270, #271, #272 ) );
#175 = AXIS2_PLACEMENT_3D( '', #273, #274, #275 );
#177 = SURFACE_STYLE_FILL_AREA( #276 );
#178 = ORIENTED_EDGE( '', *, *, #277, .F. );
#179 = ORIENTED_EDGE( '', *, *, #278, .F. );
#180 = ORIENTED_EDGE( '', *, *, #279, .T. );
#181 = ORIENTED_EDGE( '', *, *, #280, .T. );
#182 = CARTESIAN_POINT( '', ( 4.00000000000000, -2.30940107675850, 0.000000000000000 ) );
#183 = DIRECTION( '', ( -0.000000000000000, 0.866025403784439, 0.500000000000000 ) );
#184 = DIRECTION( '', ( 0.000000000000000, -0.500000000000000, 0.866025403784439 ) );
#185 = SURFACE_STYLE_FILL_AREA( #281 );
#186 = ORIENTED_EDGE( '', *, *, #282, .F. );
#187 = ORIENTED_EDGE( '', *, *, #283, .F. );
#188 = ORIENTED_EDGE( '', *, *, #284, .T. );
#189 = ORIENTED_EDGE( '', *, *, #285, .T. );
#190 = CARTESIAN_POINT( '', ( 4.00000000000000, 1.15470053837925, -2.00000000000000 ) );
#191 = DIRECTION( '', ( 0.000000000000000, -0.866025403784439, 0.500000000000000 ) );
#192 = DIRECTION( '', ( 0.000000000000000, -0.500000000000000, -0.866025403784439 ) );
#193 = SURFACE_STYLE_FILL_AREA( #286 );
#194 = VERTEX_POINT( '', #287 );
#195 = ORIENTED_EDGE( '', *, *, #288, .T. );
#196 = CARTESIAN_POINT( '', ( 37.0000000000000, 0.000000000000000, 0.000000000000000 ) );
#197 = DIRECTION( '', ( 1.00000000000000, 0.000000000000000, 0.000000000000000 ) );
#198 = DIRECTION( '', ( 0.000000000000000, -1.00000000000000, 0.000000000000000 ) );
#199 = SURFACE_STYLE_FILL_AREA( #289 );
#200 = ORIENTED_EDGE( '', *, *, #290, .F. );
#201 = ORIENTED_EDGE( '', *, *, #291, .F. );
#202 = ORIENTED_EDGE( '', *, *, #292, .T. );
#203 = ORIENTED_EDGE( '', *, *, #293, .T. );
#204 = CARTESIAN_POINT( '', ( 4.00000000000000, 1.15470053837925, 2.00000000000000 ) );
#205 = DIRECTION( '', ( 0.000000000000000, 0.000000000000000, -1.00000000000000 ) );
#206 = DIRECTION( '', ( -1.00000000000000, 0.000000000000000, 0.000000000000000 ) );
#207 = SURFACE_STYLE_FILL_AREA( #294 );
#208 = ORIENTED_EDGE( '', *, *, #295, .F. );
#209 = ORIENTED_EDGE( '', *, *, #296, .T. );
#210 = CARTESIAN_POINT( '', ( 40.0000000000000, 0.000000000000000, 0.000000000000000 ) );
#211 = DIRECTION( '', ( -1.00000000000000, -0.000000000000000, 0.000000000000000 ) );
#212 = DIRECTION( '', ( -0.000000000000000, 0.000000000000000, -1.00000000000000 ) );
#213 = SURFACE_STYLE_FILL_AREA( #297 );
#214 = ORIENTED_EDGE( '', *, *, #298, .F. );
#215 = ORIENTED_EDGE( '', *, *, #295, .T. );
#216 = CARTESIAN_POINT( '', ( 32.6000000000000, 0.000000000000000, 0.000000000000000 ) );
#217 = DIRECTION( '', ( -1.00000000000000, 0.000000000000000, -0.000000000000000 ) );
#218 = DIRECTION( '', ( 0.000000000000000, 0.000000000000000, 1.00000000000000 ) );
#219 = SURFACE_STYLE_FILL_AREA( #299 );
#220 = ORIENTED_EDGE( '', *, *, #300, .F. );
#221 = ORIENTED_EDGE( '', *, *, #285, .F. );
#222 = ORIENTED_EDGE( '', *, *, #301, .T. );
#223 = ORIENTED_EDGE( '', *, *, #291, .T. );
#224 = CARTESIAN_POINT( '', ( 4.00000000000000, 2.30940107675850, 0.000000000000000 ) );
#225 = DIRECTION( '', ( 0.000000000000000, -0.866025403784439, -0.500000000000000 ) );
#226 = DIRECTION( '', ( 0.000000000000000, 0.500000000000000, -0.866025403784439 ) );
#227 = SURFACE_STYLE_FILL_AREA( #302 );
#228 = ORIENTED_EDGE( '', *, *, #292, .F. );
#229 = ORIENTED_EDGE( '', *, *, #301, .F. );
#230 = ORIENTED_EDGE( '', *, *, #284, .F. );
#231 = ORIENTED_EDGE( '', *, *, #303, .F. );
#232 = ORIENTED_EDGE( '', *, *, #279, .F. );
#233 = ORIENTED_EDGE( '', *, *, #304, .F. );
#234 = CARTESIAN_POINT( '', ( 4.00000000000000, 0.000000000000000, 0.000000000000000 ) );
#235 = DIRECTION( '', ( 1.00000000000000, 0.000000000000000, 0.000000000000000 ) );
#236 = DIRECTION( '', ( 0.000000000000000, 0.000000000000000, -1.00000000000000 ) );
#237 = SURFACE_STYLE_FILL_AREA( #305 );
#238 = ORIENTED_EDGE( '', *, *, #306, .F. );
#239 = ORIENTED_EDGE( '', *, *, #293, .F. );
#240 = ORIENTED_EDGE( '', *, *, #304, .T. );
#241 = ORIENTED_EDGE( '', *, *, #278, .T. );
#242 = CARTESIAN_POINT( '', ( 4.00000000000000, -1.15470053837925, 2.00000000000000 ) );
#243 = DIRECTION( '', ( 0.000000000000000, 0.866025403784439, -0.500000000000000 ) );
#244 = DIRECTION( '', ( 0.000000000000000, 0.500000000000000, 0.866025403784439 ) );
#245 = SURFACE_STYLE_FILL_AREA( #307 );
#246 = ORIENTED_EDGE( '', *, *, #296, .F. );
#247 = ORIENTED_EDGE( '', *, *, #308, .T. );
#248 = CARTESIAN_POINT( '', ( 0.000000000000000, 0.000000000000000, 0.000000000000000 ) );
#249 = DIRECTION( '', ( 1.00000000000000, -0.000000000000000, -0.000000000000000 ) );
#250 = DIRECTION( '', ( -0.000000000000000, 0.000000000000000, -1.00000000000000 ) );
#251 = SURFACE_STYLE_FILL_AREA( #309 );
#252 = ORIENTED_EDGE( '', *, *, #308, .F. );
#253 = ORIENTED_EDGE( '', *, *, #290, .T. );
#254 = ORIENTED_EDGE( '', *, *, #306, .T. );
#255 = ORIENTED_EDGE( '', *, *, #277, .T. );
#256 = ORIENTED_EDGE( '', *, *, #310, .T. );
#257 = ORIENTED_EDGE( '', *, *, #282, .T. );
#258 = ORIENTED_EDGE( '', *, *, #300, .T. );
#259 = CARTESIAN_POINT( '', ( 0.000000000000000, 0.000000000000000, 0.000000000000000 ) );
#260 = DIRECTION( '', ( 1.00000000000000, 0.000000000000000, -0.000000000000000 ) );
#261 = DIRECTION( '', ( -0.000000000000000, 0.000000000000000, -1.00000000000000 ) );
#262 = SURFACE_STYLE_FILL_AREA( #311 );
#263 = ORIENTED_EDGE( '', *, *, #288, .F. );
#264 = ORIENTED_EDGE( '', *, *, #298, .T. );
#265 = CARTESIAN_POINT( '', ( 40.0000000000000, 0.000000000000000, 0.000000000000000 ) );
#266 = DIRECTION( '', ( -1.00000000000000, -0.000000000000000, 0.000000000000000 ) );
#267 = DIRECTION( '', ( -0.000000000000000, 0.000000000000000, -1.00000000000000 ) );
#268 = SURFACE_STYLE_FILL_AREA( #312 );
#269 = ORIENTED_EDGE( '', *, *, #310, .F. );
#270 = ORIENTED_EDGE( '', *, *, #280, .F. );
#271 = ORIENTED_EDGE( '', *, *, #303, .T. );
#272 = ORIENTED_EDGE( '', *, *, #283, .T. );
#273 = CARTESIAN_POINT( '', ( 4.00000000000000, -1.15470053837925, -2.00000000000000 ) );
#274 = DIRECTION( '', ( 0.000000000000000, 0.000000000000000, 1.00000000000000 ) );
#275 = DIRECTION( '', ( 1.00000000000000, 0.000000000000000, -0.000000000000000 ) );
#276 = FILL_AREA_STYLE( '', ( #313 ) );
#277 = EDGE_CURVE( '', #314, #315, #316, .T. );
#278 = EDGE_CURVE( '', #317, #314, #318, .T. );
#279 = EDGE_CURVE( '', #317, #319, #320, .T. );
#280 = EDGE_CURVE( '', #319, #315, #321, .T. );
#281 = FILL_AREA_STYLE( '', ( #322 ) );
#282 = EDGE_CURVE( '', #323, #324, #325, .T. );
#283 = EDGE_CURVE( '', #326, #323, #327, .T. );
#284 = EDGE_CURVE( '', #326, #328, #329, .T. );
#285 = EDGE_CURVE( '', #328, #324, #330, .T. );
#286 = FILL_AREA_STYLE( '', ( #331 ) );
#287 = CARTESIAN_POINT( '', ( 40.0000000000000, -1.83697019872103E-16, 0.000000000000000 ) );
#288 = EDGE_CURVE( '', #332, #332, #333, .T. );
#289 = FILL_AREA_STYLE( '', ( #334 ) );
#290 = EDGE_CURVE( '', #335, #336, #337, .T. );
#291 = EDGE_CURVE( '', #338, #335, #339, .T. );
#292 = EDGE_CURVE( '', #338, #340, #341, .T. );
#293 = EDGE_CURVE( '', #340, #336, #342, .T. );
#294 = FILL_AREA_STYLE( '', ( #343 ) );
#295 = EDGE_CURVE( '', #344, #344, #345, .T. );
#296 = EDGE_CURVE( '', #346, #346, #347, .T. );
#297 = FILL_AREA_STYLE( '', ( #348 ) );
#298 = EDGE_CURVE( '', #349, #349, #350, .T. );
#299 = FILL_AREA_STYLE( '', ( #351 ) );
#300 = EDGE_CURVE( '', #324, #335, #352, .T. );
#301 = EDGE_CURVE( '', #328, #338, #353, .T. );
#302 = FILL_AREA_STYLE( '', ( #354 ) );
#303 = EDGE_CURVE( '', #319, #326, #355, .T. );
#304 = EDGE_CURVE( '', #340, #317, #356, .T. );
#305 = FILL_AREA_STYLE( '', ( #357 ) );
#306 = EDGE_CURVE( '', #336, #314, #358, .T. );
#307 = FILL_AREA_STYLE( '', ( #359 ) );
#308 = EDGE_CURVE( '', #360, #360, #361, .T. );
#309 = FILL_AREA_STYLE( '', ( #362 ) );
#310 = EDGE_CURVE( '', #315, #323, #363, .T. );
#311 = FILL_AREA_STYLE( '', ( #364 ) );
#312 = FILL_AREA_STYLE( '', ( #365 ) );
#313 = FILL_AREA_STYLE_COLOUR( '', #366 );
#314 = VERTEX_POINT( '', #367 );
#315 = VERTEX_POINT( '', #368 );
#316 = LINE( '', #369, #370 );
#317 = VERTEX_POINT( '', #371 );
#318 = LINE( '', #372, #373 );
#319 = VERTEX_POINT( '', #374 );
#320 = LINE( '', #375, #376 );
#321 = LINE( '', #377, #378 );
#322 = FILL_AREA_STYLE_COLOUR( '', #379 );
#323 = VERTEX_POINT( '', #380 );
#324 = VERTEX_POINT( '', #381 );
#325 = LINE( '', #382, #383 );
#326 = VERTEX_POINT( '', #384 );
#327 = LINE( '', #385, #386 );
#328 = VERTEX_POINT( '', #387 );
#329 = LINE( '', #388, #389 );
#330 = LINE( '', #390, #391 );
#331 = FILL_AREA_STYLE_COLOUR( '', #392 );
#332 = VERTEX_POINT( '', #393 );
#333 = CIRCLE( '', #394, 2.40000000000000 );
#334 = FILL_AREA_STYLE_COLOUR( '', #395 );
#335 = VERTEX_POINT( '', #396 );
#336 = VERTEX_POINT( '', #397 );
#337 = LINE( '', #398, #399 );
#338 = VERTEX_POINT( '', #400 );
#339 = LINE( '', #401, #402 );
#340 = VERTEX_POINT( '', #403 );
#341 = LINE( '', #404, #405 );
#342 = LINE( '', #406, #407 );
#343 = FILL_AREA_STYLE_COLOUR( '', #408 );
#344 = VERTEX_POINT( '', #409 );
#345 = CIRCLE( '', #410, 4.00000000000000 );
#346 = VERTEX_POINT( '', #411 );
#347 = CIRCLE( '', #412, 4.00000000000000 );
#348 = FILL_AREA_STYLE_COLOUR( '', #413 );
#349 = VERTEX_POINT( '', #414 );
#350 = CIRCLE( '', #415, 2.40000000000000 );
#351 = FILL_AREA_STYLE_COLOUR( '', #416 );
#352 = LINE( '', #417, #418 );
#353 = LINE( '', #419, #420 );
#354 = FILL_AREA_STYLE_COLOUR( '', #421 );
#355 = LINE( '', #422, #423 );
#356 = LINE( '', #424, #425 );
#357 = FILL_AREA_STYLE_COLOUR( '', #426 );
#358 = LINE( '', #427, #428 );
#359 = FILL_AREA_STYLE_COLOUR( '', #429 );
#360 = VERTEX_POINT( '', #430 );
#361 = CIRCLE( '', #431, 3.23300000000000 );
#362 = FILL_AREA_STYLE_COLOUR( '', #432 );
#363 = LINE( '', #433, #434 );
#364 = FILL_AREA_STYLE_COLOUR( '', #435 );
#365 = FILL_AREA_STYLE_COLOUR( '', #436 );
#366 = COLOUR_RGB( '', 0.689999997600000, 0.689999997600000, 0.689999997600000 );
#367 = CARTESIAN_POINT( '', ( 0.000000000000000, -2.30940107675850, 0.000000000000000 ) );
#368 = CARTESIAN_POINT( '', ( 0.000000000000000, -1.15470053837925, -2.00000000000000 ) );
#369 = CARTESIAN_POINT( '', ( 0.000000000000000, -2.30940107675850, 0.000000000000000 ) );
#370 = VECTOR( '', #437, 1000.00000000000 );
#371 = CARTESIAN_POINT( '', ( 4.00000000000000, -2.30940107675850, 0.000000000000000 ) );
#372 = CARTESIAN_POINT( '', ( 4.00000000000000, -2.30940107675850, 0.000000000000000 ) );
#373 = VECTOR( '', #438, 1000.00000000000 );
#374 = CARTESIAN_POINT( '', ( 4.00000000000000, -1.15470053837925, -2.00000000000000 ) );
#375 = CARTESIAN_POINT( '', ( 4.00000000000000, -2.30940107675850, 0.000000000000000 ) );
#376 = VECTOR( '', #439, 1000.00000000000 );
#377 = CARTESIAN_POINT( '', ( 4.00000000000000, -1.15470053837925, -2.00000000000000 ) );
#378 = VECTOR( '', #440, 1000.00000000000 );
#379 = COLOUR_RGB( '', 0.689999997600000, 0.689999997600000, 0.689999997600000 );
#380 = CARTESIAN_POINT( '', ( 0.000000000000000, 1.15470053837925, -2.00000000000000 ) );
#381 = CARTESIAN_POINT( '', ( 0.000000000000000, 2.30940107675850, 0.000000000000000 ) );
#382 = CARTESIAN_POINT( '', ( 0.000000000000000, 1.15470053837925, -2.00000000000000 ) );
#383 = VECTOR( '', #441, 1000.00000000000 );
#384 = CARTESIAN_POINT( '', ( 4.00000000000000, 1.15470053837925, -2.00000000000000 ) );
#385 = CARTESIAN_POINT( '', ( 4.00000000000000, 1.15470053837925, -2.00000000000000 ) );
#386 = VECTOR( '', #442, 1000.00000000000 );
#387 = CARTESIAN_POINT( '', ( 4.00000000000000, 2.30940107675850, 0.000000000000000 ) );
#388 = CARTESIAN_POINT( '', ( 4.00000000000000, 1.15470053837925, -2.00000000000000 ) );
#389 = VECTOR( '', #443, 1000.00000000000 );
#390 = CARTESIAN_POINT( '', ( 4.00000000000000, 2.30940107675850, 0.000000000000000 ) );
#391 = VECTOR( '', #444, 1000.00000000000 );
#392 = COLOUR_RGB( '', 0.689999997600000, 0.689999997600000, 0.689999997600000 );
#393 = CARTESIAN_POINT( '', ( 35.2000000000000, 0.000000000000000, -2.40000000000000 ) );
#394 = AXIS2_PLACEMENT_3D( '', #445, #446, #447 );
#395 = COLOUR_RGB( '', 0.689999997600000, 0.689999997600000, 0.689999997600000 );
#396 = CARTESIAN_POINT( '', ( 0.000000000000000, 1.15470053837925, 2.00000000000000 ) );
#397 = CARTESIAN_POINT( '', ( 0.000000000000000, -1.15470053837925, 2.00000000000000 ) );
#398 = CARTESIAN_POINT( '', ( 0.000000000000000, 1.15470053837925, 2.00000000000000 ) );
#399 = VECTOR( '', #448, 1000.00000000000 );
#400 = CARTESIAN_POINT( '', ( 4.00000000000000, 1.15470053837925, 2.00000000000000 ) );
#401 = CARTESIAN_POINT( '', ( 4.00000000000000, 1.15470053837925, 2.00000000000000 ) );
#402 = VECTOR( '', #449, 1000.00000000000 );
#403 = CARTESIAN_POINT( '', ( 4.00000000000000, -1.15470053837925, 2.00000000000000 ) );
#404 = CARTESIAN_POINT( '', ( 4.00000000000000, 1.15470053837925, 2.00000000000000 ) );
#405 = VECTOR( '', #450, 1000.00000000000 );
#406 = CARTESIAN_POINT( '', ( 4.00000000000000, -1.15470053837925, 2.00000000000000 ) );
#407 = VECTOR( '', #451, 1000.00000000000 );
#408 = COLOUR_RGB( '', 0.689999997600000, 0.689999997600000, 0.689999997600000 );
#409 = CARTESIAN_POINT( '', ( 32.6000000000000, 0.000000000000000, -4.00000000000000 ) );
#410 = AXIS2_PLACEMENT_3D( '', #452, #453, #454 );
#411 = CARTESIAN_POINT( '', ( 0.766999999999997, 0.000000000000000, -4.00000000000000 ) );
#412 = AXIS2_PLACEMENT_3D( '', #455, #456, #457 );
#413 = COLOUR_RGB( '', 0.689999997600000, 0.689999997600000, 0.689999997600000 );
#414 = CARTESIAN_POINT( '', ( 34.2000000000000, 0.000000000000000, -2.40000000000000 ) );
#415 = AXIS2_PLACEMENT_3D( '', #458, #459, #460 );
#416 = COLOUR_RGB( '', 0.689999997600000, 0.689999997600000, 0.689999997600000 );
#417 = CARTESIAN_POINT( '', ( 0.000000000000000, 2.30940107675850, 0.000000000000000 ) );
#418 = VECTOR( '', #461, 1000.00000000000 );
#419 = CARTESIAN_POINT( '', ( 4.00000000000000, 2.30940107675850, 0.000000000000000 ) );
#420 = VECTOR( '', #462, 1000.00000000000 );
#421 = COLOUR_RGB( '', 0.689999997600000, 0.689999997600000, 0.689999997600000 );
#422 = CARTESIAN_POINT( '', ( 4.00000000000000, -1.15470053837925, -2.00000000000000 ) );
#423 = VECTOR( '', #463, 1000.00000000000 );
#424 = CARTESIAN_POINT( '', ( 4.00000000000000, -1.15470053837925, 2.00000000000000 ) );
#425 = VECTOR( '', #464, 1000.00000000000 );
#426 = COLOUR_RGB( '', 0.689999997600000, 0.689999997600000, 0.689999997600000 );
#427 = CARTESIAN_POINT( '', ( 0.000000000000000, -1.15470053837925, 2.00000000000000 ) );
#428 = VECTOR( '', #465, 1000.00000000000 );
#429 = COLOUR_RGB( '', 0.689999997600000, 0.689999997600000, 0.689999997600000 );
#430 = CARTESIAN_POINT( '', ( 0.000000000000000, 0.000000000000000, -3.23300000000000 ) );
#431 = AXIS2_PLACEMENT_3D( '', #466, #467, #468 );
#432 = COLOUR_RGB( '', 0.689999997600000, 0.689999997600000, 0.689999997600000 );
#433 = CARTESIAN_POINT( '', ( 0.000000000000000, -1.15470053837925, -2.00000000000000 ) );
#434 = VECTOR( '', #469, 1000.00000000000 );
#435 = COLOUR_RGB( '', 0.689999997600000, 0.689999997600000, 0.689999997600000 );
#436 = COLOUR_RGB( '', 0.689999997600000, 0.689999997600000, 0.689999997600000 );
#437 = DIRECTION( '', ( 0.000000000000000, 0.500000000000000, -0.866025403784439 ) );
#438 = DIRECTION( '', ( -1.00000000000000, -0.000000000000000, -0.000000000000000 ) );
#439 = DIRECTION( '', ( 0.000000000000000, 0.500000000000000, -0.866025403784439 ) );
#440 = DIRECTION( '', ( -1.00000000000000, -0.000000000000000, -0.000000000000000 ) );
#441 = DIRECTION( '', ( 0.000000000000000, 0.500000000000000, 0.866025403784439 ) );
#442 = DIRECTION( '', ( -1.00000000000000, -0.000000000000000, -0.000000000000000 ) );
#443 = DIRECTION( '', ( 0.000000000000000, 0.500000000000000, 0.866025403784439 ) );
#444 = DIRECTION( '', ( -1.00000000000000, -0.000000000000000, -0.000000000000000 ) );
#445 = CARTESIAN_POINT( '', ( 35.2000000000000, 0.000000000000000, 0.000000000000000 ) );
#446 = DIRECTION( '', ( 1.00000000000000, 0.000000000000000, -0.000000000000000 ) );
#447 = DIRECTION( '', ( -0.000000000000000, 0.000000000000000, -1.00000000000000 ) );
#448 = DIRECTION( '', ( 0.000000000000000, -1.00000000000000, 0.000000000000000 ) );
#449 = DIRECTION( '', ( -1.00000000000000, -0.000000000000000, -0.000000000000000 ) );
#450 = DIRECTION( '', ( 0.000000000000000, -1.00000000000000, 0.000000000000000 ) );
#451 = DIRECTION( '', ( -1.00000000000000, -0.000000000000000, -0.000000000000000 ) );
#452 = CARTESIAN_POINT( '', ( 32.6000000000000, 0.000000000000000, 0.000000000000000 ) );
#453 = DIRECTION( '', ( 1.00000000000000, 0.000000000000000, -0.000000000000000 ) );
#454 = DIRECTION( '', ( -0.000000000000000, 0.000000000000000, -1.00000000000000 ) );
#455 = CARTESIAN_POINT( '', ( 0.766999999999997, 0.000000000000000, 0.000000000000000 ) );
#456 = DIRECTION( '', ( 1.00000000000000, 0.000000000000000, -0.000000000000000 ) );
#457 = DIRECTION( '', ( -0.000000000000000, 0.000000000000000, -1.00000000000000 ) );
#458 = CARTESIAN_POINT( '', ( 34.2000000000000, 0.000000000000000, 0.000000000000000 ) );
#459 = DIRECTION( '', ( 1.00000000000000, 0.000000000000000, -0.000000000000000 ) );
#460 = DIRECTION( '', ( -0.000000000000000, 0.000000000000000, -1.00000000000000 ) );
#461 = DIRECTION( '', ( 0.000000000000000, -0.500000000000000, 0.866025403784439 ) );
#462 = DIRECTION( '', ( 0.000000000000000, -0.500000000000000, 0.866025403784439 ) );
#463 = DIRECTION( '', ( 0.000000000000000, 1.00000000000000, 0.000000000000000 ) );
#464 = DIRECTION( '', ( 0.000000000000000, -0.500000000000000, -0.866025403784439 ) );
#465 = DIRECTION( '', ( 0.000000000000000, -0.500000000000000, -0.866025403784439 ) );
#466 = CARTESIAN_POINT( '', ( 0.000000000000000, 0.000000000000000, 0.000000000000000 ) );
#467 = DIRECTION( '', ( 1.00000000000000, 0.000000000000000, -0.000000000000000 ) );
#468 = DIRECTION( '', ( -0.000000000000000, 0.000000000000000, -1.00000000000000 ) );
#469 = DIRECTION( '', ( 0.000000000000000, 1.00000000000000, 0.000000000000000 ) );
ENDSEC;
END-ISO-10303-21;
