ISO-10303-21;
HEADER;
FILE_DESCRIPTION( ( 'STEP AP214' ), '1' );
FILE_NAME( '//goodhand-server/Shared Folders/GoodHand Data/Kipp CAD/K1129/K1129.10038.stp', '2020-12-10T10:17:01', ( '' ), ( '' ), ' ', 'PARTsolutions', ' ' );
FILE_SCHEMA( ( 'AUTOMOTIVE_DESIGN { 1 0 10303 214 1 1 1 1 }' ) );
ENDSEC;
DATA;
#1 = MECHANICAL_DESIGN_GEOMETRIC_PRESENTATION_REPRESENTATION( ' ', ( #10, #11, #12, #13, #14, #15, #16, #17, #18, #19, #20, #21 ), #6 );
#2 = PRODUCT_DEFINITION_CONTEXT( '', #22, 'design' );
#3 = APPLICATION_PROTOCOL_DEFINITION( 'international standard', 'automotive_design', 2001, #22 );
#4 = PRODUCT_CATEGORY_RELATIONSHIP( 'NONE', 'NONE', #23, #24 );
#5 = SHAPE_DEFINITION_REPRESENTATION( #25, #26 );
#6 =  ( GEOMETRIC_REPRESENTATION_CONTEXT( 3 )GLOBAL_UNCERTAINTY_ASSIGNED_CONTEXT( ( #29 ) )GLOBAL_UNIT_ASSIGNED_CONTEXT( ( #31, #32, #33 ) )REPRESENTATION_CONTEXT( 'NONE', 'WORKSPACE' ) );
#10 = STYLED_ITEM( '', ( #35 ), #36 );
#11 = STYLED_ITEM( '', ( #37 ), #38 );
#12 = STYLED_ITEM( '', ( #39 ), #40 );
#13 = STYLED_ITEM( '', ( #41 ), #42 );
#14 = STYLED_ITEM( '', ( #43 ), #44 );
#15 = STYLED_ITEM( '', ( #45 ), #46 );
#16 = STYLED_ITEM( '', ( #47 ), #48 );
#17 = STYLED_ITEM( '', ( #49 ), #50 );
#18 = STYLED_ITEM( '', ( #51 ), #52 );
#19 = STYLED_ITEM( '', ( #53 ), #54 );
#20 = STYLED_ITEM( '', ( #55 ), #56 );
#21 = STYLED_ITEM( '', ( #57 ), #58 );
#22 = APPLICATION_CONTEXT( 'core data for automotive mechanical design processes' );
#23 = PRODUCT_CATEGORY( 'part', 'NONE' );
#24 = PRODUCT_RELATED_PRODUCT_CATEGORY( 'detail', ' ', ( #59 ) );
#25 = PRODUCT_DEFINITION_SHAPE( 'NONE', 'NONE', #60 );
#26 = ADVANCED_BREP_SHAPE_REPRESENTATION( '_K1129.10038', ( #61, #62 ), #6 );
#29 = UNCERTAINTY_MEASURE_WITH_UNIT( LENGTH_MEASURE( 0.00100000000000000 ), #31, '', '' );
#31 =  ( CONVERSION_BASED_UNIT( 'MILLIMETRE', #65 )LENGTH_UNIT(  )NAMED_UNIT( #68 ) );
#32 =  ( NAMED_UNIT( #70 )PLANE_ANGLE_UNIT(  )SI_UNIT( $, .RADIAN. ) );
#33 =  ( NAMED_UNIT( #70 )SI_UNIT( $, .STERADIAN. )SOLID_ANGLE_UNIT(  ) );
#35 = PRESENTATION_STYLE_ASSIGNMENT( ( #76 ) );
#36 = ADVANCED_FACE( '', ( #77 ), #78, .T. );
#37 = PRESENTATION_STYLE_ASSIGNMENT( ( #79 ) );
#38 = ADVANCED_FACE( '', ( #80 ), #81, .F. );
#39 = PRESENTATION_STYLE_ASSIGNMENT( ( #82 ) );
#40 = ADVANCED_FACE( '', ( #83, #84 ), #85, .T. );
#41 = PRESENTATION_STYLE_ASSIGNMENT( ( #86 ) );
#42 = ADVANCED_FACE( '', ( #87 ), #88, .T. );
#43 = PRESENTATION_STYLE_ASSIGNMENT( ( #89 ) );
#44 = ADVANCED_FACE( '', ( #90 ), #91, .T. );
#45 = PRESENTATION_STYLE_ASSIGNMENT( ( #92 ) );
#46 = ADVANCED_FACE( '', ( #93, #94 ), #95, .F. );
#47 = PRESENTATION_STYLE_ASSIGNMENT( ( #96 ) );
#48 = ADVANCED_FACE( '', ( #97, #98 ), #99, .T. );
#49 = PRESENTATION_STYLE_ASSIGNMENT( ( #100 ) );
#50 = ADVANCED_FACE( '', ( #101 ), #102, .T. );
#51 = PRESENTATION_STYLE_ASSIGNMENT( ( #103 ) );
#52 = ADVANCED_FACE( '', ( #104 ), #105, .T. );
#53 = PRESENTATION_STYLE_ASSIGNMENT( ( #106 ) );
#54 = ADVANCED_FACE( '', ( #107 ), #108, .T. );
#55 = PRESENTATION_STYLE_ASSIGNMENT( ( #109 ) );
#56 = ADVANCED_FACE( '', ( #110 ), #111, .F. );
#57 = PRESENTATION_STYLE_ASSIGNMENT( ( #112 ) );
#58 = ADVANCED_FACE( '', ( #113, #114 ), #115, .T. );
#59 = PRODUCT( '_K1129.10038', '_K1129.10038', 'PART-_K1129.10038-DESC', ( #116 ) );
#60 = PRODUCT_DEFINITION( 'NONE', 'NONE', #117, #2 );
#61 = MANIFOLD_SOLID_BREP( '_K1129.10038', #118 );
#62 = AXIS2_PLACEMENT_3D( '', #119, #120, #121 );
#65 = LENGTH_MEASURE_WITH_UNIT( LENGTH_MEASURE( 1.00000000000000 ), #122 );
#68 = DIMENSIONAL_EXPONENTS( 1.00000000000000, 0.000000000000000, 0.000000000000000, 0.000000000000000, 0.000000000000000, 0.000000000000000, 0.000000000000000 );
#70 = DIMENSIONAL_EXPONENTS( 0.000000000000000, 0.000000000000000, 0.000000000000000, 0.000000000000000, 0.000000000000000, 0.000000000000000, 0.000000000000000 );
#76 = SURFACE_STYLE_USAGE( .BOTH., #123 );
#77 = FACE_OUTER_BOUND( '', #124, .T. );
#78 = PLANE( '', #125 );
#79 = SURFACE_STYLE_USAGE( .BOTH., #126 );
#80 = FACE_OUTER_BOUND( '', #127, .T. );
#81 = PLANE( '', #128 );
#82 = SURFACE_STYLE_USAGE( .BOTH., #129 );
#83 = FACE_BOUND( '', #130, .T. );
#84 = FACE_OUTER_BOUND( '', #131, .T. );
#85 = CONICAL_SURFACE( '', #132, 8.47242595070000, 0.0314159265000000 );
#86 = SURFACE_STYLE_USAGE( .BOTH., #133 );
#87 = FACE_OUTER_BOUND( '', #134, .T. );
#88 = PLANE( '', #135 );
#89 = SURFACE_STYLE_USAGE( .BOTH., #136 );
#90 = FACE_OUTER_BOUND( '', #137, .T. );
#91 = PLANE( '', #138 );
#92 = SURFACE_STYLE_USAGE( .BOTH., #139 );
#93 = FACE_OUTER_BOUND( '', #140, .T. );
#94 = FACE_BOUND( '', #141, .T. );
#95 = PLANE( '', #142 );
#96 = SURFACE_STYLE_USAGE( .BOTH., #143 );
#97 = FACE_BOUND( '', #144, .T. );
#98 = FACE_OUTER_BOUND( '', #145, .T. );
#99 = CONICAL_SURFACE( '', #146, 8.18957404930000, 0.801106126700000 );
#100 = SURFACE_STYLE_USAGE( .BOTH., #147 );
#101 = FACE_OUTER_BOUND( '', #148, .T. );
#102 = PLANE( '', #149 );
#103 = SURFACE_STYLE_USAGE( .BOTH., #150 );
#104 = FACE_OUTER_BOUND( '', #151, .T. );
#105 = PLANE( '', #152 );
#106 = SURFACE_STYLE_USAGE( .BOTH., #153 );
#107 = FACE_OUTER_BOUND( '', #154, .T. );
#108 = PLANE( '', #155 );
#109 = SURFACE_STYLE_USAGE( .BOTH., #156 );
#110 = FACE_OUTER_BOUND( '', #157, .T. );
#111 = PLANE( '', #158 );
#112 = SURFACE_STYLE_USAGE( .BOTH., #159 );
#113 = FACE_OUTER_BOUND( '', #160, .T. );
#114 = FACE_BOUND( '', #161, .T. );
#115 = CONICAL_SURFACE( '', #162, 7.98813133020000, 0.769690200100000 );
#116 = PRODUCT_CONTEXT( '', #22, 'mechanical' );
#117 = PRODUCT_DEFINITION_FORMATION_WITH_SPECIFIED_SOURCE( ' ', 'NONE', #59, .NOT_KNOWN. );
#118 = CLOSED_SHELL( '', ( #58, #46, #54, #52, #36, #38, #48, #40, #42, #50, #44, #56 ) );
#119 = CARTESIAN_POINT( '', ( 0.000000000000000, 0.000000000000000, 0.000000000000000 ) );
#120 = DIRECTION( '', ( 0.000000000000000, 0.000000000000000, 1.00000000000000 ) );
#121 = DIRECTION( '', ( 1.00000000000000, 0.000000000000000, 0.000000000000000 ) );
#122 =  ( LENGTH_UNIT(  )NAMED_UNIT( #68 )SI_UNIT( .MILLI., .METRE. ) );
#123 = SURFACE_SIDE_STYLE( '', ( #164 ) );
#124 = EDGE_LOOP( '', ( #165, #166, #167, #168 ) );
#125 = AXIS2_PLACEMENT_3D( '', #169, #170, #171 );
#126 = SURFACE_SIDE_STYLE( '', ( #172 ) );
#127 = EDGE_LOOP( '', ( #173 ) );
#128 = AXIS2_PLACEMENT_3D( '', #174, #175, #176 );
#129 = SURFACE_SIDE_STYLE( '', ( #177 ) );
#130 = EDGE_LOOP( '', ( #178 ) );
#131 = EDGE_LOOP( '', ( #179 ) );
#132 = AXIS2_PLACEMENT_3D( '', #180, #181, #182 );
#133 = SURFACE_SIDE_STYLE( '', ( #183 ) );
#134 = EDGE_LOOP( '', ( #184, #185, #186, #187 ) );
#135 = AXIS2_PLACEMENT_3D( '', #188, #189, #190 );
#136 = SURFACE_SIDE_STYLE( '', ( #191 ) );
#137 = EDGE_LOOP( '', ( #192, #193, #194, #195 ) );
#138 = AXIS2_PLACEMENT_3D( '', #196, #197, #198 );
#139 = SURFACE_SIDE_STYLE( '', ( #199 ) );
#140 = EDGE_LOOP( '', ( #200 ) );
#141 = EDGE_LOOP( '', ( #201, #202, #203, #204, #205, #206 ) );
#142 = AXIS2_PLACEMENT_3D( '', #207, #208, #209 );
#143 = SURFACE_SIDE_STYLE( '', ( #210 ) );
#144 = EDGE_LOOP( '', ( #211 ) );
#145 = EDGE_LOOP( '', ( #212 ) );
#146 = AXIS2_PLACEMENT_3D( '', #213, #214, #215 );
#147 = SURFACE_SIDE_STYLE( '', ( #216 ) );
#148 = EDGE_LOOP( '', ( #217, #218, #219, #220 ) );
#149 = AXIS2_PLACEMENT_3D( '', #221, #222, #223 );
#150 = SURFACE_SIDE_STYLE( '', ( #224 ) );
#151 = EDGE_LOOP( '', ( #225, #226, #227, #228 ) );
#152 = AXIS2_PLACEMENT_3D( '', #229, #230, #231 );
#153 = SURFACE_SIDE_STYLE( '', ( #232 ) );
#154 = EDGE_LOOP( '', ( #233, #234, #235, #236 ) );
#155 = AXIS2_PLACEMENT_3D( '', #237, #238, #239 );
#156 = SURFACE_SIDE_STYLE( '', ( #240 ) );
#157 = EDGE_LOOP( '', ( #241, #242, #243, #244, #245, #246 ) );
#158 = AXIS2_PLACEMENT_3D( '', #247, #248, #249 );
#159 = SURFACE_SIDE_STYLE( '', ( #250 ) );
#160 = EDGE_LOOP( '', ( #251 ) );
#161 = EDGE_LOOP( '', ( #252 ) );
#162 = AXIS2_PLACEMENT_3D( '', #253, #254, #255 );
#164 = SURFACE_STYLE_FILL_AREA( #256 );
#165 = ORIENTED_EDGE( '', *, *, #257, .F. );
#166 = ORIENTED_EDGE( '', *, *, #258, .F. );
#167 = ORIENTED_EDGE( '', *, *, #259, .T. );
#168 = ORIENTED_EDGE( '', *, *, #260, .T. );
#169 = CARTESIAN_POINT( '', ( 5.00000000000000, 2.30940107675850, 4.00000000000000 ) );
#170 = DIRECTION( '', ( 0.000000000000000, 0.000000000000000, -1.00000000000000 ) );
#171 = DIRECTION( '', ( -1.00000000000000, 0.000000000000000, 0.000000000000000 ) );
#172 = SURFACE_STYLE_FILL_AREA( #261 );
#173 = ORIENTED_EDGE( '', *, *, #262, .T. );
#174 = CARTESIAN_POINT( '', ( 10.0000000000000, 7.67386866978324, 0.000000000000000 ) );
#175 = DIRECTION( '', ( -1.00000000000000, 0.000000000000000, 0.000000000000000 ) );
#176 = DIRECTION( '', ( 0.000000000000000, 0.000000000000000, 1.00000000000000 ) );
#177 = SURFACE_STYLE_FILL_AREA( #263 );
#178 = ORIENTED_EDGE( '', *, *, #264, .F. );
#179 = ORIENTED_EDGE( '', *, *, #265, .T. );
#180 = CARTESIAN_POINT( '', ( 0.499753280182865, 0.000000000000000, 0.000000000000000 ) );
#181 = DIRECTION( '', ( -1.00000000000000, 0.000000000000000, -0.000000000000000 ) );
#182 = DIRECTION( '', ( 0.000000000000000, 0.000000000000000, 1.00000000000000 ) );
#183 = SURFACE_STYLE_FILL_AREA( #266 );
#184 = ORIENTED_EDGE( '', *, *, #267, .F. );
#185 = ORIENTED_EDGE( '', *, *, #268, .F. );
#186 = ORIENTED_EDGE( '', *, *, #269, .T. );
#187 = ORIENTED_EDGE( '', *, *, #270, .T. );
#188 = CARTESIAN_POINT( '', ( 5.00000000000000, -2.30940107675850, -4.00000000000000 ) );
#189 = DIRECTION( '', ( 0.000000000000000, 0.000000000000000, 1.00000000000000 ) );
#190 = DIRECTION( '', ( 1.00000000000000, 0.000000000000000, -0.000000000000000 ) );
#191 = SURFACE_STYLE_FILL_AREA( #271 );
#192 = ORIENTED_EDGE( '', *, *, #272, .F. );
#193 = ORIENTED_EDGE( '', *, *, #273, .F. );
#194 = ORIENTED_EDGE( '', *, *, #274, .T. );
#195 = ORIENTED_EDGE( '', *, *, #258, .T. );
#196 = CARTESIAN_POINT( '', ( 5.00000000000000, 4.61880215351701, 0.000000000000000 ) );
#197 = DIRECTION( '', ( 0.000000000000000, -0.866025403784439, -0.500000000000000 ) );
#198 = DIRECTION( '', ( 0.000000000000000, 0.500000000000000, -0.866025403784439 ) );
#199 = SURFACE_STYLE_FILL_AREA( #275 );
#200 = ORIENTED_EDGE( '', *, *, #276, .F. );
#201 = ORIENTED_EDGE( '', *, *, #257, .T. );
#202 = ORIENTED_EDGE( '', *, *, #277, .T. );
#203 = ORIENTED_EDGE( '', *, *, #278, .T. );
#204 = ORIENTED_EDGE( '', *, *, #267, .T. );
#205 = ORIENTED_EDGE( '', *, *, #279, .T. );
#206 = ORIENTED_EDGE( '', *, *, #272, .T. );
#207 = CARTESIAN_POINT( '', ( 0.000000000000000, 0.000000000000000, 0.000000000000000 ) );
#208 = DIRECTION( '', ( 1.00000000000000, 0.000000000000000, -0.000000000000000 ) );
#209 = DIRECTION( '', ( -0.000000000000000, 0.000000000000000, -1.00000000000000 ) );
#210 = SURFACE_STYLE_FILL_AREA( #280 );
#211 = ORIENTED_EDGE( '', *, *, #262, .F. );
#212 = ORIENTED_EDGE( '', *, *, #264, .T. );
#213 = CARTESIAN_POINT( '', ( 9.50024671981713, 0.000000000000000, 0.000000000000000 ) );
#214 = DIRECTION( '', ( -1.00000000000000, 0.000000000000000, -0.000000000000000 ) );
#215 = DIRECTION( '', ( 0.000000000000000, 0.000000000000000, 1.00000000000000 ) );
#216 = SURFACE_STYLE_FILL_AREA( #281 );
#217 = ORIENTED_EDGE( '', *, *, #279, .F. );
#218 = ORIENTED_EDGE( '', *, *, #270, .F. );
#219 = ORIENTED_EDGE( '', *, *, #282, .T. );
#220 = ORIENTED_EDGE( '', *, *, #273, .T. );
#221 = CARTESIAN_POINT( '', ( 5.00000000000000, 2.30940107675850, -4.00000000000000 ) );
#222 = DIRECTION( '', ( 0.000000000000000, -0.866025403784439, 0.500000000000000 ) );
#223 = DIRECTION( '', ( 0.000000000000000, -0.500000000000000, -0.866025403784439 ) );
#224 = SURFACE_STYLE_FILL_AREA( #283 );
#225 = ORIENTED_EDGE( '', *, *, #278, .F. );
#226 = ORIENTED_EDGE( '', *, *, #284, .F. );
#227 = ORIENTED_EDGE( '', *, *, #285, .T. );
#228 = ORIENTED_EDGE( '', *, *, #268, .T. );
#229 = CARTESIAN_POINT( '', ( 5.00000000000000, -4.61880215351701, 0.000000000000000 ) );
#230 = DIRECTION( '', ( -0.000000000000000, 0.866025403784439, 0.500000000000000 ) );
#231 = DIRECTION( '', ( 0.000000000000000, -0.500000000000000, 0.866025403784439 ) );
#232 = SURFACE_STYLE_FILL_AREA( #286 );
#233 = ORIENTED_EDGE( '', *, *, #277, .F. );
#234 = ORIENTED_EDGE( '', *, *, #260, .F. );
#235 = ORIENTED_EDGE( '', *, *, #287, .T. );
#236 = ORIENTED_EDGE( '', *, *, #284, .T. );
#237 = CARTESIAN_POINT( '', ( 5.00000000000000, -2.30940107675850, 4.00000000000000 ) );
#238 = DIRECTION( '', ( 0.000000000000000, 0.866025403784439, -0.500000000000000 ) );
#239 = DIRECTION( '', ( 0.000000000000000, 0.500000000000000, 0.866025403784439 ) );
#240 = SURFACE_STYLE_FILL_AREA( #288 );
#241 = ORIENTED_EDGE( '', *, *, #259, .F. );
#242 = ORIENTED_EDGE( '', *, *, #274, .F. );
#243 = ORIENTED_EDGE( '', *, *, #282, .F. );
#244 = ORIENTED_EDGE( '', *, *, #269, .F. );
#245 = ORIENTED_EDGE( '', *, *, #285, .F. );
#246 = ORIENTED_EDGE( '', *, *, #287, .F. );
#247 = CARTESIAN_POINT( '', ( 5.00000000000000, 0.000000000000000, 0.000000000000000 ) );
#248 = DIRECTION( '', ( 1.00000000000000, 0.000000000000000, 0.000000000000000 ) );
#249 = DIRECTION( '', ( 0.000000000000000, 0.000000000000000, -1.00000000000000 ) );
#250 = SURFACE_STYLE_FILL_AREA( #289 );
#251 = ORIENTED_EDGE( '', *, *, #265, .F. );
#252 = ORIENTED_EDGE( '', *, *, #276, .T. );
#253 = CARTESIAN_POINT( '', ( 0.000000000000000, 0.000000000000000, 0.000000000000000 ) );
#254 = DIRECTION( '', ( 1.00000000000000, -0.000000000000000, -0.000000000000000 ) );
#255 = DIRECTION( '', ( -0.000000000000000, 0.000000000000000, -1.00000000000000 ) );
#256 = FILL_AREA_STYLE( '', ( #290 ) );
#257 = EDGE_CURVE( '', #291, #292, #293, .T. );
#258 = EDGE_CURVE( '', #294, #291, #295, .T. );
#259 = EDGE_CURVE( '', #294, #296, #297, .T. );
#260 = EDGE_CURVE( '', #296, #292, #298, .T. );
#261 = FILL_AREA_STYLE( '', ( #299 ) );
#262 = EDGE_CURVE( '', #300, #300, #301, .T. );
#263 = FILL_AREA_STYLE( '', ( #302 ) );
#264 = EDGE_CURVE( '', #303, #303, #304, .T. );
#265 = EDGE_CURVE( '', #305, #305, #306, .T. );
#266 = FILL_AREA_STYLE( '', ( #307 ) );
#267 = EDGE_CURVE( '', #308, #309, #310, .T. );
#268 = EDGE_CURVE( '', #311, #308, #312, .T. );
#269 = EDGE_CURVE( '', #311, #313, #314, .T. );
#270 = EDGE_CURVE( '', #313, #309, #315, .T. );
#271 = FILL_AREA_STYLE( '', ( #316 ) );
#272 = EDGE_CURVE( '', #317, #291, #318, .T. );
#273 = EDGE_CURVE( '', #319, #317, #320, .T. );
#274 = EDGE_CURVE( '', #319, #294, #321, .T. );
#275 = FILL_AREA_STYLE( '', ( #322 ) );
#276 = EDGE_CURVE( '', #323, #323, #324, .T. );
#277 = EDGE_CURVE( '', #292, #325, #326, .T. );
#278 = EDGE_CURVE( '', #325, #308, #327, .T. );
#279 = EDGE_CURVE( '', #309, #317, #328, .T. );
#280 = FILL_AREA_STYLE( '', ( #329 ) );
#281 = FILL_AREA_STYLE( '', ( #330 ) );
#282 = EDGE_CURVE( '', #313, #319, #331, .T. );
#283 = FILL_AREA_STYLE( '', ( #332 ) );
#284 = EDGE_CURVE( '', #333, #325, #334, .T. );
#285 = EDGE_CURVE( '', #333, #311, #335, .T. );
#286 = FILL_AREA_STYLE( '', ( #336 ) );
#287 = EDGE_CURVE( '', #296, #333, #337, .T. );
#288 = FILL_AREA_STYLE( '', ( #338 ) );
#289 = FILL_AREA_STYLE( '', ( #339 ) );
#290 = FILL_AREA_STYLE_COLOUR( '', #340 );
#291 = VERTEX_POINT( '', #341 );
#292 = VERTEX_POINT( '', #342 );
#293 = LINE( '', #343, #344 );
#294 = VERTEX_POINT( '', #345 );
#295 = LINE( '', #346, #347 );
#296 = VERTEX_POINT( '', #348 );
#297 = LINE( '', #349, #350 );
#298 = LINE( '', #351, #352 );
#299 = FILL_AREA_STYLE_COLOUR( '', #353 );
#300 = VERTEX_POINT( '', #354 );
#301 = CIRCLE( '', #355, 7.67386866980000 );
#302 = FILL_AREA_STYLE_COLOUR( '', #356 );
#303 = VERTEX_POINT( '', #357 );
#304 = CIRCLE( '', #358, 8.18957404930000 );
#305 = VERTEX_POINT( '', #359 );
#306 = CIRCLE( '', #360, 8.47242595070000 );
#307 = FILL_AREA_STYLE_COLOUR( '', #361 );
#308 = VERTEX_POINT( '', #362 );
#309 = VERTEX_POINT( '', #363 );
#310 = LINE( '', #364, #365 );
#311 = VERTEX_POINT( '', #366 );
#312 = LINE( '', #367, #368 );
#313 = VERTEX_POINT( '', #369 );
#314 = LINE( '', #370, #371 );
#315 = LINE( '', #372, #373 );
#316 = FILL_AREA_STYLE_COLOUR( '', #374 );
#317 = VERTEX_POINT( '', #375 );
#318 = LINE( '', #376, #377 );
#319 = VERTEX_POINT( '', #378 );
#320 = LINE( '', #379, #380 );
#321 = LINE( '', #381, #382 );
#322 = FILL_AREA_STYLE_COLOUR( '', #383 );
#323 = VERTEX_POINT( '', #384 );
#324 = CIRCLE( '', #385, 7.98813133020000 );
#325 = VERTEX_POINT( '', #386 );
#326 = LINE( '', #387, #388 );
#327 = LINE( '', #389, #390 );
#328 = LINE( '', #391, #392 );
#329 = FILL_AREA_STYLE_COLOUR( '', #393 );
#330 = FILL_AREA_STYLE_COLOUR( '', #394 );
#331 = LINE( '', #395, #396 );
#332 = FILL_AREA_STYLE_COLOUR( '', #397 );
#333 = VERTEX_POINT( '', #398 );
#334 = LINE( '', #399, #400 );
#335 = LINE( '', #401, #402 );
#336 = FILL_AREA_STYLE_COLOUR( '', #403 );
#337 = LINE( '', #404, #405 );
#338 = FILL_AREA_STYLE_COLOUR( '', #406 );
#339 = FILL_AREA_STYLE_COLOUR( '', #407 );
#340 = COLOUR_RGB( '', 0.689999997600000, 0.689999997600000, 0.689999997600000 );
#341 = CARTESIAN_POINT( '', ( 0.000000000000000, 2.30940107675850, 4.00000000000000 ) );
#342 = CARTESIAN_POINT( '', ( 0.000000000000000, -2.30940107675850, 4.00000000000000 ) );
#343 = CARTESIAN_POINT( '', ( 0.000000000000000, 2.30940107675850, 4.00000000000000 ) );
#344 = VECTOR( '', #408, 1000.00000000000 );
#345 = CARTESIAN_POINT( '', ( 5.00000000000000, 2.30940107675850, 4.00000000000000 ) );
#346 = CARTESIAN_POINT( '', ( 5.00000000000000, 2.30940107675850, 4.00000000000000 ) );
#347 = VECTOR( '', #409, 1000.00000000000 );
#348 = CARTESIAN_POINT( '', ( 5.00000000000000, -2.30940107675850, 4.00000000000000 ) );
#349 = CARTESIAN_POINT( '', ( 5.00000000000000, 2.30940107675850, 4.00000000000000 ) );
#350 = VECTOR( '', #410, 1000.00000000000 );
#351 = CARTESIAN_POINT( '', ( 5.00000000000000, -2.30940107675850, 4.00000000000000 ) );
#352 = VECTOR( '', #411, 1000.00000000000 );
#353 = COLOUR_RGB( '', 0.689999997600000, 0.689999997600000, 0.689999997600000 );
#354 = CARTESIAN_POINT( '', ( 10.0000000000000, 0.000000000000000, -7.67386866978324 ) );
#355 = AXIS2_PLACEMENT_3D( '', #412, #413, #414 );
#356 = COLOUR_RGB( '', 0.689999997600000, 0.689999997600000, 0.689999997600000 );
#357 = CARTESIAN_POINT( '', ( 9.50024671981713, 0.000000000000000, -8.18957404932231 ) );
#358 = AXIS2_PLACEMENT_3D( '', #415, #416, #417 );
#359 = CARTESIAN_POINT( '', ( 0.499753280182865, 0.000000000000000, -8.47242595067769 ) );
#360 = AXIS2_PLACEMENT_3D( '', #418, #419, #420 );
#361 = COLOUR_RGB( '', 0.689999997600000, 0.689999997600000, 0.689999997600000 );
#362 = CARTESIAN_POINT( '', ( 0.000000000000000, -2.30940107675850, -4.00000000000000 ) );
#363 = CARTESIAN_POINT( '', ( 0.000000000000000, 2.30940107675850, -4.00000000000000 ) );
#364 = CARTESIAN_POINT( '', ( 0.000000000000000, -2.30940107675850, -4.00000000000000 ) );
#365 = VECTOR( '', #421, 1000.00000000000 );
#366 = CARTESIAN_POINT( '', ( 5.00000000000000, -2.30940107675850, -4.00000000000000 ) );
#367 = CARTESIAN_POINT( '', ( 5.00000000000000, -2.30940107675850, -4.00000000000000 ) );
#368 = VECTOR( '', #422, 1000.00000000000 );
#369 = CARTESIAN_POINT( '', ( 5.00000000000000, 2.30940107675850, -4.00000000000000 ) );
#370 = CARTESIAN_POINT( '', ( 5.00000000000000, -2.30940107675850, -4.00000000000000 ) );
#371 = VECTOR( '', #423, 1000.00000000000 );
#372 = CARTESIAN_POINT( '', ( 5.00000000000000, 2.30940107675850, -4.00000000000000 ) );
#373 = VECTOR( '', #424, 1000.00000000000 );
#374 = COLOUR_RGB( '', 0.689999997600000, 0.689999997600000, 0.689999997600000 );
#375 = CARTESIAN_POINT( '', ( 0.000000000000000, 4.61880215351701, 0.000000000000000 ) );
#376 = CARTESIAN_POINT( '', ( 0.000000000000000, 4.61880215351701, 0.000000000000000 ) );
#377 = VECTOR( '', #425, 1000.00000000000 );
#378 = CARTESIAN_POINT( '', ( 5.00000000000000, 4.61880215351701, 0.000000000000000 ) );
#379 = CARTESIAN_POINT( '', ( 5.00000000000000, 4.61880215351701, 0.000000000000000 ) );
#380 = VECTOR( '', #426, 1000.00000000000 );
#381 = CARTESIAN_POINT( '', ( 5.00000000000000, 4.61880215351701, 0.000000000000000 ) );
#382 = VECTOR( '', #427, 1000.00000000000 );
#383 = COLOUR_RGB( '', 0.689999997600000, 0.689999997600000, 0.689999997600000 );
#384 = CARTESIAN_POINT( '', ( 0.000000000000000, 0.000000000000000, -7.98813133021676 ) );
#385 = AXIS2_PLACEMENT_3D( '', #428, #429, #430 );
#386 = CARTESIAN_POINT( '', ( 0.000000000000000, -4.61880215351701, 0.000000000000000 ) );
#387 = CARTESIAN_POINT( '', ( 0.000000000000000, -2.30940107675850, 4.00000000000000 ) );
#388 = VECTOR( '', #431, 1000.00000000000 );
#389 = CARTESIAN_POINT( '', ( 0.000000000000000, -4.61880215351701, 0.000000000000000 ) );
#390 = VECTOR( '', #432, 1000.00000000000 );
#391 = CARTESIAN_POINT( '', ( 0.000000000000000, 2.30940107675850, -4.00000000000000 ) );
#392 = VECTOR( '', #433, 1000.00000000000 );
#393 = COLOUR_RGB( '', 0.689999997600000, 0.689999997600000, 0.689999997600000 );
#394 = COLOUR_RGB( '', 0.689999997600000, 0.689999997600000, 0.689999997600000 );
#395 = CARTESIAN_POINT( '', ( 5.00000000000000, 2.30940107675850, -4.00000000000000 ) );
#396 = VECTOR( '', #434, 1000.00000000000 );
#397 = COLOUR_RGB( '', 0.689999997600000, 0.689999997600000, 0.689999997600000 );
#398 = CARTESIAN_POINT( '', ( 5.00000000000000, -4.61880215351701, 0.000000000000000 ) );
#399 = CARTESIAN_POINT( '', ( 5.00000000000000, -4.61880215351701, 0.000000000000000 ) );
#400 = VECTOR( '', #435, 1000.00000000000 );
#401 = CARTESIAN_POINT( '', ( 5.00000000000000, -4.61880215351701, 0.000000000000000 ) );
#402 = VECTOR( '', #436, 1000.00000000000 );
#403 = COLOUR_RGB( '', 0.689999997600000, 0.689999997600000, 0.689999997600000 );
#404 = CARTESIAN_POINT( '', ( 5.00000000000000, -2.30940107675850, 4.00000000000000 ) );
#405 = VECTOR( '', #437, 1000.00000000000 );
#406 = COLOUR_RGB( '', 0.689999997600000, 0.689999997600000, 0.689999997600000 );
#407 = COLOUR_RGB( '', 0.689999997600000, 0.689999997600000, 0.689999997600000 );
#408 = DIRECTION( '', ( 0.000000000000000, -1.00000000000000, 0.000000000000000 ) );
#409 = DIRECTION( '', ( -1.00000000000000, -0.000000000000000, -0.000000000000000 ) );
#410 = DIRECTION( '', ( 0.000000000000000, -1.00000000000000, 0.000000000000000 ) );
#411 = DIRECTION( '', ( -1.00000000000000, -0.000000000000000, -0.000000000000000 ) );
#412 = CARTESIAN_POINT( '', ( 10.0000000000000, 0.000000000000000, 0.000000000000000 ) );
#413 = DIRECTION( '', ( 1.00000000000000, 0.000000000000000, -0.000000000000000 ) );
#414 = DIRECTION( '', ( -0.000000000000000, 0.000000000000000, -1.00000000000000 ) );
#415 = CARTESIAN_POINT( '', ( 9.50024671981713, 0.000000000000000, 0.000000000000000 ) );
#416 = DIRECTION( '', ( 1.00000000000000, 0.000000000000000, -0.000000000000000 ) );
#417 = DIRECTION( '', ( -0.000000000000000, 0.000000000000000, -1.00000000000000 ) );
#418 = CARTESIAN_POINT( '', ( 0.499753280182865, 0.000000000000000, 0.000000000000000 ) );
#419 = DIRECTION( '', ( 1.00000000000000, 0.000000000000000, -0.000000000000000 ) );
#420 = DIRECTION( '', ( -0.000000000000000, 0.000000000000000, -1.00000000000000 ) );
#421 = DIRECTION( '', ( 0.000000000000000, 1.00000000000000, 0.000000000000000 ) );
#422 = DIRECTION( '', ( -1.00000000000000, -0.000000000000000, -0.000000000000000 ) );
#423 = DIRECTION( '', ( 0.000000000000000, 1.00000000000000, 0.000000000000000 ) );
#424 = DIRECTION( '', ( -1.00000000000000, -0.000000000000000, -0.000000000000000 ) );
#425 = DIRECTION( '', ( 0.000000000000000, -0.500000000000000, 0.866025403784439 ) );
#426 = DIRECTION( '', ( -1.00000000000000, -0.000000000000000, -0.000000000000000 ) );
#427 = DIRECTION( '', ( 0.000000000000000, -0.500000000000000, 0.866025403784439 ) );
#428 = CARTESIAN_POINT( '', ( 0.000000000000000, 0.000000000000000, 0.000000000000000 ) );
#429 = DIRECTION( '', ( 1.00000000000000, 0.000000000000000, -0.000000000000000 ) );
#430 = DIRECTION( '', ( -0.000000000000000, 0.000000000000000, -1.00000000000000 ) );
#431 = DIRECTION( '', ( 0.000000000000000, -0.500000000000000, -0.866025403784439 ) );
#432 = DIRECTION( '', ( 0.000000000000000, 0.500000000000000, -0.866025403784439 ) );
#433 = DIRECTION( '', ( 0.000000000000000, 0.500000000000000, 0.866025403784439 ) );
#434 = DIRECTION( '', ( 0.000000000000000, 0.500000000000000, 0.866025403784439 ) );
#435 = DIRECTION( '', ( -1.00000000000000, -0.000000000000000, -0.000000000000000 ) );
#436 = DIRECTION( '', ( 0.000000000000000, 0.500000000000000, -0.866025403784439 ) );
#437 = DIRECTION( '', ( 0.000000000000000, -0.500000000000000, -0.866025403784439 ) );
ENDSEC;
END-ISO-10303-21;
