ISO-10303-21;
HEADER;
FILE_DESCRIPTION( ( 'STEP AP214' ), '1' );
FILE_NAME( '//goodhand-server/Shared Folders/GoodHand Data/Kipp CAD/K0390/K0390.201X150.stp', '2020-12-07T10:16:18', ( '' ), ( '' ), ' ', 'PARTsolutions', ' ' );
FILE_SCHEMA( ( 'AUTOMOTIVE_DESIGN { 1 0 10303 214 1 1 1 1 }' ) );
ENDSEC;
DATA;
#1 = MECHANICAL_DESIGN_GEOMETRIC_PRESENTATION_REPRESENTATION( ' ', ( #10, #11, #12, #13, #14, #15, #16, #17, #18, #19, #20, #21, #22 ), #6 );
#2 = PRODUCT_DEFINITION_CONTEXT( '', #23, 'design' );
#3 = APPLICATION_PROTOCOL_DEFINITION( 'international standard', 'automotive_design', 2001, #23 );
#4 = PRODUCT_CATEGORY_RELATIONSHIP( 'NONE', 'NONE', #24, #25 );
#5 = SHAPE_DEFINITION_REPRESENTATION( #26, #27 );
#6 =  ( GEOMETRIC_REPRESENTATION_CONTEXT( 3 )GLOBAL_UNCERTAINTY_ASSIGNED_CONTEXT( ( #30 ) )GLOBAL_UNIT_ASSIGNED_CONTEXT( ( #32, #33, #34 ) )REPRESENTATION_CONTEXT( 'NONE', 'WORKSPACE' ) );
#10 = STYLED_ITEM( '', ( #36 ), #37 );
#11 = STYLED_ITEM( '', ( #38 ), #39 );
#12 = STYLED_ITEM( '', ( #40 ), #41 );
#13 = STYLED_ITEM( '', ( #42 ), #43 );
#14 = STYLED_ITEM( '', ( #44 ), #45 );
#15 = STYLED_ITEM( '', ( #46 ), #47 );
#16 = STYLED_ITEM( '', ( #48 ), #49 );
#17 = STYLED_ITEM( '', ( #50 ), #51 );
#18 = STYLED_ITEM( '', ( #52 ), #53 );
#19 = STYLED_ITEM( '', ( #54 ), #55 );
#20 = STYLED_ITEM( '', ( #56 ), #57 );
#21 = STYLED_ITEM( '', ( #58 ), #59 );
#22 = STYLED_ITEM( '', ( #60 ), #61 );
#23 = APPLICATION_CONTEXT( 'core data for automotive mechanical design processes' );
#24 = PRODUCT_CATEGORY( 'part', 'NONE' );
#25 = PRODUCT_RELATED_PRODUCT_CATEGORY( 'detail', ' ', ( #62 ) );
#26 = PRODUCT_DEFINITION_SHAPE( 'NONE', 'NONE', #63 );
#27 = ADVANCED_BREP_SHAPE_REPRESENTATION( '_K0390.201X150', ( #64, #65 ), #6 );
#30 = UNCERTAINTY_MEASURE_WITH_UNIT( LENGTH_MEASURE( 0.00100000000000000 ), #32, '', '' );
#32 =  ( CONVERSION_BASED_UNIT( 'MILLIMETRE', #68 )LENGTH_UNIT(  )NAMED_UNIT( #71 ) );
#33 =  ( NAMED_UNIT( #73 )PLANE_ANGLE_UNIT(  )SI_UNIT( $, .RADIAN. ) );
#34 =  ( NAMED_UNIT( #73 )SI_UNIT( $, .STERADIAN. )SOLID_ANGLE_UNIT(  ) );
#36 = PRESENTATION_STYLE_ASSIGNMENT( ( #79 ) );
#37 = ADVANCED_FACE( '', ( #80 ), #81, .F. );
#38 = PRESENTATION_STYLE_ASSIGNMENT( ( #82 ) );
#39 = ADVANCED_FACE( '', ( #83, #84 ), #85, .T. );
#40 = PRESENTATION_STYLE_ASSIGNMENT( ( #86 ) );
#41 = ADVANCED_FACE( '', ( #87 ), #88, .T. );
#42 = PRESENTATION_STYLE_ASSIGNMENT( ( #89 ) );
#43 = ADVANCED_FACE( '', ( #90 ), #91, .F. );
#44 = PRESENTATION_STYLE_ASSIGNMENT( ( #92 ) );
#45 = ADVANCED_FACE( '', ( #93 ), #94, .F. );
#46 = PRESENTATION_STYLE_ASSIGNMENT( ( #95 ) );
#47 = ADVANCED_FACE( '', ( #96, #97 ), #98, .T. );
#48 = PRESENTATION_STYLE_ASSIGNMENT( ( #99 ) );
#49 = ADVANCED_FACE( '', ( #100, #101 ), #102, .T. );
#50 = PRESENTATION_STYLE_ASSIGNMENT( ( #103 ) );
#51 = ADVANCED_FACE( '', ( #104 ), #105, .F. );
#52 = PRESENTATION_STYLE_ASSIGNMENT( ( #106 ) );
#53 = ADVANCED_FACE( '', ( #107, #108 ), #109, .F. );
#54 = PRESENTATION_STYLE_ASSIGNMENT( ( #110 ) );
#55 = ADVANCED_FACE( '', ( #111 ), #112, .T. );
#56 = PRESENTATION_STYLE_ASSIGNMENT( ( #113 ) );
#57 = ADVANCED_FACE( '', ( #114 ), #115, .T. );
#58 = PRESENTATION_STYLE_ASSIGNMENT( ( #116 ) );
#59 = ADVANCED_FACE( '', ( #117, #118 ), #119, .T. );
#60 = PRESENTATION_STYLE_ASSIGNMENT( ( #120 ) );
#61 = ADVANCED_FACE( '', ( #121, #122 ), #123, .T. );
#62 = PRODUCT( '_K0390.201X150', '_K0390.201X150', 'PART-_K0390.201X150-DESC', ( #124 ) );
#63 = PRODUCT_DEFINITION( 'NONE', 'NONE', #125, #2 );
#64 = MANIFOLD_SOLID_BREP( '_K0390.201X150', #126 );
#65 = AXIS2_PLACEMENT_3D( '', #127, #128, #129 );
#68 = LENGTH_MEASURE_WITH_UNIT( LENGTH_MEASURE( 1.00000000000000 ), #130 );
#71 = DIMENSIONAL_EXPONENTS( 1.00000000000000, 0.000000000000000, 0.000000000000000, 0.000000000000000, 0.000000000000000, 0.000000000000000, 0.000000000000000 );
#73 = DIMENSIONAL_EXPONENTS( 0.000000000000000, 0.000000000000000, 0.000000000000000, 0.000000000000000, 0.000000000000000, 0.000000000000000, 0.000000000000000 );
#79 = SURFACE_STYLE_USAGE( .BOTH., #131 );
#80 = FACE_OUTER_BOUND( '', #132, .T. );
#81 = PLANE( '', #133 );
#82 = SURFACE_STYLE_USAGE( .BOTH., #134 );
#83 = FACE_BOUND( '', #135, .T. );
#84 = FACE_OUTER_BOUND( '', #136, .T. );
#85 = SPHERICAL_SURFACE( '', #137, 12.9998500000000 );
#86 = SURFACE_STYLE_USAGE( .BOTH., #138 );
#87 = FACE_OUTER_BOUND( '', #139, .T. );
#88 = CONICAL_SURFACE( '', #140, 8.46650000000000, 0.785398163400000 );
#89 = SURFACE_STYLE_USAGE( .BOTH., #141 );
#90 = FACE_OUTER_BOUND( '', #142, .T. );
#91 = PLANE( '', #143 );
#92 = SURFACE_STYLE_USAGE( .BOTH., #144 );
#93 = FACE_OUTER_BOUND( '', #145, .T. );
#94 = PLANE( '', #146 );
#95 = SURFACE_STYLE_USAGE( .BOTH., #147 );
#96 = FACE_OUTER_BOUND( '', #148, .T. );
#97 = FACE_OUTER_BOUND( '', #149, .T. );
#98 = CYLINDRICAL_SURFACE( '', #150, 7.75000000000000 );
#99 = SURFACE_STYLE_USAGE( .BOTH., #151 );
#100 = FACE_OUTER_BOUND( '', #152, .T. );
#101 = FACE_OUTER_BOUND( '', #153, .T. );
#102 = CYLINDRICAL_SURFACE( '', #154, 10.0000000000000 );
#103 = SURFACE_STYLE_USAGE( .BOTH., #155 );
#104 = FACE_OUTER_BOUND( '', #156, .T. );
#105 = PLANE( '', #157 );
#106 = SURFACE_STYLE_USAGE( .BOTH., #158 );
#107 = FACE_OUTER_BOUND( '', #159, .T. );
#108 = FACE_BOUND( '', #160, .T. );
#109 = PLANE( '', #161 );
#110 = SURFACE_STYLE_USAGE( .BOTH., #162 );
#111 = FACE_OUTER_BOUND( '', #163, .T. );
#112 = PLANE( '', #164 );
#113 = SURFACE_STYLE_USAGE( .BOTH., #165 );
#114 = FACE_OUTER_BOUND( '', #166, .T. );
#115 = CONICAL_SURFACE( '', #167, 8.46650000000000, 0.785398163400000 );
#116 = SURFACE_STYLE_USAGE( .BOTH., #168 );
#117 = FACE_BOUND( '', #169, .T. );
#118 = FACE_OUTER_BOUND( '', #170, .T. );
#119 = CONICAL_SURFACE( '', #171, 10.0000000000000, 1.12234211560000 );
#120 = SURFACE_STYLE_USAGE( .BOTH., #172 );
#121 = FACE_OUTER_BOUND( '', #173, .T. );
#122 = FACE_OUTER_BOUND( '', #174, .T. );
#123 = CYLINDRICAL_SURFACE( '', #175, 7.20000000000000 );
#124 = PRODUCT_CONTEXT( '', #23, 'mechanical' );
#125 = PRODUCT_DEFINITION_FORMATION_WITH_SPECIFIED_SOURCE( ' ', 'NONE', #62, .NOT_KNOWN. );
#126 = CLOSED_SHELL( '', ( #37, #43, #39, #47, #53, #61, #59, #49, #57, #45, #41, #51, #55 ) );
#127 = CARTESIAN_POINT( '', ( 0.000000000000000, 0.000000000000000, 0.000000000000000 ) );
#128 = DIRECTION( '', ( 0.000000000000000, 0.000000000000000, 1.00000000000000 ) );
#129 = DIRECTION( '', ( 1.00000000000000, 0.000000000000000, 0.000000000000000 ) );
#130 =  ( LENGTH_UNIT(  )NAMED_UNIT( #71 )SI_UNIT( .MILLI., .METRE. ) );
#131 = SURFACE_SIDE_STYLE( '', ( #177 ) );
#132 = EDGE_LOOP( '', ( #178, #179, #180, #181, #182, #183 ) );
#133 = AXIS2_PLACEMENT_3D( '', #184, #185, #186 );
#134 = SURFACE_SIDE_STYLE( '', ( #187 ) );
#135 = VERTEX_LOOP( '', #188 );
#136 = EDGE_LOOP( '', ( #189 ) );
#137 = AXIS2_PLACEMENT_3D( '', #190, #191, #192 );
#138 = SURFACE_SIDE_STYLE( '', ( #193 ) );
#139 = EDGE_LOOP( '', ( #194, #195, #196, #197 ) );
#140 = AXIS2_PLACEMENT_3D( '', #198, #199, #200 );
#141 = SURFACE_SIDE_STYLE( '', ( #201 ) );
#142 = EDGE_LOOP( '', ( #202, #203, #204, #205, #206, #207 ) );
#143 = AXIS2_PLACEMENT_3D( '', #208, #209, #210 );
#144 = SURFACE_SIDE_STYLE( '', ( #211 ) );
#145 = EDGE_LOOP( '', ( #212, #213 ) );
#146 = AXIS2_PLACEMENT_3D( '', #214, #215, #216 );
#147 = SURFACE_SIDE_STYLE( '', ( #217 ) );
#148 = EDGE_LOOP( '', ( #218 ) );
#149 = EDGE_LOOP( '', ( #219 ) );
#150 = AXIS2_PLACEMENT_3D( '', #220, #221, #222 );
#151 = SURFACE_SIDE_STYLE( '', ( #223 ) );
#152 = EDGE_LOOP( '', ( #224 ) );
#153 = EDGE_LOOP( '', ( #225, #226, #227, #228, #229, #230, #231, #232 ) );
#154 = AXIS2_PLACEMENT_3D( '', #233, #234, #235 );
#155 = SURFACE_SIDE_STYLE( '', ( #236 ) );
#156 = EDGE_LOOP( '', ( #237, #238 ) );
#157 = AXIS2_PLACEMENT_3D( '', #239, #240, #241 );
#158 = SURFACE_SIDE_STYLE( '', ( #242 ) );
#159 = EDGE_LOOP( '', ( #243 ) );
#160 = EDGE_LOOP( '', ( #244 ) );
#161 = AXIS2_PLACEMENT_3D( '', #245, #246, #247 );
#162 = SURFACE_SIDE_STYLE( '', ( #248 ) );
#163 = EDGE_LOOP( '', ( #249, #250, #251, #252 ) );
#164 = AXIS2_PLACEMENT_3D( '', #253, #254, #255 );
#165 = SURFACE_SIDE_STYLE( '', ( #256 ) );
#166 = EDGE_LOOP( '', ( #257, #258, #259, #260 ) );
#167 = AXIS2_PLACEMENT_3D( '', #261, #262, #263 );
#168 = SURFACE_SIDE_STYLE( '', ( #264 ) );
#169 = EDGE_LOOP( '', ( #265 ) );
#170 = EDGE_LOOP( '', ( #266 ) );
#171 = AXIS2_PLACEMENT_3D( '', #267, #268, #269 );
#172 = SURFACE_SIDE_STYLE( '', ( #270 ) );
#173 = EDGE_LOOP( '', ( #271 ) );
#174 = EDGE_LOOP( '', ( #272 ) );
#175 = AXIS2_PLACEMENT_3D( '', #273, #274, #275 );
#177 = SURFACE_STYLE_FILL_AREA( #276 );
#178 = ORIENTED_EDGE( '', *, *, #277, .F. );
#179 = ORIENTED_EDGE( '', *, *, #278, .T. );
#180 = ORIENTED_EDGE( '', *, *, #279, .F. );
#181 = ORIENTED_EDGE( '', *, *, #280, .F. );
#182 = ORIENTED_EDGE( '', *, *, #281, .F. );
#183 = ORIENTED_EDGE( '', *, *, #282, .F. );
#184 = CARTESIAN_POINT( '', ( 3.00000000000000, 0.900000000000018, 10.5000000000000 ) );
#185 = DIRECTION( '', ( 0.000000000000000, 1.00000000000000, 0.000000000000000 ) );
#186 = DIRECTION( '', ( 0.000000000000000, -0.000000000000000, 1.00000000000000 ) );
#187 = SURFACE_STYLE_FILL_AREA( #283 );
#188 = VERTEX_POINT( '', #284 );
#189 = ORIENTED_EDGE( '', *, *, #285, .T. );
#190 = CARTESIAN_POINT( '', ( 137.000150000000, -1.04950770296597E-13, 0.000000000000000 ) );
#191 = DIRECTION( '', ( 1.00000000000000, 0.000000000000000, 0.000000000000000 ) );
#192 = DIRECTION( '', ( 0.000000000000000, 1.00000000000000, 0.000000000000000 ) );
#193 = SURFACE_STYLE_FILL_AREA( #286 );
#194 = ORIENTED_EDGE( '', *, *, #287, .F. );
#195 = ORIENTED_EDGE( '', *, *, #288, .T. );
#196 = ORIENTED_EDGE( '', *, *, #289, .T. );
#197 = ORIENTED_EDGE( '', *, *, #290, .T. );
#198 = CARTESIAN_POINT( '', ( 0.000000000000000, 1.80666351906064E-14, 0.000000000000000 ) );
#199 = DIRECTION( '', ( 1.00000000000000, -6.12323399573677E-17, -0.000000000000000 ) );
#200 = DIRECTION( '', ( 6.12323399573677E-17, 1.00000000000000, 0.000000000000000 ) );
#201 = SURFACE_STYLE_FILL_AREA( #291 );
#202 = ORIENTED_EDGE( '', *, *, #292, .T. );
#203 = ORIENTED_EDGE( '', *, *, #288, .F. );
#204 = ORIENTED_EDGE( '', *, *, #293, .F. );
#205 = ORIENTED_EDGE( '', *, *, #294, .F. );
#206 = ORIENTED_EDGE( '', *, *, #295, .F. );
#207 = ORIENTED_EDGE( '', *, *, #290, .F. );
#208 = CARTESIAN_POINT( '', ( 3.00000000000000, -0.899999999999982, -10.5000000000000 ) );
#209 = DIRECTION( '', ( 0.000000000000000, -1.00000000000000, 0.000000000000000 ) );
#210 = DIRECTION( '', ( 0.000000000000000, 0.000000000000000, -1.00000000000000 ) );
#211 = SURFACE_STYLE_FILL_AREA( #296 );
#212 = ORIENTED_EDGE( '', *, *, #289, .F. );
#213 = ORIENTED_EDGE( '', *, *, #292, .F. );
#214 = CARTESIAN_POINT( '', ( -2.59211803124527E-16, 1.80666351906064E-14, 0.000000000000000 ) );
#215 = DIRECTION( '', ( 1.00000000000000, -6.12323399573677E-17, -0.000000000000000 ) );
#216 = DIRECTION( '', ( 6.12323399573677E-17, 1.00000000000000, 0.000000000000000 ) );
#217 = SURFACE_STYLE_FILL_AREA( #297 );
#218 = ORIENTED_EDGE( '', *, *, #285, .F. );
#219 = ORIENTED_EDGE( '', *, *, #298, .T. );
#220 = CARTESIAN_POINT( '', ( 150.000000000000, 8.88178419700125E-15, 0.000000000000000 ) );
#221 = DIRECTION( '', ( -1.00000000000000, 6.12323399573677E-17, 0.000000000000000 ) );
#222 = DIRECTION( '', ( 6.12323399573677E-17, 1.00000000000000, 0.000000000000000 ) );
#223 = SURFACE_STYLE_FILL_AREA( #299 );
#224 = ORIENTED_EDGE( '', *, *, #300, .F. );
#225 = ORIENTED_EDGE( '', *, *, #287, .T. );
#226 = ORIENTED_EDGE( '', *, *, #295, .T. );
#227 = ORIENTED_EDGE( '', *, *, #301, .F. );
#228 = ORIENTED_EDGE( '', *, *, #280, .T. );
#229 = ORIENTED_EDGE( '', *, *, #302, .T. );
#230 = ORIENTED_EDGE( '', *, *, #282, .T. );
#231 = ORIENTED_EDGE( '', *, *, #303, .F. );
#232 = ORIENTED_EDGE( '', *, *, #293, .T. );
#233 = CARTESIAN_POINT( '', ( 150.000000000000, 8.88178419700125E-15, 0.000000000000000 ) );
#234 = DIRECTION( '', ( -1.00000000000000, 6.12323399573677E-17, 0.000000000000000 ) );
#235 = DIRECTION( '', ( 6.12323399573677E-17, 1.00000000000000, 0.000000000000000 ) );
#236 = SURFACE_STYLE_FILL_AREA( #304 );
#237 = ORIENTED_EDGE( '', *, *, #305, .F. );
#238 = ORIENTED_EDGE( '', *, *, #278, .F. );
#239 = CARTESIAN_POINT( '', ( -2.59211803124527E-16, 1.80666351906064E-14, 0.000000000000000 ) );
#240 = DIRECTION( '', ( 1.00000000000000, -6.12323399573677E-17, -0.000000000000000 ) );
#241 = DIRECTION( '', ( 6.12323399573677E-17, 1.00000000000000, 0.000000000000000 ) );
#242 = SURFACE_STYLE_FILL_AREA( #306 );
#243 = ORIENTED_EDGE( '', *, *, #298, .F. );
#244 = ORIENTED_EDGE( '', *, *, #307, .T. );
#245 = CARTESIAN_POINT( '', ( 144.500000000000, 7.20000000000001, 0.000000000000000 ) );
#246 = DIRECTION( '', ( 1.00000000000000, -6.12323399573677E-17, -0.000000000000000 ) );
#247 = DIRECTION( '', ( 6.12323399573677E-17, 1.00000000000000, 0.000000000000000 ) );
#248 = SURFACE_STYLE_FILL_AREA( #308 );
#249 = ORIENTED_EDGE( '', *, *, #301, .T. );
#250 = ORIENTED_EDGE( '', *, *, #294, .T. );
#251 = ORIENTED_EDGE( '', *, *, #303, .T. );
#252 = ORIENTED_EDGE( '', *, *, #281, .T. );
#253 = CARTESIAN_POINT( '', ( 3.00000000000000, 0.000000000000000, 0.000000000000000 ) );
#254 = DIRECTION( '', ( -1.00000000000000, 0.000000000000000, 0.000000000000000 ) );
#255 = DIRECTION( '', ( 0.000000000000000, 0.000000000000000, 1.00000000000000 ) );
#256 = SURFACE_STYLE_FILL_AREA( #309 );
#257 = ORIENTED_EDGE( '', *, *, #305, .T. );
#258 = ORIENTED_EDGE( '', *, *, #277, .T. );
#259 = ORIENTED_EDGE( '', *, *, #302, .F. );
#260 = ORIENTED_EDGE( '', *, *, #279, .T. );
#261 = CARTESIAN_POINT( '', ( 0.000000000000000, 1.80666351906064E-14, 0.000000000000000 ) );
#262 = DIRECTION( '', ( 1.00000000000000, -6.12323399573677E-17, -0.000000000000000 ) );
#263 = DIRECTION( '', ( 6.12323399573677E-17, 1.00000000000000, 0.000000000000000 ) );
#264 = SURFACE_STYLE_FILL_AREA( #310 );
#265 = ORIENTED_EDGE( '', *, *, #311, .F. );
#266 = ORIENTED_EDGE( '', *, *, #300, .T. );
#267 = CARTESIAN_POINT( '', ( 136.000000000000, 9.73903695640440E-15, 0.000000000000000 ) );
#268 = DIRECTION( '', ( -1.00000000000000, 6.12323399573677E-17, -0.000000000000000 ) );
#269 = DIRECTION( '', ( -6.12323399573677E-17, -1.00000000000000, 0.000000000000000 ) );
#270 = SURFACE_STYLE_FILL_AREA( #312 );
#271 = ORIENTED_EDGE( '', *, *, #307, .F. );
#272 = ORIENTED_EDGE( '', *, *, #311, .T. );
#273 = CARTESIAN_POINT( '', ( 150.000000000000, 8.88178419700125E-15, 0.000000000000000 ) );
#274 = DIRECTION( '', ( -1.00000000000000, 6.12323399573676E-17, 0.000000000000000 ) );
#275 = DIRECTION( '', ( 6.12323399573676E-17, 1.00000000000000, 0.000000000000000 ) );
#276 = FILL_AREA_STYLE( '', ( #313 ) );
#277 = EDGE_CURVE( '', #314, #315, #316, .T. );
#278 = EDGE_CURVE( '', #314, #317, #318, .T. );
#279 = EDGE_CURVE( '', #319, #317, #320, .T. );
#280 = EDGE_CURVE( '', #321, #319, #322, .F. );
#281 = EDGE_CURVE( '', #323, #321, #324, .T. );
#282 = EDGE_CURVE( '', #315, #323, #325, .T. );
#283 = FILL_AREA_STYLE( '', ( #326 ) );
#284 = CARTESIAN_POINT( '', ( 150.000000000000, -1.04950770296597E-13, 0.000000000000000 ) );
#285 = EDGE_CURVE( '', #327, #327, #328, .T. );
#286 = FILL_AREA_STYLE( '', ( #329 ) );
#287 = EDGE_CURVE( '', #330, #331, #332, .T. );
#288 = EDGE_CURVE( '', #330, #333, #334, .T. );
#289 = EDGE_CURVE( '', #333, #335, #336, .T. );
#290 = EDGE_CURVE( '', #335, #331, #337, .T. );
#291 = FILL_AREA_STYLE( '', ( #338 ) );
#292 = EDGE_CURVE( '', #335, #333, #339, .T. );
#293 = EDGE_CURVE( '', #340, #330, #341, .F. );
#294 = EDGE_CURVE( '', #342, #340, #343, .T. );
#295 = EDGE_CURVE( '', #331, #342, #344, .T. );
#296 = FILL_AREA_STYLE( '', ( #345 ) );
#297 = FILL_AREA_STYLE( '', ( #346 ) );
#298 = EDGE_CURVE( '', #347, #347, #348, .T. );
#299 = FILL_AREA_STYLE( '', ( #349 ) );
#300 = EDGE_CURVE( '', #350, #350, #351, .T. );
#301 = EDGE_CURVE( '', #321, #342, #352, .T. );
#302 = EDGE_CURVE( '', #319, #315, #353, .T. );
#303 = EDGE_CURVE( '', #340, #323, #354, .T. );
#304 = FILL_AREA_STYLE( '', ( #355 ) );
#305 = EDGE_CURVE( '', #317, #314, #356, .T. );
#306 = FILL_AREA_STYLE( '', ( #357 ) );
#307 = EDGE_CURVE( '', #358, #358, #359, .T. );
#308 = FILL_AREA_STYLE( '', ( #360 ) );
#309 = FILL_AREA_STYLE( '', ( #361 ) );
#310 = FILL_AREA_STYLE( '', ( #362 ) );
#311 = EDGE_CURVE( '', #363, #363, #364, .T. );
#312 = FILL_AREA_STYLE( '', ( #365 ) );
#313 = FILL_AREA_STYLE_COLOUR( '', #366 );
#314 = VERTEX_POINT( '', #367 );
#315 = VERTEX_POINT( '', #368 );
#316 = B_SPLINE_CURVE_WITH_KNOTS( '', 3, ( #369, #370, #371, #372 ), .UNSPECIFIED., .F., .F., ( 4, 4 ), ( 0.0420335464893133, 0.0442124251860489 ), .UNSPECIFIED. );
#317 = VERTEX_POINT( '', #373 );
#318 = LINE( '', #374, #375 );
#319 = VERTEX_POINT( '', #376 );
#320 = B_SPLINE_CURVE_WITH_KNOTS( '', 3, ( #377, #378, #379, #380 ), .UNSPECIFIED., .F., .F., ( 4, 4 ), ( 0.0170363399290314, 0.0192102676191475 ), .UNSPECIFIED. );
#321 = VERTEX_POINT( '', #381 );
#322 = LINE( '', #382, #383 );
#323 = VERTEX_POINT( '', #384 );
#324 = LINE( '', #385, #386 );
#325 = LINE( '', #387, #388 );
#326 = FILL_AREA_STYLE_COLOUR( '', #389 );
#327 = VERTEX_POINT( '', #390 );
#328 = CIRCLE( '', #391, 7.75000000000000 );
#329 = FILL_AREA_STYLE_COLOUR( '', #392 );
#330 = VERTEX_POINT( '', #393 );
#331 = VERTEX_POINT( '', #394 );
#332 = CIRCLE( '', #395, 10.0000000000000 );
#333 = VERTEX_POINT( '', #396 );
#334 = B_SPLINE_CURVE_WITH_KNOTS( '', 3, ( #397, #398, #399, #400 ), .UNSPECIFIED., .F., .F., ( 4, 4 ), ( 0.0170363399290314, 0.0192102676191475 ), .UNSPECIFIED. );
#335 = VERTEX_POINT( '', #401 );
#336 = CIRCLE( '', #402, 8.46650000000000 );
#337 = B_SPLINE_CURVE_WITH_KNOTS( '', 3, ( #403, #404, #405, #406 ), .UNSPECIFIED., .F., .F., ( 4, 4 ), ( 0.0420335464893133, 0.0442124251860489 ), .UNSPECIFIED. );
#338 = FILL_AREA_STYLE_COLOUR( '', #407 );
#339 = LINE( '', #408, #409 );
#340 = VERTEX_POINT( '', #410 );
#341 = LINE( '', #411, #412 );
#342 = VERTEX_POINT( '', #413 );
#343 = LINE( '', #414, #415 );
#344 = LINE( '', #416, #417 );
#345 = FILL_AREA_STYLE_COLOUR( '', #418 );
#346 = FILL_AREA_STYLE_COLOUR( '', #419 );
#347 = VERTEX_POINT( '', #420 );
#348 = CIRCLE( '', #421, 7.75000000000000 );
#349 = FILL_AREA_STYLE_COLOUR( '', #422 );
#350 = VERTEX_POINT( '', #423 );
#351 = CIRCLE( '', #424, 10.0000000000000 );
#352 = CIRCLE( '', #425, 10.0000000000000 );
#353 = CIRCLE( '', #426, 10.0000000000000 );
#354 = CIRCLE( '', #427, 10.0000000000000 );
#355 = FILL_AREA_STYLE_COLOUR( '', #428 );
#356 = CIRCLE( '', #429, 8.46650000000000 );
#357 = FILL_AREA_STYLE_COLOUR( '', #430 );
#358 = VERTEX_POINT( '', #431 );
#359 = CIRCLE( '', #432, 7.20000000000000 );
#360 = FILL_AREA_STYLE_COLOUR( '', #433 );
#361 = FILL_AREA_STYLE_COLOUR( '', #434 );
#362 = FILL_AREA_STYLE_COLOUR( '', #435 );
#363 = VERTEX_POINT( '', #436 );
#364 = CIRCLE( '', #437, 7.20000000000000 );
#365 = FILL_AREA_STYLE_COLOUR( '', #438 );
#366 = COLOUR_RGB( '', 0.689999997600000, 0.689999997600000, 0.689999997600000 );
#367 = CARTESIAN_POINT( '', ( 0.000000000000000, 0.900000000000018, 8.41852850859341 ) );
#368 = CARTESIAN_POINT( '', ( 1.53349999999999, 0.900000000000027, 9.95941765365827 ) );
#369 = CARTESIAN_POINT( '', ( -3.19226937863748E-15, 0.900000000000018, 8.41852850859341 ) );
#370 = CARTESIAN_POINT( '', ( 0.510941899449504, 0.900000000000018, 8.93238191982478 ) );
#371 = CARTESIAN_POINT( '', ( 1.02214318709474, 0.900000000000018, 9.44597717883550 ) );
#372 = CARTESIAN_POINT( '', ( 1.53349999999999, 0.900000000000018, 9.95941765365827 ) );
#373 = CARTESIAN_POINT( '', ( 0.000000000000000, 0.900000000000018, -8.41852850859341 ) );
#374 = CARTESIAN_POINT( '', ( 0.000000000000000, 0.900000000000018, 10.5000000000000 ) );
#375 = VECTOR( '', #439, 1000.00000000000 );
#376 = CARTESIAN_POINT( '', ( 1.53349999999999, 0.900000000000027, -9.95941765365827 ) );
#377 = CARTESIAN_POINT( '', ( 1.53349999999999, 0.900000000000018, -9.95941765365827 ) );
#378 = CARTESIAN_POINT( '', ( 1.02214317772920, 0.900000000000018, -9.44597716943180 ) );
#379 = CARTESIAN_POINT( '', ( 0.510941888387717, 0.900000000000018, -8.93238190869996 ) );
#380 = CARTESIAN_POINT( '', ( 2.56762404246564E-15, 0.900000000000018, -8.41852850859341 ) );
#381 = CARTESIAN_POINT( '', ( 3.00000000000000, 0.900000000000018, -9.95941765365827 ) );
#382 = CARTESIAN_POINT( '', ( 150.000000000000, 0.900000000000018, -9.95941765365827 ) );
#383 = VECTOR( '', #440, 1000.00000000000 );
#384 = CARTESIAN_POINT( '', ( 3.00000000000000, 0.900000000000018, 9.95941765365827 ) );
#385 = CARTESIAN_POINT( '', ( 3.00000000000000, 0.900000000000018, 10.5000000000000 ) );
#386 = VECTOR( '', #441, 1000.00000000000 );
#387 = CARTESIAN_POINT( '', ( 150.000000000000, 0.900000000000018, 9.95941765365827 ) );
#388 = VECTOR( '', #442, 1000.00000000000 );
#389 = COLOUR_RGB( '', 0.689999997600000, 0.689999997600000, 0.689999997600000 );
#390 = CARTESIAN_POINT( '', ( 147.437276042283, 7.75000000000001, 0.000000000000000 ) );
#391 = AXIS2_PLACEMENT_3D( '', #443, #444, #445 );
#392 = COLOUR_RGB( '', 0.689999997600000, 0.689999997600000, 0.689999997600000 );
#393 = CARTESIAN_POINT( '', ( 1.53349999999999, -0.899999999999973, 9.95941765365827 ) );
#394 = CARTESIAN_POINT( '', ( 1.53349999999999, -0.899999999999973, -9.95941765365827 ) );
#395 = AXIS2_PLACEMENT_3D( '', #446, #447, #448 );
#396 = CARTESIAN_POINT( '', ( 0.000000000000000, -0.899999999999982, 8.41852850859341 ) );
#397 = CARTESIAN_POINT( '', ( 1.53349999999999, -0.899999999999982, 9.95941765365827 ) );
#398 = CARTESIAN_POINT( '', ( 1.02214317772920, -0.899999999999982, 9.44597716943180 ) );
#399 = CARTESIAN_POINT( '', ( 0.510941888387714, -0.899999999999982, 8.93238190869996 ) );
#400 = CARTESIAN_POINT( '', ( -1.82745802236588E-15, -0.899999999999982, 8.41852850859341 ) );
#401 = CARTESIAN_POINT( '', ( 0.000000000000000, -0.899999999999982, -8.41852850859341 ) );
#402 = AXIS2_PLACEMENT_3D( '', #449, #450, #451 );
#403 = CARTESIAN_POINT( '', ( -3.03253684739619E-15, -0.899999999999982, -8.41852850859341 ) );
#404 = CARTESIAN_POINT( '', ( 0.510941899449505, -0.899999999999982, -8.93238191982478 ) );
#405 = CARTESIAN_POINT( '', ( 1.02214318709474, -0.899999999999982, -9.44597717883550 ) );
#406 = CARTESIAN_POINT( '', ( 1.53349999999999, -0.899999999999982, -9.95941765365827 ) );
#407 = COLOUR_RGB( '', 0.689999997600000, 0.689999997600000, 0.689999997600000 );
#408 = CARTESIAN_POINT( '', ( 0.000000000000000, -0.899999999999982, -10.5000000000000 ) );
#409 = VECTOR( '', #452, 1000.00000000000 );
#410 = CARTESIAN_POINT( '', ( 3.00000000000000, -0.899999999999982, 9.95941765365827 ) );
#411 = CARTESIAN_POINT( '', ( 150.000000000000, -0.899999999999982, 9.95941765365827 ) );
#412 = VECTOR( '', #453, 1000.00000000000 );
#413 = CARTESIAN_POINT( '', ( 3.00000000000000, -0.899999999999982, -9.95941765365827 ) );
#414 = CARTESIAN_POINT( '', ( 3.00000000000000, -0.899999999999982, -10.5000000000000 ) );
#415 = VECTOR( '', #454, 1000.00000000000 );
#416 = CARTESIAN_POINT( '', ( 150.000000000000, -0.899999999999982, -9.95941765365827 ) );
#417 = VECTOR( '', #455, 1000.00000000000 );
#418 = COLOUR_RGB( '', 0.689999997600000, 0.689999997600000, 0.689999997600000 );
#419 = COLOUR_RGB( '', 0.689999997600000, 0.689999997600000, 0.689999997600000 );
#420 = CARTESIAN_POINT( '', ( 144.500000000000, 7.75000000000001, 0.000000000000000 ) );
#421 = AXIS2_PLACEMENT_3D( '', #456, #457, #458 );
#422 = COLOUR_RGB( '', 0.689999997600000, 0.689999997600000, 0.689999997600000 );
#423 = CARTESIAN_POINT( '', ( 136.000000000000, 10.0000000000000, 0.000000000000000 ) );
#424 = AXIS2_PLACEMENT_3D( '', #459, #460, #461 );
#425 = AXIS2_PLACEMENT_3D( '', #462, #463, #464 );
#426 = AXIS2_PLACEMENT_3D( '', #465, #466, #467 );
#427 = AXIS2_PLACEMENT_3D( '', #468, #469, #470 );
#428 = COLOUR_RGB( '', 0.689999997600000, 0.689999997600000, 0.689999997600000 );
#429 = AXIS2_PLACEMENT_3D( '', #471, #472, #473 );
#430 = COLOUR_RGB( '', 0.689999997600000, 0.689999997600000, 0.689999997600000 );
#431 = CARTESIAN_POINT( '', ( 144.500000000000, 7.20000000000001, 0.000000000000000 ) );
#432 = AXIS2_PLACEMENT_3D( '', #474, #475, #476 );
#433 = COLOUR_RGB( '', 0.689999997600000, 0.689999997600000, 0.689999997600000 );
#434 = COLOUR_RGB( '', 0.689999997600000, 0.689999997600000, 0.689999997600000 );
#435 = COLOUR_RGB( '', 0.689999997600000, 0.689999997600000, 0.689999997600000 );
#436 = CARTESIAN_POINT( '', ( 137.347220000000, 7.20000000000001, 0.000000000000000 ) );
#437 = AXIS2_PLACEMENT_3D( '', #477, #478, #479 );
#438 = COLOUR_RGB( '', 0.689999997600000, 0.689999997600000, 0.689999997600000 );
#439 = DIRECTION( '', ( 0.000000000000000, 0.000000000000000, -1.00000000000000 ) );
#440 = DIRECTION( '', ( 1.00000000000000, -6.12323399573677E-17, -0.000000000000000 ) );
#441 = DIRECTION( '', ( 0.000000000000000, 0.000000000000000, -1.00000000000000 ) );
#442 = DIRECTION( '', ( 1.00000000000000, -6.12323399573677E-17, -0.000000000000000 ) );
#443 = CARTESIAN_POINT( '', ( 147.437276042283, 9.03870578159707E-15, 0.000000000000000 ) );
#444 = DIRECTION( '', ( 1.00000000000000, -6.12323399573677E-17, -0.000000000000000 ) );
#445 = DIRECTION( '', ( 6.12323399573677E-17, 1.00000000000000, 0.000000000000000 ) );
#446 = CARTESIAN_POINT( '', ( 1.53349999999999, 1.79727353972818E-14, 0.000000000000000 ) );
#447 = DIRECTION( '', ( 1.00000000000000, -6.12323399573677E-17, -0.000000000000000 ) );
#448 = DIRECTION( '', ( 6.12323399573677E-17, 1.00000000000000, 0.000000000000000 ) );
#449 = CARTESIAN_POINT( '', ( 0.000000000000000, 1.80666351906064E-14, 0.000000000000000 ) );
#450 = DIRECTION( '', ( 1.00000000000000, -6.12323399573677E-17, -0.000000000000000 ) );
#451 = DIRECTION( '', ( 6.12323399573677E-17, 1.00000000000000, 0.000000000000000 ) );
#452 = DIRECTION( '', ( 0.000000000000000, 0.000000000000000, 1.00000000000000 ) );
#453 = DIRECTION( '', ( 1.00000000000000, -6.12323399573677E-17, -0.000000000000000 ) );
#454 = DIRECTION( '', ( 0.000000000000000, 0.000000000000000, 1.00000000000000 ) );
#455 = DIRECTION( '', ( 1.00000000000000, -6.12323399573677E-17, -0.000000000000000 ) );
#456 = CARTESIAN_POINT( '', ( 144.500000000000, 9.21856206676678E-15, 0.000000000000000 ) );
#457 = DIRECTION( '', ( 1.00000000000000, -6.12323399573677E-17, -0.000000000000000 ) );
#458 = DIRECTION( '', ( 6.12323399573677E-17, 1.00000000000000, 0.000000000000000 ) );
#459 = CARTESIAN_POINT( '', ( 136.000000000000, 9.73903695640440E-15, 0.000000000000000 ) );
#460 = DIRECTION( '', ( 1.00000000000000, -6.12323399573677E-17, -0.000000000000000 ) );
#461 = DIRECTION( '', ( 6.12323399573677E-17, 1.00000000000000, 0.000000000000000 ) );
#462 = CARTESIAN_POINT( '', ( 3.00000000000000, 1.78829381707343E-14, 0.000000000000000 ) );
#463 = DIRECTION( '', ( -1.00000000000000, 0.000000000000000, 0.000000000000000 ) );
#464 = DIRECTION( '', ( 0.000000000000000, 0.000000000000000, 1.00000000000000 ) );
#465 = CARTESIAN_POINT( '', ( 1.53349999999999, 1.79727353972818E-14, 0.000000000000000 ) );
#466 = DIRECTION( '', ( 1.00000000000000, -6.12323399573677E-17, -0.000000000000000 ) );
#467 = DIRECTION( '', ( 6.12323399573677E-17, 1.00000000000000, 0.000000000000000 ) );
#468 = CARTESIAN_POINT( '', ( 3.00000000000000, 1.78829381707343E-14, 0.000000000000000 ) );
#469 = DIRECTION( '', ( -1.00000000000000, 0.000000000000000, 0.000000000000000 ) );
#470 = DIRECTION( '', ( 0.000000000000000, 0.000000000000000, 1.00000000000000 ) );
#471 = CARTESIAN_POINT( '', ( 0.000000000000000, 1.80666351906064E-14, 0.000000000000000 ) );
#472 = DIRECTION( '', ( 1.00000000000000, -6.12323399573677E-17, -0.000000000000000 ) );
#473 = DIRECTION( '', ( 6.12323399573677E-17, 1.00000000000000, 0.000000000000000 ) );
#474 = CARTESIAN_POINT( '', ( 144.500000000000, 9.21856206676678E-15, 0.000000000000000 ) );
#475 = DIRECTION( '', ( 1.00000000000000, -6.12323399573677E-17, -0.000000000000000 ) );
#476 = DIRECTION( '', ( 6.12323399573677E-17, 1.00000000000000, 0.000000000000000 ) );
#477 = CARTESIAN_POINT( '', ( 137.347220000000, 9.65654352336703E-15, 0.000000000000000 ) );
#478 = DIRECTION( '', ( 1.00000000000000, -6.12323399573676E-17, -0.000000000000000 ) );
#479 = DIRECTION( '', ( 6.12323399573676E-17, 1.00000000000000, 0.000000000000000 ) );
ENDSEC;
END-ISO-10303-21;
