ISO-10303-21;
HEADER;
FILE_DESCRIPTION( ( 'STEP AP214' ), '1' );
FILE_NAME( '//goodhand-server/Shared Folders/GoodHand Data/Kipp CAD/K0714/K0714.13.stp', '2020-12-09T12:40:41', ( '' ), ( '' ), ' ', 'PARTsolutions', ' ' );
FILE_SCHEMA( ( 'AUTOMOTIVE_DESIGN { 1 0 10303 214 1 1 1 1 }' ) );
ENDSEC;
DATA;
#1 = MECHANICAL_DESIGN_GEOMETRIC_PRESENTATION_REPRESENTATION( ' ', ( #10, #11, #12, #13, #14, #15, #16, #17, #18, #19, #20, #21 ), #6 );
#2 = PRODUCT_DEFINITION_CONTEXT( '', #22, 'design' );
#3 = APPLICATION_PROTOCOL_DEFINITION( 'international standard', 'automotive_design', 2001, #22 );
#4 = PRODUCT_CATEGORY_RELATIONSHIP( 'NONE', 'NONE', #23, #24 );
#5 = SHAPE_DEFINITION_REPRESENTATION( #25, #26 );
#6 =  ( GEOMETRIC_REPRESENTATION_CONTEXT( 3 )GLOBAL_UNCERTAINTY_ASSIGNED_CONTEXT( ( #29 ) )GLOBAL_UNIT_ASSIGNED_CONTEXT( ( #31, #32, #33 ) )REPRESENTATION_CONTEXT( 'NONE', 'WORKSPACE' ) );
#10 = STYLED_ITEM( '', ( #35 ), #36 );
#11 = STYLED_ITEM( '', ( #37 ), #38 );
#12 = STYLED_ITEM( '', ( #39 ), #40 );
#13 = STYLED_ITEM( '', ( #41 ), #42 );
#14 = STYLED_ITEM( '', ( #43 ), #44 );
#15 = STYLED_ITEM( '', ( #45 ), #46 );
#16 = STYLED_ITEM( '', ( #47 ), #48 );
#17 = STYLED_ITEM( '', ( #49 ), #50 );
#18 = STYLED_ITEM( '', ( #51 ), #52 );
#19 = STYLED_ITEM( '', ( #53 ), #54 );
#20 = STYLED_ITEM( '', ( #55 ), #56 );
#21 = STYLED_ITEM( '', ( #57 ), #58 );
#22 = APPLICATION_CONTEXT( 'core data for automotive mechanical design processes' );
#23 = PRODUCT_CATEGORY( 'part', 'NONE' );
#24 = PRODUCT_RELATED_PRODUCT_CATEGORY( 'detail', ' ', ( #59 ) );
#25 = PRODUCT_DEFINITION_SHAPE( 'NONE', 'NONE', #60 );
#26 = ADVANCED_BREP_SHAPE_REPRESENTATION( '_K0714.13', ( #61, #62 ), #6 );
#29 = UNCERTAINTY_MEASURE_WITH_UNIT( LENGTH_MEASURE( 0.00100000000000000 ), #31, '', '' );
#31 =  ( CONVERSION_BASED_UNIT( 'MILLIMETRE', #65 )LENGTH_UNIT(  )NAMED_UNIT( #68 ) );
#32 =  ( NAMED_UNIT( #70 )PLANE_ANGLE_UNIT(  )SI_UNIT( $, .RADIAN. ) );
#33 =  ( NAMED_UNIT( #70 )SI_UNIT( $, .STERADIAN. )SOLID_ANGLE_UNIT(  ) );
#35 = PRESENTATION_STYLE_ASSIGNMENT( ( #76 ) );
#36 = ADVANCED_FACE( '', ( #77 ), #78, .F. );
#37 = PRESENTATION_STYLE_ASSIGNMENT( ( #79 ) );
#38 = ADVANCED_FACE( '', ( #80 ), #81, .F. );
#39 = PRESENTATION_STYLE_ASSIGNMENT( ( #82 ) );
#40 = ADVANCED_FACE( '', ( #83 ), #84, .T. );
#41 = PRESENTATION_STYLE_ASSIGNMENT( ( #85 ) );
#42 = ADVANCED_FACE( '', ( #86 ), #87, .F. );
#43 = PRESENTATION_STYLE_ASSIGNMENT( ( #88 ) );
#44 = ADVANCED_FACE( '', ( #89 ), #90, .F. );
#45 = PRESENTATION_STYLE_ASSIGNMENT( ( #91 ) );
#46 = ADVANCED_FACE( '', ( #92 ), #93, .F. );
#47 = PRESENTATION_STYLE_ASSIGNMENT( ( #94 ) );
#48 = ADVANCED_FACE( '', ( #95 ), #96, .F. );
#49 = PRESENTATION_STYLE_ASSIGNMENT( ( #97 ) );
#50 = ADVANCED_FACE( '', ( #98 ), #99, .T. );
#51 = PRESENTATION_STYLE_ASSIGNMENT( ( #100 ) );
#52 = ADVANCED_FACE( '', ( #101 ), #102, .F. );
#53 = PRESENTATION_STYLE_ASSIGNMENT( ( #103 ) );
#54 = ADVANCED_FACE( '', ( #104 ), #105, .T. );
#55 = PRESENTATION_STYLE_ASSIGNMENT( ( #106 ) );
#56 = ADVANCED_FACE( '', ( #107 ), #108, .T. );
#57 = PRESENTATION_STYLE_ASSIGNMENT( ( #109 ) );
#58 = ADVANCED_FACE( '', ( #110 ), #111, .F. );
#59 = PRODUCT( '_K0714.13', '_K0714.13', 'PART-_K0714.13-DESC', ( #112 ) );
#60 = PRODUCT_DEFINITION( 'NONE', 'NONE', #113, #2 );
#61 = MANIFOLD_SOLID_BREP( '_K0714.13', #114 );
#62 = AXIS2_PLACEMENT_3D( '', #115, #116, #117 );
#65 = LENGTH_MEASURE_WITH_UNIT( LENGTH_MEASURE( 1.00000000000000 ), #118 );
#68 = DIMENSIONAL_EXPONENTS( 1.00000000000000, 0.000000000000000, 0.000000000000000, 0.000000000000000, 0.000000000000000, 0.000000000000000, 0.000000000000000 );
#70 = DIMENSIONAL_EXPONENTS( 0.000000000000000, 0.000000000000000, 0.000000000000000, 0.000000000000000, 0.000000000000000, 0.000000000000000, 0.000000000000000 );
#76 = SURFACE_STYLE_USAGE( .BOTH., #119 );
#77 = FACE_OUTER_BOUND( '', #120, .T. );
#78 = PLANE( '', #121 );
#79 = SURFACE_STYLE_USAGE( .BOTH., #122 );
#80 = FACE_OUTER_BOUND( '', #123, .T. );
#81 = PLANE( '', #124 );
#82 = SURFACE_STYLE_USAGE( .BOTH., #125 );
#83 = FACE_OUTER_BOUND( '', #126, .T. );
#84 = PLANE( '', #127 );
#85 = SURFACE_STYLE_USAGE( .BOTH., #128 );
#86 = FACE_OUTER_BOUND( '', #129, .T. );
#87 = PLANE( '', #130 );
#88 = SURFACE_STYLE_USAGE( .BOTH., #131 );
#89 = FACE_OUTER_BOUND( '', #132, .T. );
#90 = PLANE( '', #133 );
#91 = SURFACE_STYLE_USAGE( .BOTH., #134 );
#92 = FACE_OUTER_BOUND( '', #135, .T. );
#93 = PLANE( '', #136 );
#94 = SURFACE_STYLE_USAGE( .BOTH., #137 );
#95 = FACE_OUTER_BOUND( '', #138, .T. );
#96 = CYLINDRICAL_SURFACE( '', #139, 0.550000000000000 );
#97 = SURFACE_STYLE_USAGE( .BOTH., #140 );
#98 = FACE_OUTER_BOUND( '', #141, .T. );
#99 = CYLINDRICAL_SURFACE( '', #142, 6.05000000000000 );
#100 = SURFACE_STYLE_USAGE( .BOTH., #143 );
#101 = FACE_OUTER_BOUND( '', #144, .T. );
#102 = CYLINDRICAL_SURFACE( '', #145, 5.50000000000000 );
#103 = SURFACE_STYLE_USAGE( .BOTH., #146 );
#104 = FACE_OUTER_BOUND( '', #147, .T. );
#105 = CYLINDRICAL_SURFACE( '', #148, 1.10000000000000 );
#106 = SURFACE_STYLE_USAGE( .BOTH., #149 );
#107 = FACE_OUTER_BOUND( '', #150, .T. );
#108 = PLANE( '', #151 );
#109 = SURFACE_STYLE_USAGE( .BOTH., #152 );
#110 = FACE_OUTER_BOUND( '', #153, .T. );
#111 = PLANE( '', #154 );
#112 = PRODUCT_CONTEXT( '', #22, 'mechanical' );
#113 = PRODUCT_DEFINITION_FORMATION_WITH_SPECIFIED_SOURCE( ' ', 'NONE', #59, .NOT_KNOWN. );
#114 = CLOSED_SHELL( '', ( #38, #40, #42, #44, #46, #36, #56, #48, #50, #58, #52, #54 ) );
#115 = CARTESIAN_POINT( '', ( 0.000000000000000, 0.000000000000000, 0.000000000000000 ) );
#116 = DIRECTION( '', ( 0.000000000000000, 0.000000000000000, 1.00000000000000 ) );
#117 = DIRECTION( '', ( 1.00000000000000, 0.000000000000000, 0.000000000000000 ) );
#118 =  ( LENGTH_UNIT(  )NAMED_UNIT( #68 )SI_UNIT( .MILLI., .METRE. ) );
#119 = SURFACE_SIDE_STYLE( '', ( #156 ) );
#120 = EDGE_LOOP( '', ( #157, #158, #159, #160 ) );
#121 = AXIS2_PLACEMENT_3D( '', #161, #162, #163 );
#122 = SURFACE_SIDE_STYLE( '', ( #164 ) );
#123 = EDGE_LOOP( '', ( #165, #166, #167, #168 ) );
#124 = AXIS2_PLACEMENT_3D( '', #169, #170, #171 );
#125 = SURFACE_SIDE_STYLE( '', ( #172 ) );
#126 = EDGE_LOOP( '', ( #173, #174, #175, #176 ) );
#127 = AXIS2_PLACEMENT_3D( '', #177, #178, #179 );
#128 = SURFACE_SIDE_STYLE( '', ( #180 ) );
#129 = EDGE_LOOP( '', ( #181, #182, #183, #184, #185, #186, #187, #188 ) );
#130 = AXIS2_PLACEMENT_3D( '', #189, #190, #191 );
#131 = SURFACE_SIDE_STYLE( '', ( #192 ) );
#132 = EDGE_LOOP( '', ( #193, #194, #195, #196 ) );
#133 = AXIS2_PLACEMENT_3D( '', #197, #198, #199 );
#134 = SURFACE_SIDE_STYLE( '', ( #200 ) );
#135 = EDGE_LOOP( '', ( #201, #202, #203, #204 ) );
#136 = AXIS2_PLACEMENT_3D( '', #205, #206, #207 );
#137 = SURFACE_SIDE_STYLE( '', ( #208 ) );
#138 = EDGE_LOOP( '', ( #209, #210, #211, #212 ) );
#139 = AXIS2_PLACEMENT_3D( '', #213, #214, #215 );
#140 = SURFACE_SIDE_STYLE( '', ( #216 ) );
#141 = EDGE_LOOP( '', ( #217, #218, #219, #220, #221, #222 ) );
#142 = AXIS2_PLACEMENT_3D( '', #223, #224, #225 );
#143 = SURFACE_SIDE_STYLE( '', ( #226 ) );
#144 = EDGE_LOOP( '', ( #227, #228, #229, #230, #231, #232 ) );
#145 = AXIS2_PLACEMENT_3D( '', #233, #234, #235 );
#146 = SURFACE_SIDE_STYLE( '', ( #236 ) );
#147 = EDGE_LOOP( '', ( #237, #238, #239, #240 ) );
#148 = AXIS2_PLACEMENT_3D( '', #241, #242, #243 );
#149 = SURFACE_SIDE_STYLE( '', ( #244 ) );
#150 = EDGE_LOOP( '', ( #245, #246, #247, #248, #249, #250, #251, #252 ) );
#151 = AXIS2_PLACEMENT_3D( '', #253, #254, #255 );
#152 = SURFACE_SIDE_STYLE( '', ( #256 ) );
#153 = EDGE_LOOP( '', ( #257, #258, #259, #260 ) );
#154 = AXIS2_PLACEMENT_3D( '', #261, #262, #263 );
#156 = SURFACE_STYLE_FILL_AREA( #264 );
#157 = ORIENTED_EDGE( '', *, *, #265, .T. );
#158 = ORIENTED_EDGE( '', *, *, #266, .F. );
#159 = ORIENTED_EDGE( '', *, *, #267, .F. );
#160 = ORIENTED_EDGE( '', *, *, #268, .T. );
#161 = CARTESIAN_POINT( '', ( 0.550000000000000, -2.63770733782199, 6.60000000000000 ) );
#162 = DIRECTION( '', ( 0.000000000000000, 0.000000000000000, 1.00000000000000 ) );
#163 = DIRECTION( '', ( 1.00000000000000, 0.000000000000000, -0.000000000000000 ) );
#164 = SURFACE_STYLE_FILL_AREA( #269 );
#165 = ORIENTED_EDGE( '', *, *, #270, .T. );
#166 = ORIENTED_EDGE( '', *, *, #271, .F. );
#167 = ORIENTED_EDGE( '', *, *, #272, .F. );
#168 = ORIENTED_EDGE( '', *, *, #273, .T. );
#169 = CARTESIAN_POINT( '', ( 16.8000000000000, -2.53616009419697, -5.49275813927783 ) );
#170 = DIRECTION( '', ( 0.000000000000000, -0.866025403784439, 0.500000000000000 ) );
#171 = DIRECTION( '', ( 0.000000000000000, -0.500000000000000, -0.866025403784439 ) );
#172 = SURFACE_STYLE_FILL_AREA( #274 );
#173 = ORIENTED_EDGE( '', *, *, #275, .F. );
#174 = ORIENTED_EDGE( '', *, *, #276, .T. );
#175 = ORIENTED_EDGE( '', *, *, #277, .T. );
#176 = ORIENTED_EDGE( '', *, *, #272, .T. );
#177 = CARTESIAN_POINT( '', ( 16.8000000000000, 1.98192157130350E-13, 3.41740524767431E-13 ) );
#178 = DIRECTION( '', ( 1.00000000000000, 0.000000000000000, 0.000000000000000 ) );
#179 = DIRECTION( '', ( 0.000000000000000, 0.000000000000000, -1.00000000000000 ) );
#180 = SURFACE_STYLE_FILL_AREA( #278 );
#181 = ORIENTED_EDGE( '', *, *, #279, .F. );
#182 = ORIENTED_EDGE( '', *, *, #265, .F. );
#183 = ORIENTED_EDGE( '', *, *, #280, .T. );
#184 = ORIENTED_EDGE( '', *, *, #281, .F. );
#185 = ORIENTED_EDGE( '', *, *, #282, .F. );
#186 = ORIENTED_EDGE( '', *, *, #283, .T. );
#187 = ORIENTED_EDGE( '', *, *, #284, .F. );
#188 = ORIENTED_EDGE( '', *, *, #285, .F. );
#189 = CARTESIAN_POINT( '', ( 0.000000000000000, -2.63770733782200, 6.05000000000000 ) );
#190 = DIRECTION( '', ( 1.00000000000000, 0.000000000000000, 0.000000000000000 ) );
#191 = DIRECTION( '', ( 0.000000000000000, 0.000000000000000, -1.00000000000000 ) );
#192 = SURFACE_STYLE_FILL_AREA( #286 );
#193 = ORIENTED_EDGE( '', *, *, #279, .T. );
#194 = ORIENTED_EDGE( '', *, *, #287, .F. );
#195 = ORIENTED_EDGE( '', *, *, #288, .F. );
#196 = ORIENTED_EDGE( '', *, *, #266, .T. );
#197 = CARTESIAN_POINT( '', ( 0.550000000000000, -1.10000000000000, 6.60000000000000 ) );
#198 = DIRECTION( '', ( 0.000000000000000, -1.00000000000000, 7.88510670898550E-16 ) );
#199 = DIRECTION( '', ( 0.000000000000000, -7.88510670898550E-16, -1.00000000000000 ) );
#200 = SURFACE_STYLE_FILL_AREA( #289 );
#201 = ORIENTED_EDGE( '', *, *, #285, .T. );
#202 = ORIENTED_EDGE( '', *, *, #290, .F. );
#203 = ORIENTED_EDGE( '', *, *, #291, .F. );
#204 = ORIENTED_EDGE( '', *, *, #287, .T. );
#205 = CARTESIAN_POINT( '', ( 0.550000000000000, -1.10000000000000, 7.15000000000000 ) );
#206 = DIRECTION( '', ( 0.000000000000000, 0.000000000000000, -1.00000000000000 ) );
#207 = DIRECTION( '', ( -1.00000000000000, 0.000000000000000, 0.000000000000000 ) );
#208 = SURFACE_STYLE_FILL_AREA( #292 );
#209 = ORIENTED_EDGE( '', *, *, #280, .F. );
#210 = ORIENTED_EDGE( '', *, *, #268, .F. );
#211 = ORIENTED_EDGE( '', *, *, #293, .T. );
#212 = ORIENTED_EDGE( '', *, *, #294, .T. );
#213 = CARTESIAN_POINT( '', ( 0.550000000000000, -2.63770733782200, 6.05000000000000 ) );
#214 = DIRECTION( '', ( 1.00000000000000, -0.000000000000000, -0.000000000000000 ) );
#215 = DIRECTION( '', ( 0.000000000000000, 0.000000000000000, 1.00000000000000 ) );
#216 = SURFACE_STYLE_FILL_AREA( #295 );
#217 = ORIENTED_EDGE( '', *, *, #281, .T. );
#218 = ORIENTED_EDGE( '', *, *, #294, .F. );
#219 = ORIENTED_EDGE( '', *, *, #296, .F. );
#220 = ORIENTED_EDGE( '', *, *, #273, .F. );
#221 = ORIENTED_EDGE( '', *, *, #277, .F. );
#222 = ORIENTED_EDGE( '', *, *, #297, .T. );
#223 = CARTESIAN_POINT( '', ( 0.550000000000000, 6.50521303491303E-16, 8.67361737988404E-16 ) );
#224 = DIRECTION( '', ( 1.00000000000000, -0.000000000000000, -0.000000000000000 ) );
#225 = DIRECTION( '', ( 0.000000000000000, 0.000000000000000, 1.00000000000000 ) );
#226 = SURFACE_STYLE_FILL_AREA( #298 );
#227 = ORIENTED_EDGE( '', *, *, #283, .F. );
#228 = ORIENTED_EDGE( '', *, *, #299, .F. );
#229 = ORIENTED_EDGE( '', *, *, #275, .T. );
#230 = ORIENTED_EDGE( '', *, *, #271, .T. );
#231 = ORIENTED_EDGE( '', *, *, #300, .T. );
#232 = ORIENTED_EDGE( '', *, *, #301, .T. );
#233 = CARTESIAN_POINT( '', ( 0.550000000000000, -2.16840434497101E-15, 8.67361737988404E-16 ) );
#234 = DIRECTION( '', ( 1.00000000000000, -0.000000000000000, -0.000000000000000 ) );
#235 = DIRECTION( '', ( 0.000000000000000, 0.000000000000000, 1.00000000000000 ) );
#236 = SURFACE_STYLE_FILL_AREA( #302 );
#237 = ORIENTED_EDGE( '', *, *, #284, .T. );
#238 = ORIENTED_EDGE( '', *, *, #301, .F. );
#239 = ORIENTED_EDGE( '', *, *, #303, .F. );
#240 = ORIENTED_EDGE( '', *, *, #290, .T. );
#241 = CARTESIAN_POINT( '', ( 0.550000000000000, -2.63770733782200, 6.05000000000000 ) );
#242 = DIRECTION( '', ( 1.00000000000000, -0.000000000000000, -0.000000000000000 ) );
#243 = DIRECTION( '', ( 0.000000000000000, 0.000000000000000, 1.00000000000000 ) );
#244 = SURFACE_STYLE_FILL_AREA( #304 );
#245 = ORIENTED_EDGE( '', *, *, #270, .F. );
#246 = ORIENTED_EDGE( '', *, *, #296, .T. );
#247 = ORIENTED_EDGE( '', *, *, #293, .F. );
#248 = ORIENTED_EDGE( '', *, *, #267, .T. );
#249 = ORIENTED_EDGE( '', *, *, #288, .T. );
#250 = ORIENTED_EDGE( '', *, *, #291, .T. );
#251 = ORIENTED_EDGE( '', *, *, #303, .T. );
#252 = ORIENTED_EDGE( '', *, *, #300, .F. );
#253 = CARTESIAN_POINT( '', ( 0.550000000000000, -2.63770733782200, 6.05000000000000 ) );
#254 = DIRECTION( '', ( 1.00000000000000, 0.000000000000000, 0.000000000000000 ) );
#255 = DIRECTION( '', ( 0.000000000000000, 0.000000000000000, -1.00000000000000 ) );
#256 = SURFACE_STYLE_FILL_AREA( #305 );
#257 = ORIENTED_EDGE( '', *, *, #282, .T. );
#258 = ORIENTED_EDGE( '', *, *, #297, .F. );
#259 = ORIENTED_EDGE( '', *, *, #276, .F. );
#260 = ORIENTED_EDGE( '', *, *, #299, .T. );
#261 = CARTESIAN_POINT( '', ( 0.550000000000000, -2.75000000000000, -4.76313972081441 ) );
#262 = DIRECTION( '', ( 0.000000000000000, 0.866025403784441, -0.499999999999996 ) );
#263 = DIRECTION( '', ( 0.000000000000000, 0.499999999999996, 0.866025403784441 ) );
#264 = FILL_AREA_STYLE( '', ( #306 ) );
#265 = EDGE_CURVE( '', #307, #308, #309, .T. );
#266 = EDGE_CURVE( '', #310, #308, #311, .T. );
#267 = EDGE_CURVE( '', #312, #310, #313, .T. );
#268 = EDGE_CURVE( '', #312, #307, #314, .T. );
#269 = FILL_AREA_STYLE( '', ( #315 ) );
#270 = EDGE_CURVE( '', #316, #317, #318, .T. );
#271 = EDGE_CURVE( '', #319, #317, #320, .T. );
#272 = EDGE_CURVE( '', #321, #319, #322, .T. );
#273 = EDGE_CURVE( '', #321, #316, #323, .T. );
#274 = FILL_AREA_STYLE( '', ( #324 ) );
#275 = EDGE_CURVE( '', #325, #319, #326, .T. );
#276 = EDGE_CURVE( '', #325, #327, #328, .T. );
#277 = EDGE_CURVE( '', #327, #321, #329, .T. );
#278 = FILL_AREA_STYLE( '', ( #330 ) );
#279 = EDGE_CURVE( '', #308, #331, #332, .T. );
#280 = EDGE_CURVE( '', #307, #333, #334, .T. );
#281 = EDGE_CURVE( '', #335, #333, #336, .T. );
#282 = EDGE_CURVE( '', #337, #335, #338, .T. );
#283 = EDGE_CURVE( '', #337, #339, #340, .T. );
#284 = EDGE_CURVE( '', #341, #339, #342, .T. );
#285 = EDGE_CURVE( '', #331, #341, #343, .T. );
#286 = FILL_AREA_STYLE( '', ( #344 ) );
#287 = EDGE_CURVE( '', #345, #331, #346, .T. );
#288 = EDGE_CURVE( '', #310, #345, #347, .T. );
#289 = FILL_AREA_STYLE( '', ( #348 ) );
#290 = EDGE_CURVE( '', #349, #341, #350, .T. );
#291 = EDGE_CURVE( '', #345, #349, #351, .T. );
#292 = FILL_AREA_STYLE( '', ( #352 ) );
#293 = EDGE_CURVE( '', #312, #353, #354, .T. );
#294 = EDGE_CURVE( '', #353, #333, #355, .T. );
#295 = FILL_AREA_STYLE( '', ( #356 ) );
#296 = EDGE_CURVE( '', #316, #353, #357, .T. );
#297 = EDGE_CURVE( '', #327, #335, #358, .T. );
#298 = FILL_AREA_STYLE( '', ( #359 ) );
#299 = EDGE_CURVE( '', #325, #337, #360, .T. );
#300 = EDGE_CURVE( '', #317, #361, #362, .T. );
#301 = EDGE_CURVE( '', #361, #339, #363, .T. );
#302 = FILL_AREA_STYLE( '', ( #364 ) );
#303 = EDGE_CURVE( '', #349, #361, #365, .T. );
#304 = FILL_AREA_STYLE( '', ( #366 ) );
#305 = FILL_AREA_STYLE( '', ( #367 ) );
#306 = FILL_AREA_STYLE_COLOUR( '', #368 );
#307 = VERTEX_POINT( '', #369 );
#308 = VERTEX_POINT( '', #370 );
#309 = LINE( '', #371, #372 );
#310 = VERTEX_POINT( '', #373 );
#311 = LINE( '', #374, #375 );
#312 = VERTEX_POINT( '', #376 );
#313 = LINE( '', #377, #378 );
#314 = LINE( '', #379, #380 );
#315 = FILL_AREA_STYLE_COLOUR( '', #381 );
#316 = VERTEX_POINT( '', #382 );
#317 = VERTEX_POINT( '', #383 );
#318 = LINE( '', #384, #385 );
#319 = VERTEX_POINT( '', #386 );
#320 = LINE( '', #387, #388 );
#321 = VERTEX_POINT( '', #389 );
#322 = LINE( '', #390, #391 );
#323 = LINE( '', #392, #393 );
#324 = FILL_AREA_STYLE_COLOUR( '', #394 );
#325 = VERTEX_POINT( '', #395 );
#326 = CIRCLE( '', #396, 5.50000000000000 );
#327 = VERTEX_POINT( '', #397 );
#328 = LINE( '', #398, #399 );
#329 = CIRCLE( '', #400, 6.05000000000000 );
#330 = FILL_AREA_STYLE_COLOUR( '', #401 );
#331 = VERTEX_POINT( '', #402 );
#332 = LINE( '', #403, #404 );
#333 = VERTEX_POINT( '', #405 );
#334 = CIRCLE( '', #406, 0.550000000000000 );
#335 = VERTEX_POINT( '', #407 );
#336 = CIRCLE( '', #408, 6.05000000000000 );
#337 = VERTEX_POINT( '', #409 );
#338 = LINE( '', #410, #411 );
#339 = VERTEX_POINT( '', #412 );
#340 = CIRCLE( '', #413, 5.50000000000000 );
#341 = VERTEX_POINT( '', #414 );
#342 = CIRCLE( '', #415, 1.10000000000000 );
#343 = LINE( '', #416, #417 );
#344 = FILL_AREA_STYLE_COLOUR( '', #418 );
#345 = VERTEX_POINT( '', #419 );
#346 = LINE( '', #420, #421 );
#347 = LINE( '', #422, #423 );
#348 = FILL_AREA_STYLE_COLOUR( '', #424 );
#349 = VERTEX_POINT( '', #425 );
#350 = LINE( '', #426, #427 );
#351 = LINE( '', #428, #429 );
#352 = FILL_AREA_STYLE_COLOUR( '', #430 );
#353 = VERTEX_POINT( '', #431 );
#354 = CIRCLE( '', #432, 0.550000000000000 );
#355 = LINE( '', #433, #434 );
#356 = FILL_AREA_STYLE_COLOUR( '', #435 );
#357 = CIRCLE( '', #436, 6.05000000000000 );
#358 = LINE( '', #437, #438 );
#359 = FILL_AREA_STYLE_COLOUR( '', #439 );
#360 = LINE( '', #440, #441 );
#361 = VERTEX_POINT( '', #442 );
#362 = CIRCLE( '', #443, 5.50000000000000 );
#363 = LINE( '', #444, #445 );
#364 = FILL_AREA_STYLE_COLOUR( '', #446 );
#365 = CIRCLE( '', #447, 1.10000000000000 );
#366 = FILL_AREA_STYLE_COLOUR( '', #448 );
#367 = FILL_AREA_STYLE_COLOUR( '', #449 );
#368 = COLOUR_RGB( '', 0.689999997600000, 0.689999997600000, 0.689999997600000 );
#369 = CARTESIAN_POINT( '', ( 0.000000000000000, -2.63770733782199, 6.60000000000000 ) );
#370 = CARTESIAN_POINT( '', ( 0.000000000000000, -1.10000000000000, 6.60000000000000 ) );
#371 = CARTESIAN_POINT( '', ( 0.000000000000000, -2.63770733782199, 6.60000000000000 ) );
#372 = VECTOR( '', #450, 1000.00000000000 );
#373 = CARTESIAN_POINT( '', ( 0.550000000000000, -1.10000000000000, 6.60000000000000 ) );
#374 = CARTESIAN_POINT( '', ( 0.550000000000000, -1.10000000000000, 6.60000000000000 ) );
#375 = VECTOR( '', #451, 1000.00000000000 );
#376 = CARTESIAN_POINT( '', ( 0.550000000000000, -2.63770733782199, 6.60000000000000 ) );
#377 = CARTESIAN_POINT( '', ( 0.550000000000000, -2.63770733782199, 6.60000000000000 ) );
#378 = VECTOR( '', #452, 1000.00000000000 );
#379 = CARTESIAN_POINT( '', ( 0.550000000000000, -2.63770733782199, 6.60000000000000 ) );
#380 = VECTOR( '', #453, 1000.00000000000 );
#381 = COLOUR_RGB( '', 0.689999997600000, 0.689999997600000, 0.689999997600000 );
#382 = CARTESIAN_POINT( '', ( 0.550000000000000, -2.53616009419697, -5.49275813927783 ) );
#383 = CARTESIAN_POINT( '', ( 0.550000000000000, -2.25990147996176, -5.01426418339388 ) );
#384 = CARTESIAN_POINT( '', ( 0.550000000000000, -2.53616009419697, -5.49275813927783 ) );
#385 = VECTOR( '', #454, 1000.00000000000 );
#386 = CARTESIAN_POINT( '', ( 16.8000000000000, -2.25990147996176, -5.01426418339388 ) );
#387 = CARTESIAN_POINT( '', ( 16.8000000000000, -2.25990147996176, -5.01426418339388 ) );
#388 = VECTOR( '', #455, 1000.00000000000 );
#389 = CARTESIAN_POINT( '', ( 16.8000000000000, -2.53616009419697, -5.49275813927783 ) );
#390 = CARTESIAN_POINT( '', ( 16.8000000000000, -2.53616009419697, -5.49275813927783 ) );
#391 = VECTOR( '', #456, 1000.00000000000 );
#392 = CARTESIAN_POINT( '', ( 16.8000000000000, -2.53616009419697, -5.49275813927783 ) );
#393 = VECTOR( '', #457, 1000.00000000000 );
#394 = COLOUR_RGB( '', 0.689999997600000, 0.689999997600000, 0.689999997600000 );
#395 = CARTESIAN_POINT( '', ( 16.8000000000000, -2.75000000000000, -4.76313972081441 ) );
#396 = AXIS2_PLACEMENT_3D( '', #458, #459, #460 );
#397 = CARTESIAN_POINT( '', ( 16.8000000000000, -3.02500000000000, -5.23945369289585 ) );
#398 = CARTESIAN_POINT( '', ( 16.8000000000000, -2.75000000000000, -4.76313972081441 ) );
#399 = VECTOR( '', #461, 1000.00000000000 );
#400 = AXIS2_PLACEMENT_3D( '', #462, #463, #464 );
#401 = COLOUR_RGB( '', 0.689999997600000, 0.689999997600000, 0.689999997600000 );
#402 = CARTESIAN_POINT( '', ( 0.000000000000000, -1.10000000000000, 7.15000000000000 ) );
#403 = CARTESIAN_POINT( '', ( 0.000000000000000, -1.10000000000000, 6.60000000000000 ) );
#404 = VECTOR( '', #465, 1000.00000000000 );
#405 = CARTESIAN_POINT( '', ( 0.000000000000000, -2.41789839300349, 5.54583333333334 ) );
#406 = AXIS2_PLACEMENT_3D( '', #466, #467, #468 );
#407 = CARTESIAN_POINT( '', ( 0.000000000000000, -3.02500000000000, -5.23945369289585 ) );
#408 = AXIS2_PLACEMENT_3D( '', #469, #470, #471 );
#409 = CARTESIAN_POINT( '', ( 0.000000000000000, -2.75000000000000, -4.76313972081441 ) );
#410 = CARTESIAN_POINT( '', ( 0.000000000000000, -2.75000000000000, -4.76313972081441 ) );
#411 = VECTOR( '', #472, 1000.00000000000 );
#412 = CARTESIAN_POINT( '', ( 0.000000000000000, -2.19808944818500, 5.04166666666667 ) );
#413 = AXIS2_PLACEMENT_3D( '', #473, #474, #475 );
#414 = CARTESIAN_POINT( '', ( 0.000000000000000, -2.63770733782200, 7.15000000000000 ) );
#415 = AXIS2_PLACEMENT_3D( '', #476, #477, #478 );
#416 = CARTESIAN_POINT( '', ( 0.000000000000000, -1.10000000000000, 7.15000000000000 ) );
#417 = VECTOR( '', #479, 1000.00000000000 );
#418 = COLOUR_RGB( '', 0.689999997600000, 0.689999997600000, 0.689999997600000 );
#419 = CARTESIAN_POINT( '', ( 0.550000000000000, -1.10000000000000, 7.15000000000000 ) );
#420 = CARTESIAN_POINT( '', ( 0.550000000000000, -1.10000000000000, 7.15000000000000 ) );
#421 = VECTOR( '', #480, 1000.00000000000 );
#422 = CARTESIAN_POINT( '', ( 0.550000000000000, -1.10000000000000, 6.60000000000000 ) );
#423 = VECTOR( '', #481, 1000.00000000000 );
#424 = COLOUR_RGB( '', 0.689999997600000, 0.689999997600000, 0.689999997600000 );
#425 = CARTESIAN_POINT( '', ( 0.550000000000000, -2.63770733782200, 7.15000000000000 ) );
#426 = CARTESIAN_POINT( '', ( 0.550000000000000, -2.63770733782200, 7.15000000000000 ) );
#427 = VECTOR( '', #482, 1000.00000000000 );
#428 = CARTESIAN_POINT( '', ( 0.550000000000000, -1.10000000000000, 7.15000000000000 ) );
#429 = VECTOR( '', #483, 1000.00000000000 );
#430 = COLOUR_RGB( '', 0.689999997600000, 0.689999997600000, 0.689999997600000 );
#431 = CARTESIAN_POINT( '', ( 0.550000000000000, -2.41789839300349, 5.54583333333334 ) );
#432 = AXIS2_PLACEMENT_3D( '', #484, #485, #486 );
#433 = CARTESIAN_POINT( '', ( 0.550000000000000, -2.41789839300349, 5.54583333333334 ) );
#434 = VECTOR( '', #487, 1000.00000000000 );
#435 = COLOUR_RGB( '', 0.689999997600000, 0.689999997600000, 0.689999997600000 );
#436 = AXIS2_PLACEMENT_3D( '', #488, #489, #490 );
#437 = CARTESIAN_POINT( '', ( 0.550000000000000, -3.02500000000000, -5.23945369289585 ) );
#438 = VECTOR( '', #491, 1000.00000000000 );
#439 = COLOUR_RGB( '', 0.689999997600000, 0.689999997600000, 0.689999997600000 );
#440 = CARTESIAN_POINT( '', ( 0.550000000000000, -2.75000000000000, -4.76313972081441 ) );
#441 = VECTOR( '', #492, 1000.00000000000 );
#442 = CARTESIAN_POINT( '', ( 0.550000000000000, -2.19808944818500, 5.04166666666667 ) );
#443 = AXIS2_PLACEMENT_3D( '', #493, #494, #495 );
#444 = CARTESIAN_POINT( '', ( 0.550000000000000, -2.19808944818500, 5.04166666666667 ) );
#445 = VECTOR( '', #496, 1000.00000000000 );
#446 = COLOUR_RGB( '', 0.689999997600000, 0.689999997600000, 0.689999997600000 );
#447 = AXIS2_PLACEMENT_3D( '', #497, #498, #499 );
#448 = COLOUR_RGB( '', 0.689999997600000, 0.689999997600000, 0.689999997600000 );
#449 = COLOUR_RGB( '', 0.689999997600000, 0.689999997600000, 0.689999997600000 );
#450 = DIRECTION( '', ( 0.000000000000000, 1.00000000000000, 0.000000000000000 ) );
#451 = DIRECTION( '', ( -1.00000000000000, -0.000000000000000, -0.000000000000000 ) );
#452 = DIRECTION( '', ( 0.000000000000000, 1.00000000000000, 0.000000000000000 ) );
#453 = DIRECTION( '', ( -1.00000000000000, -0.000000000000000, -0.000000000000000 ) );
#454 = DIRECTION( '', ( 0.000000000000000, 0.500000000000000, 0.866025403784439 ) );
#455 = DIRECTION( '', ( -1.00000000000000, -0.000000000000000, -0.000000000000000 ) );
#456 = DIRECTION( '', ( 0.000000000000000, 0.500000000000000, 0.866025403784439 ) );
#457 = DIRECTION( '', ( -1.00000000000000, -0.000000000000000, -0.000000000000000 ) );
#458 = CARTESIAN_POINT( '', ( 16.8000000000000, 1.98192157130350E-13, 3.41740524767431E-13 ) );
#459 = DIRECTION( '', ( 1.00000000000000, 0.000000000000000, 0.000000000000000 ) );
#460 = DIRECTION( '', ( 0.000000000000000, 0.000000000000000, -1.00000000000000 ) );
#461 = DIRECTION( '', ( 0.000000000000000, -0.499999999999999, -0.866025403784439 ) );
#462 = CARTESIAN_POINT( '', ( 16.8000000000000, 3.12250225675825E-14, 4.25007251614318E-14 ) );
#463 = DIRECTION( '', ( 1.00000000000000, 0.000000000000000, 0.000000000000000 ) );
#464 = DIRECTION( '', ( 0.000000000000000, 0.000000000000000, -1.00000000000000 ) );
#465 = DIRECTION( '', ( 0.000000000000000, 7.88510670898550E-16, 1.00000000000000 ) );
#466 = CARTESIAN_POINT( '', ( 0.000000000000000, -2.63770733782200, 6.05000000000000 ) );
#467 = DIRECTION( '', ( 1.00000000000000, 0.000000000000000, 0.000000000000000 ) );
#468 = DIRECTION( '', ( 0.000000000000000, 0.000000000000000, -1.00000000000000 ) );
#469 = CARTESIAN_POINT( '', ( 0.000000000000000, 6.50521303491303E-16, 8.67361737988404E-16 ) );
#470 = DIRECTION( '', ( 1.00000000000000, 0.000000000000000, 0.000000000000000 ) );
#471 = DIRECTION( '', ( 0.000000000000000, 0.000000000000000, -1.00000000000000 ) );
#472 = DIRECTION( '', ( 0.000000000000000, -0.499999999999997, -0.866025403784441 ) );
#473 = CARTESIAN_POINT( '', ( 0.000000000000000, -2.16840434497101E-15, 8.67361737988404E-16 ) );
#474 = DIRECTION( '', ( 1.00000000000000, 0.000000000000000, 0.000000000000000 ) );
#475 = DIRECTION( '', ( 0.000000000000000, 0.000000000000000, -1.00000000000000 ) );
#476 = CARTESIAN_POINT( '', ( 0.000000000000000, -2.63770733782200, 6.05000000000000 ) );
#477 = DIRECTION( '', ( 1.00000000000000, 0.000000000000000, 0.000000000000000 ) );
#478 = DIRECTION( '', ( 0.000000000000000, 0.000000000000000, -1.00000000000000 ) );
#479 = DIRECTION( '', ( 0.000000000000000, -1.00000000000000, 0.000000000000000 ) );
#480 = DIRECTION( '', ( -1.00000000000000, -0.000000000000000, -0.000000000000000 ) );
#481 = DIRECTION( '', ( 0.000000000000000, 7.88510670898550E-16, 1.00000000000000 ) );
#482 = DIRECTION( '', ( -1.00000000000000, -0.000000000000000, -0.000000000000000 ) );
#483 = DIRECTION( '', ( 0.000000000000000, -1.00000000000000, 0.000000000000000 ) );
#484 = CARTESIAN_POINT( '', ( 0.550000000000000, -2.63770733782200, 6.05000000000000 ) );
#485 = DIRECTION( '', ( 1.00000000000000, 0.000000000000000, 0.000000000000000 ) );
#486 = DIRECTION( '', ( 0.000000000000000, 0.000000000000000, -1.00000000000000 ) );
#487 = DIRECTION( '', ( -1.00000000000000, -0.000000000000000, -0.000000000000000 ) );
#488 = CARTESIAN_POINT( '', ( 0.550000000000000, 6.50521303491303E-16, 8.67361737988404E-16 ) );
#489 = DIRECTION( '', ( 1.00000000000000, 0.000000000000000, 0.000000000000000 ) );
#490 = DIRECTION( '', ( 0.000000000000000, 0.000000000000000, -1.00000000000000 ) );
#491 = DIRECTION( '', ( -1.00000000000000, -0.000000000000000, -0.000000000000000 ) );
#492 = DIRECTION( '', ( -1.00000000000000, -0.000000000000000, -0.000000000000000 ) );
#493 = CARTESIAN_POINT( '', ( 0.550000000000000, -2.16840434497101E-15, 8.67361737988404E-16 ) );
#494 = DIRECTION( '', ( 1.00000000000000, 0.000000000000000, 0.000000000000000 ) );
#495 = DIRECTION( '', ( 0.000000000000000, 0.000000000000000, -1.00000000000000 ) );
#496 = DIRECTION( '', ( -1.00000000000000, -0.000000000000000, -0.000000000000000 ) );
#497 = CARTESIAN_POINT( '', ( 0.550000000000000, -2.63770733782200, 6.05000000000000 ) );
#498 = DIRECTION( '', ( 1.00000000000000, 0.000000000000000, 0.000000000000000 ) );
#499 = DIRECTION( '', ( 0.000000000000000, 0.000000000000000, -1.00000000000000 ) );
ENDSEC;
END-ISO-10303-21;
