ISO-10303-21;
HEADER;
FILE_DESCRIPTION( ( 'STEP AP214' ), '1' );
FILE_NAME( '//goodhand-server/Shared Folders/GoodHand Data/Kipp CAD/K0390/K0390.08X45.stp', '2020-12-07T10:14:21', ( '' ), ( '' ), ' ', 'PARTsolutions', ' ' );
FILE_SCHEMA( ( 'AUTOMOTIVE_DESIGN { 1 0 10303 214 1 1 1 1 }' ) );
ENDSEC;
DATA;
#1 = MECHANICAL_DESIGN_GEOMETRIC_PRESENTATION_REPRESENTATION( ' ', ( #10, #11, #12, #13, #14, #15, #16, #17, #18, #19, #20, #21, #22 ), #6 );
#2 = PRODUCT_DEFINITION_CONTEXT( '', #23, 'design' );
#3 = APPLICATION_PROTOCOL_DEFINITION( 'international standard', 'automotive_design', 2001, #23 );
#4 = PRODUCT_CATEGORY_RELATIONSHIP( 'NONE', 'NONE', #24, #25 );
#5 = SHAPE_DEFINITION_REPRESENTATION( #26, #27 );
#6 =  ( GEOMETRIC_REPRESENTATION_CONTEXT( 3 )GLOBAL_UNCERTAINTY_ASSIGNED_CONTEXT( ( #30 ) )GLOBAL_UNIT_ASSIGNED_CONTEXT( ( #32, #33, #34 ) )REPRESENTATION_CONTEXT( 'NONE', 'WORKSPACE' ) );
#10 = STYLED_ITEM( '', ( #36 ), #37 );
#11 = STYLED_ITEM( '', ( #38 ), #39 );
#12 = STYLED_ITEM( '', ( #40 ), #41 );
#13 = STYLED_ITEM( '', ( #42 ), #43 );
#14 = STYLED_ITEM( '', ( #44 ), #45 );
#15 = STYLED_ITEM( '', ( #46 ), #47 );
#16 = STYLED_ITEM( '', ( #48 ), #49 );
#17 = STYLED_ITEM( '', ( #50 ), #51 );
#18 = STYLED_ITEM( '', ( #52 ), #53 );
#19 = STYLED_ITEM( '', ( #54 ), #55 );
#20 = STYLED_ITEM( '', ( #56 ), #57 );
#21 = STYLED_ITEM( '', ( #58 ), #59 );
#22 = STYLED_ITEM( '', ( #60 ), #61 );
#23 = APPLICATION_CONTEXT( 'core data for automotive mechanical design processes' );
#24 = PRODUCT_CATEGORY( 'part', 'NONE' );
#25 = PRODUCT_RELATED_PRODUCT_CATEGORY( 'detail', ' ', ( #62 ) );
#26 = PRODUCT_DEFINITION_SHAPE( 'NONE', 'NONE', #63 );
#27 = ADVANCED_BREP_SHAPE_REPRESENTATION( '_K0390.08X45', ( #64, #65 ), #6 );
#30 = UNCERTAINTY_MEASURE_WITH_UNIT( LENGTH_MEASURE( 0.00100000000000000 ), #32, '', '' );
#32 =  ( CONVERSION_BASED_UNIT( 'MILLIMETRE', #68 )LENGTH_UNIT(  )NAMED_UNIT( #71 ) );
#33 =  ( NAMED_UNIT( #73 )PLANE_ANGLE_UNIT(  )SI_UNIT( $, .RADIAN. ) );
#34 =  ( NAMED_UNIT( #73 )SI_UNIT( $, .STERADIAN. )SOLID_ANGLE_UNIT(  ) );
#36 = PRESENTATION_STYLE_ASSIGNMENT( ( #79 ) );
#37 = ADVANCED_FACE( '', ( #80 ), #81, .T. );
#38 = PRESENTATION_STYLE_ASSIGNMENT( ( #82 ) );
#39 = ADVANCED_FACE( '', ( #83 ), #84, .F. );
#40 = PRESENTATION_STYLE_ASSIGNMENT( ( #85 ) );
#41 = ADVANCED_FACE( '', ( #86, #87 ), #88, .T. );
#42 = PRESENTATION_STYLE_ASSIGNMENT( ( #89 ) );
#43 = ADVANCED_FACE( '', ( #90 ), #91, .T. );
#44 = PRESENTATION_STYLE_ASSIGNMENT( ( #92 ) );
#45 = ADVANCED_FACE( '', ( #93 ), #94, .F. );
#46 = PRESENTATION_STYLE_ASSIGNMENT( ( #95 ) );
#47 = ADVANCED_FACE( '', ( #96 ), #97, .F. );
#48 = PRESENTATION_STYLE_ASSIGNMENT( ( #98 ) );
#49 = ADVANCED_FACE( '', ( #99, #100 ), #101, .T. );
#50 = PRESENTATION_STYLE_ASSIGNMENT( ( #102 ) );
#51 = ADVANCED_FACE( '', ( #103, #104 ), #105, .T. );
#52 = PRESENTATION_STYLE_ASSIGNMENT( ( #106 ) );
#53 = ADVANCED_FACE( '', ( #107, #108 ), #109, .F. );
#54 = PRESENTATION_STYLE_ASSIGNMENT( ( #110 ) );
#55 = ADVANCED_FACE( '', ( #111, #112 ), #113, .T. );
#56 = PRESENTATION_STYLE_ASSIGNMENT( ( #114 ) );
#57 = ADVANCED_FACE( '', ( #115 ), #116, .T. );
#58 = PRESENTATION_STYLE_ASSIGNMENT( ( #117 ) );
#59 = ADVANCED_FACE( '', ( #118, #119 ), #120, .T. );
#60 = PRESENTATION_STYLE_ASSIGNMENT( ( #121 ) );
#61 = ADVANCED_FACE( '', ( #122 ), #123, .F. );
#62 = PRODUCT( '_K0390.08X45', '_K0390.08X45', 'PART-_K0390.08X45-DESC', ( #124 ) );
#63 = PRODUCT_DEFINITION( 'NONE', 'NONE', #125, #2 );
#64 = MANIFOLD_SOLID_BREP( '_K0390.08X45', #126 );
#65 = AXIS2_PLACEMENT_3D( '', #127, #128, #129 );
#68 = LENGTH_MEASURE_WITH_UNIT( LENGTH_MEASURE( 1.00000000000000 ), #130 );
#71 = DIMENSIONAL_EXPONENTS( 1.00000000000000, 0.000000000000000, 0.000000000000000, 0.000000000000000, 0.000000000000000, 0.000000000000000, 0.000000000000000 );
#73 = DIMENSIONAL_EXPONENTS( 0.000000000000000, 0.000000000000000, 0.000000000000000, 0.000000000000000, 0.000000000000000, 0.000000000000000, 0.000000000000000 );
#79 = SURFACE_STYLE_USAGE( .BOTH., #131 );
#80 = FACE_OUTER_BOUND( '', #132, .T. );
#81 = PLANE( '', #133 );
#82 = SURFACE_STYLE_USAGE( .BOTH., #134 );
#83 = FACE_OUTER_BOUND( '', #135, .T. );
#84 = PLANE( '', #136 );
#85 = SURFACE_STYLE_USAGE( .BOTH., #137 );
#86 = FACE_OUTER_BOUND( '', #138, .T. );
#87 = FACE_OUTER_BOUND( '', #139, .T. );
#88 = CYLINDRICAL_SURFACE( '', #140, 2.70000000000000 );
#89 = SURFACE_STYLE_USAGE( .BOTH., #141 );
#90 = FACE_OUTER_BOUND( '', #142, .T. );
#91 = CONICAL_SURFACE( '', #143, 3.23300000000000, 0.785398163400000 );
#92 = SURFACE_STYLE_USAGE( .BOTH., #144 );
#93 = FACE_OUTER_BOUND( '', #145, .T. );
#94 = PLANE( '', #146 );
#95 = SURFACE_STYLE_USAGE( .BOTH., #147 );
#96 = FACE_OUTER_BOUND( '', #148, .T. );
#97 = PLANE( '', #149 );
#98 = SURFACE_STYLE_USAGE( .BOTH., #150 );
#99 = FACE_BOUND( '', #151, .T. );
#100 = FACE_OUTER_BOUND( '', #152, .T. );
#101 = SPHERICAL_SURFACE( '', #153, 5.03220000000000 );
#102 = SURFACE_STYLE_USAGE( .BOTH., #154 );
#103 = FACE_BOUND( '', #155, .T. );
#104 = FACE_OUTER_BOUND( '', #156, .T. );
#105 = CONICAL_SURFACE( '', #157, 4.00000000000000, 1.06399014130000 );
#106 = SURFACE_STYLE_USAGE( .BOTH., #158 );
#107 = FACE_OUTER_BOUND( '', #159, .T. );
#108 = FACE_BOUND( '', #160, .T. );
#109 = PLANE( '', #161 );
#110 = SURFACE_STYLE_USAGE( .BOTH., #162 );
#111 = FACE_OUTER_BOUND( '', #163, .T. );
#112 = FACE_OUTER_BOUND( '', #164, .T. );
#113 = CYLINDRICAL_SURFACE( '', #165, 3.00000000000000 );
#114 = SURFACE_STYLE_USAGE( .BOTH., #166 );
#115 = FACE_OUTER_BOUND( '', #167, .T. );
#116 = CONICAL_SURFACE( '', #168, 3.23300000000000, 0.785398163400000 );
#117 = SURFACE_STYLE_USAGE( .BOTH., #169 );
#118 = FACE_OUTER_BOUND( '', #170, .T. );
#119 = FACE_OUTER_BOUND( '', #171, .T. );
#120 = CYLINDRICAL_SURFACE( '', #172, 4.00000000000000 );
#121 = SURFACE_STYLE_USAGE( .BOTH., #173 );
#122 = FACE_OUTER_BOUND( '', #174, .T. );
#123 = PLANE( '', #175 );
#124 = PRODUCT_CONTEXT( '', #23, 'mechanical' );
#125 = PRODUCT_DEFINITION_FORMATION_WITH_SPECIFIED_SOURCE( ' ', 'NONE', #62, .NOT_KNOWN. );
#126 = CLOSED_SHELL( '', ( #45, #39, #49, #55, #53, #41, #51, #59, #57, #61, #43, #47, #37 ) );
#127 = CARTESIAN_POINT( '', ( 0.000000000000000, 0.000000000000000, 0.000000000000000 ) );
#128 = DIRECTION( '', ( 0.000000000000000, 0.000000000000000, 1.00000000000000 ) );
#129 = DIRECTION( '', ( 1.00000000000000, 0.000000000000000, 0.000000000000000 ) );
#130 =  ( LENGTH_UNIT(  )NAMED_UNIT( #71 )SI_UNIT( .MILLI., .METRE. ) );
#131 = SURFACE_SIDE_STYLE( '', ( #177 ) );
#132 = EDGE_LOOP( '', ( #178, #179, #180, #181 ) );
#133 = AXIS2_PLACEMENT_3D( '', #182, #183, #184 );
#134 = SURFACE_SIDE_STYLE( '', ( #185 ) );
#135 = EDGE_LOOP( '', ( #186, #187, #188, #189, #190, #191 ) );
#136 = AXIS2_PLACEMENT_3D( '', #192, #193, #194 );
#137 = SURFACE_SIDE_STYLE( '', ( #195 ) );
#138 = EDGE_LOOP( '', ( #196 ) );
#139 = EDGE_LOOP( '', ( #197 ) );
#140 = AXIS2_PLACEMENT_3D( '', #198, #199, #200 );
#141 = SURFACE_SIDE_STYLE( '', ( #201 ) );
#142 = EDGE_LOOP( '', ( #202, #203, #204, #205 ) );
#143 = AXIS2_PLACEMENT_3D( '', #206, #207, #208 );
#144 = SURFACE_SIDE_STYLE( '', ( #209 ) );
#145 = EDGE_LOOP( '', ( #210, #211, #212, #213, #214, #215 ) );
#146 = AXIS2_PLACEMENT_3D( '', #216, #217, #218 );
#147 = SURFACE_SIDE_STYLE( '', ( #219 ) );
#148 = EDGE_LOOP( '', ( #220, #221 ) );
#149 = AXIS2_PLACEMENT_3D( '', #222, #223, #224 );
#150 = SURFACE_SIDE_STYLE( '', ( #225 ) );
#151 = VERTEX_LOOP( '', #226 );
#152 = EDGE_LOOP( '', ( #227 ) );
#153 = AXIS2_PLACEMENT_3D( '', #228, #229, #230 );
#154 = SURFACE_SIDE_STYLE( '', ( #231 ) );
#155 = EDGE_LOOP( '', ( #232 ) );
#156 = EDGE_LOOP( '', ( #233 ) );
#157 = AXIS2_PLACEMENT_3D( '', #234, #235, #236 );
#158 = SURFACE_SIDE_STYLE( '', ( #237 ) );
#159 = EDGE_LOOP( '', ( #238 ) );
#160 = EDGE_LOOP( '', ( #239 ) );
#161 = AXIS2_PLACEMENT_3D( '', #240, #241, #242 );
#162 = SURFACE_SIDE_STYLE( '', ( #243 ) );
#163 = EDGE_LOOP( '', ( #244 ) );
#164 = EDGE_LOOP( '', ( #245 ) );
#165 = AXIS2_PLACEMENT_3D( '', #246, #247, #248 );
#166 = SURFACE_SIDE_STYLE( '', ( #249 ) );
#167 = EDGE_LOOP( '', ( #250, #251, #252, #253 ) );
#168 = AXIS2_PLACEMENT_3D( '', #254, #255, #256 );
#169 = SURFACE_SIDE_STYLE( '', ( #257 ) );
#170 = EDGE_LOOP( '', ( #258 ) );
#171 = EDGE_LOOP( '', ( #259, #260, #261, #262, #263, #264, #265, #266 ) );
#172 = AXIS2_PLACEMENT_3D( '', #267, #268, #269 );
#173 = SURFACE_SIDE_STYLE( '', ( #270 ) );
#174 = EDGE_LOOP( '', ( #271, #272 ) );
#175 = AXIS2_PLACEMENT_3D( '', #273, #274, #275 );
#177 = SURFACE_STYLE_FILL_AREA( #276 );
#178 = ORIENTED_EDGE( '', *, *, #277, .T. );
#179 = ORIENTED_EDGE( '', *, *, #278, .T. );
#180 = ORIENTED_EDGE( '', *, *, #279, .T. );
#181 = ORIENTED_EDGE( '', *, *, #280, .T. );
#182 = CARTESIAN_POINT( '', ( 3.00000000000000, 0.000000000000000, 0.000000000000000 ) );
#183 = DIRECTION( '', ( -1.00000000000000, 0.000000000000000, 0.000000000000000 ) );
#184 = DIRECTION( '', ( 0.000000000000000, 0.000000000000000, 1.00000000000000 ) );
#185 = SURFACE_STYLE_FILL_AREA( #281 );
#186 = ORIENTED_EDGE( '', *, *, #282, .T. );
#187 = ORIENTED_EDGE( '', *, *, #283, .F. );
#188 = ORIENTED_EDGE( '', *, *, #284, .F. );
#189 = ORIENTED_EDGE( '', *, *, #278, .F. );
#190 = ORIENTED_EDGE( '', *, *, #285, .F. );
#191 = ORIENTED_EDGE( '', *, *, #286, .F. );
#192 = CARTESIAN_POINT( '', ( 3.00000000000000, -0.899999999999994, -10.5000000000000 ) );
#193 = DIRECTION( '', ( 0.000000000000000, -1.00000000000000, 0.000000000000000 ) );
#194 = DIRECTION( '', ( 0.000000000000000, 0.000000000000000, -1.00000000000000 ) );
#195 = SURFACE_STYLE_FILL_AREA( #287 );
#196 = ORIENTED_EDGE( '', *, *, #288, .F. );
#197 = ORIENTED_EDGE( '', *, *, #289, .T. );
#198 = CARTESIAN_POINT( '', ( 45.0000000000000, 3.55271367880050E-15, 0.000000000000000 ) );
#199 = DIRECTION( '', ( -1.00000000000000, 6.12323399573676E-17, 0.000000000000000 ) );
#200 = DIRECTION( '', ( 6.12323399573677E-17, 1.00000000000000, 0.000000000000000 ) );
#201 = SURFACE_STYLE_FILL_AREA( #290 );
#202 = ORIENTED_EDGE( '', *, *, #291, .F. );
#203 = ORIENTED_EDGE( '', *, *, #283, .T. );
#204 = ORIENTED_EDGE( '', *, *, #292, .T. );
#205 = ORIENTED_EDGE( '', *, *, #286, .T. );
#206 = CARTESIAN_POINT( '', ( 0.000000000000000, 6.30816897688205E-15, 0.000000000000000 ) );
#207 = DIRECTION( '', ( 1.00000000000000, -6.12323399573676E-17, -0.000000000000000 ) );
#208 = DIRECTION( '', ( 6.12323399573677E-17, 1.00000000000000, 0.000000000000000 ) );
#209 = SURFACE_STYLE_FILL_AREA( #293 );
#210 = ORIENTED_EDGE( '', *, *, #294, .F. );
#211 = ORIENTED_EDGE( '', *, *, #295, .T. );
#212 = ORIENTED_EDGE( '', *, *, #296, .F. );
#213 = ORIENTED_EDGE( '', *, *, #297, .F. );
#214 = ORIENTED_EDGE( '', *, *, #280, .F. );
#215 = ORIENTED_EDGE( '', *, *, #298, .F. );
#216 = CARTESIAN_POINT( '', ( 3.00000000000000, 0.900000000000006, 10.5000000000000 ) );
#217 = DIRECTION( '', ( 0.000000000000000, 1.00000000000000, 0.000000000000000 ) );
#218 = DIRECTION( '', ( 0.000000000000000, -0.000000000000000, 1.00000000000000 ) );
#219 = SURFACE_STYLE_FILL_AREA( #299 );
#220 = ORIENTED_EDGE( '', *, *, #300, .F. );
#221 = ORIENTED_EDGE( '', *, *, #295, .F. );
#222 = CARTESIAN_POINT( '', ( -9.89820775410848E-17, 6.30816897688204E-15, 0.000000000000000 ) );
#223 = DIRECTION( '', ( 1.00000000000000, -6.12323399573677E-17, -0.000000000000000 ) );
#224 = DIRECTION( '', ( 6.12323399573677E-17, 1.00000000000000, 0.000000000000000 ) );
#225 = SURFACE_STYLE_FILL_AREA( #301 );
#226 = VERTEX_POINT( '', #302 );
#227 = ORIENTED_EDGE( '', *, *, #303, .T. );
#228 = CARTESIAN_POINT( '', ( 39.9677999999999, -1.17093834628434E-14, 0.000000000000000 ) );
#229 = DIRECTION( '', ( 1.00000000000000, 0.000000000000000, 0.000000000000000 ) );
#230 = DIRECTION( '', ( 0.000000000000000, 1.00000000000000, 0.000000000000000 ) );
#231 = SURFACE_STYLE_FILL_AREA( #304 );
#232 = ORIENTED_EDGE( '', *, *, #289, .F. );
#233 = ORIENTED_EDGE( '', *, *, #305, .T. );
#234 = CARTESIAN_POINT( '', ( 37.5000000000000, 4.01195622848076E-15, 0.000000000000000 ) );
#235 = DIRECTION( '', ( -1.00000000000000, 6.12323399573677E-17, -0.000000000000000 ) );
#236 = DIRECTION( '', ( -6.12323399573677E-17, -1.00000000000000, 0.000000000000000 ) );
#237 = SURFACE_STYLE_FILL_AREA( #306 );
#238 = ORIENTED_EDGE( '', *, *, #307, .F. );
#239 = ORIENTED_EDGE( '', *, *, #288, .T. );
#240 = CARTESIAN_POINT( '', ( 42.0000000000000, 2.70000000000000, 0.000000000000000 ) );
#241 = DIRECTION( '', ( 1.00000000000000, -6.12323399573677E-17, -0.000000000000000 ) );
#242 = DIRECTION( '', ( 6.12323399573677E-17, 1.00000000000000, 0.000000000000000 ) );
#243 = SURFACE_STYLE_FILL_AREA( #308 );
#244 = ORIENTED_EDGE( '', *, *, #303, .F. );
#245 = ORIENTED_EDGE( '', *, *, #307, .T. );
#246 = CARTESIAN_POINT( '', ( 45.0000000000000, 3.55271367880050E-15, 0.000000000000000 ) );
#247 = DIRECTION( '', ( -1.00000000000000, 6.12323399573677E-17, 0.000000000000000 ) );
#248 = DIRECTION( '', ( 6.12323399573677E-17, 1.00000000000000, 0.000000000000000 ) );
#249 = SURFACE_STYLE_FILL_AREA( #309 );
#250 = ORIENTED_EDGE( '', *, *, #300, .T. );
#251 = ORIENTED_EDGE( '', *, *, #294, .T. );
#252 = ORIENTED_EDGE( '', *, *, #310, .F. );
#253 = ORIENTED_EDGE( '', *, *, #296, .T. );
#254 = CARTESIAN_POINT( '', ( 0.000000000000000, 6.30816897688205E-15, 0.000000000000000 ) );
#255 = DIRECTION( '', ( 1.00000000000000, -6.12323399573676E-17, -0.000000000000000 ) );
#256 = DIRECTION( '', ( 6.12323399573677E-17, 1.00000000000000, 0.000000000000000 ) );
#257 = SURFACE_STYLE_FILL_AREA( #311 );
#258 = ORIENTED_EDGE( '', *, *, #305, .F. );
#259 = ORIENTED_EDGE( '', *, *, #291, .T. );
#260 = ORIENTED_EDGE( '', *, *, #285, .T. );
#261 = ORIENTED_EDGE( '', *, *, #277, .F. );
#262 = ORIENTED_EDGE( '', *, *, #297, .T. );
#263 = ORIENTED_EDGE( '', *, *, #310, .T. );
#264 = ORIENTED_EDGE( '', *, *, #298, .T. );
#265 = ORIENTED_EDGE( '', *, *, #279, .F. );
#266 = ORIENTED_EDGE( '', *, *, #284, .T. );
#267 = CARTESIAN_POINT( '', ( 45.0000000000000, 3.55271367880050E-15, 0.000000000000000 ) );
#268 = DIRECTION( '', ( -1.00000000000000, 6.12323399573677E-17, 0.000000000000000 ) );
#269 = DIRECTION( '', ( 6.12323399573677E-17, 1.00000000000000, 0.000000000000000 ) );
#270 = SURFACE_STYLE_FILL_AREA( #312 );
#271 = ORIENTED_EDGE( '', *, *, #292, .F. );
#272 = ORIENTED_EDGE( '', *, *, #282, .F. );
#273 = CARTESIAN_POINT( '', ( -9.89820775410848E-17, 6.30816897688204E-15, 0.000000000000000 ) );
#274 = DIRECTION( '', ( 1.00000000000000, -6.12323399573677E-17, -0.000000000000000 ) );
#275 = DIRECTION( '', ( 6.12323399573677E-17, 1.00000000000000, 0.000000000000000 ) );
#276 = FILL_AREA_STYLE( '', ( #313 ) );
#277 = EDGE_CURVE( '', #314, #315, #316, .T. );
#278 = EDGE_CURVE( '', #315, #317, #318, .T. );
#279 = EDGE_CURVE( '', #317, #319, #320, .T. );
#280 = EDGE_CURVE( '', #319, #314, #321, .T. );
#281 = FILL_AREA_STYLE( '', ( #322 ) );
#282 = EDGE_CURVE( '', #323, #324, #325, .T. );
#283 = EDGE_CURVE( '', #326, #324, #327, .T. );
#284 = EDGE_CURVE( '', #317, #326, #328, .F. );
#285 = EDGE_CURVE( '', #329, #315, #330, .T. );
#286 = EDGE_CURVE( '', #323, #329, #331, .T. );
#287 = FILL_AREA_STYLE( '', ( #332 ) );
#288 = EDGE_CURVE( '', #333, #333, #334, .T. );
#289 = EDGE_CURVE( '', #335, #335, #336, .T. );
#290 = FILL_AREA_STYLE( '', ( #337 ) );
#291 = EDGE_CURVE( '', #326, #329, #338, .T. );
#292 = EDGE_CURVE( '', #324, #323, #339, .T. );
#293 = FILL_AREA_STYLE( '', ( #340 ) );
#294 = EDGE_CURVE( '', #341, #342, #343, .T. );
#295 = EDGE_CURVE( '', #341, #344, #345, .T. );
#296 = EDGE_CURVE( '', #346, #344, #347, .T. );
#297 = EDGE_CURVE( '', #314, #346, #348, .F. );
#298 = EDGE_CURVE( '', #342, #319, #349, .T. );
#299 = FILL_AREA_STYLE( '', ( #350 ) );
#300 = EDGE_CURVE( '', #344, #341, #351, .T. );
#301 = FILL_AREA_STYLE( '', ( #352 ) );
#302 = CARTESIAN_POINT( '', ( 45.0000000000000, -1.17093834628434E-14, 0.000000000000000 ) );
#303 = EDGE_CURVE( '', #353, #353, #354, .T. );
#304 = FILL_AREA_STYLE( '', ( #355 ) );
#305 = EDGE_CURVE( '', #356, #356, #357, .T. );
#306 = FILL_AREA_STYLE( '', ( #358 ) );
#307 = EDGE_CURVE( '', #359, #359, #360, .T. );
#308 = FILL_AREA_STYLE( '', ( #361 ) );
#309 = FILL_AREA_STYLE( '', ( #362 ) );
#310 = EDGE_CURVE( '', #346, #342, #363, .T. );
#311 = FILL_AREA_STYLE( '', ( #364 ) );
#312 = FILL_AREA_STYLE( '', ( #365 ) );
#313 = FILL_AREA_STYLE_COLOUR( '', #366 );
#314 = VERTEX_POINT( '', #367 );
#315 = VERTEX_POINT( '', #368 );
#316 = CIRCLE( '', #369, 4.00000000000000 );
#317 = VERTEX_POINT( '', #370 );
#318 = LINE( '', #371, #372 );
#319 = VERTEX_POINT( '', #373 );
#320 = CIRCLE( '', #374, 4.00000000000000 );
#321 = LINE( '', #375, #376 );
#322 = FILL_AREA_STYLE_COLOUR( '', #377 );
#323 = VERTEX_POINT( '', #378 );
#324 = VERTEX_POINT( '', #379 );
#325 = LINE( '', #380, #381 );
#326 = VERTEX_POINT( '', #382 );
#327 = B_SPLINE_CURVE_WITH_KNOTS( '', 3, ( #383, #384, #385, #386 ), .UNSPECIFIED., .F., .F., ( 4, 4 ), ( 0.00685941369446052, 0.00796210091278451 ), .UNSPECIFIED. );
#328 = LINE( '', #387, #388 );
#329 = VERTEX_POINT( '', #389 );
#330 = LINE( '', #390, #391 );
#331 = B_SPLINE_CURVE_WITH_KNOTS( '', 3, ( #392, #393, #394, #395 ), .UNSPECIFIED., .F., .F., ( 4, 4 ), ( 0.0158157249040059, 0.0169130244324276 ), .UNSPECIFIED. );
#332 = FILL_AREA_STYLE_COLOUR( '', #396 );
#333 = VERTEX_POINT( '', #397 );
#334 = CIRCLE( '', #398, 2.70000000000000 );
#335 = VERTEX_POINT( '', #399 );
#336 = CIRCLE( '', #400, 2.70000000000000 );
#337 = FILL_AREA_STYLE_COLOUR( '', #401 );
#338 = CIRCLE( '', #402, 4.00000000000000 );
#339 = CIRCLE( '', #403, 3.23300000000000 );
#340 = FILL_AREA_STYLE_COLOUR( '', #404 );
#341 = VERTEX_POINT( '', #405 );
#342 = VERTEX_POINT( '', #406 );
#343 = B_SPLINE_CURVE_WITH_KNOTS( '', 3, ( #407, #408, #409, #410 ), .UNSPECIFIED., .F., .F., ( 4, 4 ), ( 0.0158157249040059, 0.0169130244324276 ), .UNSPECIFIED. );
#344 = VERTEX_POINT( '', #411 );
#345 = LINE( '', #412, #413 );
#346 = VERTEX_POINT( '', #414 );
#347 = B_SPLINE_CURVE_WITH_KNOTS( '', 3, ( #415, #416, #417, #418 ), .UNSPECIFIED., .F., .F., ( 4, 4 ), ( 0.00685941369446053, 0.00796210091278452 ), .UNSPECIFIED. );
#348 = LINE( '', #419, #420 );
#349 = LINE( '', #421, #422 );
#350 = FILL_AREA_STYLE_COLOUR( '', #423 );
#351 = CIRCLE( '', #424, 3.23300000000000 );
#352 = FILL_AREA_STYLE_COLOUR( '', #425 );
#353 = VERTEX_POINT( '', #426 );
#354 = CIRCLE( '', #427, 3.00000000000000 );
#355 = FILL_AREA_STYLE_COLOUR( '', #428 );
#356 = VERTEX_POINT( '', #429 );
#357 = CIRCLE( '', #430, 4.00000000000000 );
#358 = FILL_AREA_STYLE_COLOUR( '', #431 );
#359 = VERTEX_POINT( '', #432 );
#360 = CIRCLE( '', #433, 3.00000000000000 );
#361 = FILL_AREA_STYLE_COLOUR( '', #434 );
#362 = FILL_AREA_STYLE_COLOUR( '', #435 );
#363 = CIRCLE( '', #436, 4.00000000000000 );
#364 = FILL_AREA_STYLE_COLOUR( '', #437 );
#365 = FILL_AREA_STYLE_COLOUR( '', #438 );
#366 = COLOUR_RGB( '', 0.689999997600000, 0.689999997600000, 0.689999997600000 );
#367 = CARTESIAN_POINT( '', ( 3.00000000000000, 0.900000000000006, -3.89743505398101 ) );
#368 = CARTESIAN_POINT( '', ( 3.00000000000000, -0.899999999999994, -3.89743505398101 ) );
#369 = AXIS2_PLACEMENT_3D( '', #439, #440, #441 );
#370 = CARTESIAN_POINT( '', ( 3.00000000000000, -0.899999999999994, 3.89743505398101 ) );
#371 = CARTESIAN_POINT( '', ( 3.00000000000000, -0.899999999999994, -10.5000000000000 ) );
#372 = VECTOR( '', #442, 1000.00000000000 );
#373 = CARTESIAN_POINT( '', ( 3.00000000000000, 0.900000000000006, 3.89743505398101 ) );
#374 = AXIS2_PLACEMENT_3D( '', #443, #444, #445 );
#375 = CARTESIAN_POINT( '', ( 3.00000000000000, 0.900000000000006, 10.5000000000000 ) );
#376 = VECTOR( '', #446, 1000.00000000000 );
#377 = COLOUR_RGB( '', 0.689999997600000, 0.689999997600000, 0.689999997600000 );
#378 = CARTESIAN_POINT( '', ( 0.000000000000000, -0.899999999999994, -3.10520353600211 ) );
#379 = CARTESIAN_POINT( '', ( 0.000000000000000, -0.899999999999994, 3.10520353600211 ) );
#380 = CARTESIAN_POINT( '', ( 0.000000000000000, -0.899999999999994, -10.5000000000000 ) );
#381 = VECTOR( '', #447, 1000.00000000000 );
#382 = CARTESIAN_POINT( '', ( 0.767000000000004, -0.899999999999991, 3.89743505398102 ) );
#383 = CARTESIAN_POINT( '', ( 0.767000000000001, -0.899999999999994, 3.89743505398102 ) );
#384 = CARTESIAN_POINT( '', ( 0.510490421567083, -0.899999999999994, 3.63417516651128 ) );
#385 = CARTESIAN_POINT( '', ( 0.254616510453989, -0.899999999999994, 3.37029893756074 ) );
#386 = CARTESIAN_POINT( '', ( -9.89644392929829E-17, -0.899999999999994, 3.10520353600211 ) );
#387 = CARTESIAN_POINT( '', ( 45.0000000000000, -0.899999999999994, 3.89743505398102 ) );
#388 = VECTOR( '', #448, 1000.00000000000 );
#389 = CARTESIAN_POINT( '', ( 0.767000000000004, -0.899999999999991, -3.89743505398102 ) );
#390 = CARTESIAN_POINT( '', ( 45.0000000000000, -0.899999999999994, -3.89743505398102 ) );
#391 = VECTOR( '', #449, 1000.00000000000 );
#392 = CARTESIAN_POINT( '', ( -1.07228568014189E-15, -0.899999999999994, -3.10520353600211 ) );
#393 = CARTESIAN_POINT( '', ( 0.254623855499881, -0.899999999999994, -3.37030658489628 ) );
#394 = CARTESIAN_POINT( '', ( 0.510496360619597, -0.899999999999994, -3.63418126185596 ) );
#395 = CARTESIAN_POINT( '', ( 0.767000000000001, -0.899999999999994, -3.89743505398102 ) );
#396 = COLOUR_RGB( '', 0.689999997600000, 0.689999997600000, 0.689999997600000 );
#397 = CARTESIAN_POINT( '', ( 42.0000000000000, 2.70000000000000, 0.000000000000000 ) );
#398 = AXIS2_PLACEMENT_3D( '', #450, #451, #452 );
#399 = CARTESIAN_POINT( '', ( 38.2217250000000, 2.70000000000000, 0.000000000000000 ) );
#400 = AXIS2_PLACEMENT_3D( '', #453, #454, #455 );
#401 = COLOUR_RGB( '', 0.689999997600000, 0.689999997600000, 0.689999997600000 );
#402 = AXIS2_PLACEMENT_3D( '', #456, #457, #458 );
#403 = AXIS2_PLACEMENT_3D( '', #459, #460, #461 );
#404 = COLOUR_RGB( '', 0.689999997600000, 0.689999997600000, 0.689999997600000 );
#405 = CARTESIAN_POINT( '', ( 0.000000000000000, 0.900000000000006, 3.10520353600211 ) );
#406 = CARTESIAN_POINT( '', ( 0.767000000000004, 0.900000000000009, 3.89743505398101 ) );
#407 = CARTESIAN_POINT( '', ( 6.05051833877497E-16, 0.900000000000006, 3.10520353600211 ) );
#408 = CARTESIAN_POINT( '', ( 0.254623855499881, 0.900000000000006, 3.37030658489628 ) );
#409 = CARTESIAN_POINT( '', ( 0.510496360619596, 0.900000000000006, 3.63418126185596 ) );
#410 = CARTESIAN_POINT( '', ( 0.766999999999999, 0.900000000000006, 3.89743505398102 ) );
#411 = CARTESIAN_POINT( '', ( 0.000000000000000, 0.900000000000006, -3.10520353600211 ) );
#412 = CARTESIAN_POINT( '', ( 0.000000000000000, 0.900000000000006, 10.5000000000000 ) );
#413 = VECTOR( '', #462, 1000.00000000000 );
#414 = CARTESIAN_POINT( '', ( 0.767000000000004, 0.900000000000009, -3.89743505398101 ) );
#415 = CARTESIAN_POINT( '', ( 0.766999999999999, 0.900000000000006, -3.89743505398102 ) );
#416 = CARTESIAN_POINT( '', ( 0.510490421567082, 0.900000000000006, -3.63417516651127 ) );
#417 = CARTESIAN_POINT( '', ( 0.254616510453989, 0.900000000000006, -3.37029893756074 ) );
#418 = CARTESIAN_POINT( '', ( 3.97124697309625E-16, 0.900000000000006, -3.10520353600211 ) );
#419 = CARTESIAN_POINT( '', ( 45.0000000000000, 0.900000000000006, -3.89743505398101 ) );
#420 = VECTOR( '', #463, 1000.00000000000 );
#421 = CARTESIAN_POINT( '', ( 45.0000000000000, 0.900000000000006, 3.89743505398101 ) );
#422 = VECTOR( '', #464, 1000.00000000000 );
#423 = COLOUR_RGB( '', 0.689999997600000, 0.689999997600000, 0.689999997600000 );
#424 = AXIS2_PLACEMENT_3D( '', #465, #466, #467 );
#425 = COLOUR_RGB( '', 0.689999997600000, 0.689999997600000, 0.689999997600000 );
#426 = CARTESIAN_POINT( '', ( 44.0079778228192, 3.00000000000000, 0.000000000000000 ) );
#427 = AXIS2_PLACEMENT_3D( '', #468, #469, #470 );
#428 = COLOUR_RGB( '', 0.689999997600000, 0.689999997600000, 0.689999997600000 );
#429 = CARTESIAN_POINT( '', ( 37.5000000000000, 4.00000000000000, 0.000000000000000 ) );
#430 = AXIS2_PLACEMENT_3D( '', #471, #472, #473 );
#431 = COLOUR_RGB( '', 0.689999997600000, 0.689999997600000, 0.689999997600000 );
#432 = CARTESIAN_POINT( '', ( 42.0000000000000, 3.00000000000000, 0.000000000000000 ) );
#433 = AXIS2_PLACEMENT_3D( '', #474, #475, #476 );
#434 = COLOUR_RGB( '', 0.689999997600000, 0.689999997600000, 0.689999997600000 );
#435 = COLOUR_RGB( '', 0.689999997600000, 0.689999997600000, 0.689999997600000 );
#436 = AXIS2_PLACEMENT_3D( '', #477, #478, #479 );
#437 = COLOUR_RGB( '', 0.689999997600000, 0.689999997600000, 0.689999997600000 );
#438 = COLOUR_RGB( '', 0.689999997600000, 0.689999997600000, 0.689999997600000 );
#439 = CARTESIAN_POINT( '', ( 3.00000000000000, 6.12447195700994E-15, 0.000000000000000 ) );
#440 = DIRECTION( '', ( -1.00000000000000, 0.000000000000000, 0.000000000000000 ) );
#441 = DIRECTION( '', ( 0.000000000000000, 0.000000000000000, 1.00000000000000 ) );
#442 = DIRECTION( '', ( 0.000000000000000, 0.000000000000000, 1.00000000000000 ) );
#443 = CARTESIAN_POINT( '', ( 3.00000000000000, 6.12447195700994E-15, 0.000000000000000 ) );
#444 = DIRECTION( '', ( -1.00000000000000, 0.000000000000000, 0.000000000000000 ) );
#445 = DIRECTION( '', ( 0.000000000000000, 0.000000000000000, 1.00000000000000 ) );
#446 = DIRECTION( '', ( 0.000000000000000, 0.000000000000000, -1.00000000000000 ) );
#447 = DIRECTION( '', ( 0.000000000000000, 0.000000000000000, 1.00000000000000 ) );
#448 = DIRECTION( '', ( 1.00000000000000, -6.12323399573677E-17, -0.000000000000000 ) );
#449 = DIRECTION( '', ( 1.00000000000000, -6.12323399573677E-17, -0.000000000000000 ) );
#450 = CARTESIAN_POINT( '', ( 42.0000000000000, 3.73641069867260E-15, 0.000000000000000 ) );
#451 = DIRECTION( '', ( 1.00000000000000, -6.12323399573676E-17, -0.000000000000000 ) );
#452 = DIRECTION( '', ( 6.12323399573677E-17, 1.00000000000000, 0.000000000000000 ) );
#453 = CARTESIAN_POINT( '', ( 38.2217250000000, 3.96776331792503E-15, 0.000000000000000 ) );
#454 = DIRECTION( '', ( 1.00000000000000, -6.12323399573676E-17, -0.000000000000000 ) );
#455 = DIRECTION( '', ( 6.12323399573677E-17, 1.00000000000000, 0.000000000000000 ) );
#456 = CARTESIAN_POINT( '', ( 0.766999999999997, 6.26120377213474E-15, 0.000000000000000 ) );
#457 = DIRECTION( '', ( 1.00000000000000, -6.12323399573677E-17, -0.000000000000000 ) );
#458 = DIRECTION( '', ( 6.12323399573677E-17, 1.00000000000000, 0.000000000000000 ) );
#459 = CARTESIAN_POINT( '', ( 0.000000000000000, 6.30816897688205E-15, 0.000000000000000 ) );
#460 = DIRECTION( '', ( 1.00000000000000, -6.12323399573677E-17, -0.000000000000000 ) );
#461 = DIRECTION( '', ( 6.12323399573677E-17, 1.00000000000000, 0.000000000000000 ) );
#462 = DIRECTION( '', ( 0.000000000000000, 0.000000000000000, -1.00000000000000 ) );
#463 = DIRECTION( '', ( 1.00000000000000, -6.12323399573677E-17, -0.000000000000000 ) );
#464 = DIRECTION( '', ( 1.00000000000000, -6.12323399573677E-17, -0.000000000000000 ) );
#465 = CARTESIAN_POINT( '', ( 0.000000000000000, 6.30816897688205E-15, 0.000000000000000 ) );
#466 = DIRECTION( '', ( 1.00000000000000, -6.12323399573677E-17, -0.000000000000000 ) );
#467 = DIRECTION( '', ( 6.12323399573677E-17, 1.00000000000000, 0.000000000000000 ) );
#468 = CARTESIAN_POINT( '', ( 44.0079778228192, 3.61345751799888E-15, 0.000000000000000 ) );
#469 = DIRECTION( '', ( 1.00000000000000, -6.12323399573677E-17, -0.000000000000000 ) );
#470 = DIRECTION( '', ( 6.12323399573677E-17, 1.00000000000000, 0.000000000000000 ) );
#471 = CARTESIAN_POINT( '', ( 37.5000000000000, 4.01195622848076E-15, 0.000000000000000 ) );
#472 = DIRECTION( '', ( 1.00000000000000, -6.12323399573677E-17, -0.000000000000000 ) );
#473 = DIRECTION( '', ( 6.12323399573677E-17, 1.00000000000000, 0.000000000000000 ) );
#474 = CARTESIAN_POINT( '', ( 42.0000000000000, 3.73641069867260E-15, 0.000000000000000 ) );
#475 = DIRECTION( '', ( 1.00000000000000, -6.12323399573677E-17, -0.000000000000000 ) );
#476 = DIRECTION( '', ( 6.12323399573677E-17, 1.00000000000000, 0.000000000000000 ) );
#477 = CARTESIAN_POINT( '', ( 0.766999999999997, 6.26120377213474E-15, 0.000000000000000 ) );
#478 = DIRECTION( '', ( 1.00000000000000, -6.12323399573677E-17, -0.000000000000000 ) );
#479 = DIRECTION( '', ( 6.12323399573677E-17, 1.00000000000000, 0.000000000000000 ) );
ENDSEC;
END-ISO-10303-21;
