ISO-10303-21;
HEADER;
FILE_DESCRIPTION( ( 'STEP AP214' ), '1' );
FILE_NAME( '//goodhand-server/Shared Folders/GoodHand Data/Kipp CAD/K0344/K0344.94.stp', '2020-12-03T13:53:24', ( '' ), ( '' ), ' ', 'PARTsolutions', ' ' );
FILE_SCHEMA( ( 'AUTOMOTIVE_DESIGN { 1 0 10303 214 1 1 1 1 }' ) );
ENDSEC;
DATA;
#1 = MECHANICAL_DESIGN_GEOMETRIC_PRESENTATION_REPRESENTATION( ' ', ( #10, #11, #12, #13, #14, #15, #16, #17, #18, #19, #20, #21, #22, #23 ), #6 );
#2 = PRODUCT_DEFINITION_CONTEXT( '', #24, 'design' );
#3 = APPLICATION_PROTOCOL_DEFINITION( 'international standard', 'automotive_design', 2001, #24 );
#4 = PRODUCT_CATEGORY_RELATIONSHIP( 'NONE', 'NONE', #25, #26 );
#5 = SHAPE_DEFINITION_REPRESENTATION( #27, #28 );
#6 =  ( GEOMETRIC_REPRESENTATION_CONTEXT( 3 )GLOBAL_UNCERTAINTY_ASSIGNED_CONTEXT( ( #31 ) )GLOBAL_UNIT_ASSIGNED_CONTEXT( ( #33, #34, #35 ) )REPRESENTATION_CONTEXT( 'NONE', 'WORKSPACE' ) );
#10 = STYLED_ITEM( '', ( #37 ), #38 );
#11 = STYLED_ITEM( '', ( #39 ), #40 );
#12 = STYLED_ITEM( '', ( #41 ), #42 );
#13 = STYLED_ITEM( '', ( #43 ), #44 );
#14 = STYLED_ITEM( '', ( #45 ), #46 );
#15 = STYLED_ITEM( '', ( #47 ), #48 );
#16 = STYLED_ITEM( '', ( #49 ), #50 );
#17 = STYLED_ITEM( '', ( #51 ), #52 );
#18 = STYLED_ITEM( '', ( #53 ), #54 );
#19 = STYLED_ITEM( '', ( #55 ), #56 );
#20 = STYLED_ITEM( '', ( #57 ), #58 );
#21 = STYLED_ITEM( '', ( #59 ), #60 );
#22 = STYLED_ITEM( '', ( #61 ), #62 );
#23 = STYLED_ITEM( '', ( #63 ), #64 );
#24 = APPLICATION_CONTEXT( 'core data for automotive mechanical design processes' );
#25 = PRODUCT_CATEGORY( 'part', 'NONE' );
#26 = PRODUCT_RELATED_PRODUCT_CATEGORY( 'detail', ' ', ( #65 ) );
#27 = PRODUCT_DEFINITION_SHAPE( 'NONE', 'NONE', #66 );
#28 = ADVANCED_BREP_SHAPE_REPRESENTATION( '_K0344.94', ( #67, #68 ), #6 );
#31 = UNCERTAINTY_MEASURE_WITH_UNIT( LENGTH_MEASURE( 0.00100000000000000 ), #33, '', '' );
#33 =  ( CONVERSION_BASED_UNIT( 'MILLIMETRE', #71 )LENGTH_UNIT(  )NAMED_UNIT( #74 ) );
#34 =  ( NAMED_UNIT( #76 )PLANE_ANGLE_UNIT(  )SI_UNIT( $, .RADIAN. ) );
#35 =  ( NAMED_UNIT( #76 )SI_UNIT( $, .STERADIAN. )SOLID_ANGLE_UNIT(  ) );
#37 = PRESENTATION_STYLE_ASSIGNMENT( ( #82 ) );
#38 = ADVANCED_FACE( '', ( #83 ), #84, .T. );
#39 = PRESENTATION_STYLE_ASSIGNMENT( ( #85 ) );
#40 = ADVANCED_FACE( '', ( #86, #87 ), #88, .T. );
#41 = PRESENTATION_STYLE_ASSIGNMENT( ( #89 ) );
#42 = ADVANCED_FACE( '', ( #90, #91 ), #92, .T. );
#43 = PRESENTATION_STYLE_ASSIGNMENT( ( #93 ) );
#44 = ADVANCED_FACE( '', ( #94 ), #95, .F. );
#45 = PRESENTATION_STYLE_ASSIGNMENT( ( #96 ) );
#46 = ADVANCED_FACE( '', ( #97 ), #98, .F. );
#47 = PRESENTATION_STYLE_ASSIGNMENT( ( #99 ) );
#48 = ADVANCED_FACE( '', ( #100 ), #101, .T. );
#49 = PRESENTATION_STYLE_ASSIGNMENT( ( #102 ) );
#50 = ADVANCED_FACE( '', ( #103 ), #104, .T. );
#51 = PRESENTATION_STYLE_ASSIGNMENT( ( #105 ) );
#52 = ADVANCED_FACE( '', ( #106 ), #107, .T. );
#53 = PRESENTATION_STYLE_ASSIGNMENT( ( #108 ) );
#54 = ADVANCED_FACE( '', ( #109, #110 ), #111, .T. );
#55 = PRESENTATION_STYLE_ASSIGNMENT( ( #112 ) );
#56 = ADVANCED_FACE( '', ( #113, #114 ), #115, .T. );
#57 = PRESENTATION_STYLE_ASSIGNMENT( ( #116 ) );
#58 = ADVANCED_FACE( '', ( #117 ), #118, .T. );
#59 = PRESENTATION_STYLE_ASSIGNMENT( ( #119 ) );
#60 = ADVANCED_FACE( '', ( #120 ), #121, .F. );
#61 = PRESENTATION_STYLE_ASSIGNMENT( ( #122 ) );
#62 = ADVANCED_FACE( '', ( #123 ), #124, .F. );
#63 = PRESENTATION_STYLE_ASSIGNMENT( ( #125 ) );
#64 = ADVANCED_FACE( '', ( #126, #127, #128 ), #129, .F. );
#65 = PRODUCT( '_K0344.94', '_K0344.94', 'PART-_K0344.94-DESC', ( #130 ) );
#66 = PRODUCT_DEFINITION( 'NONE', 'NONE', #131, #2 );
#67 = MANIFOLD_SOLID_BREP( '_K0344.94', #132 );
#68 = AXIS2_PLACEMENT_3D( '', #133, #134, #135 );
#71 = LENGTH_MEASURE_WITH_UNIT( LENGTH_MEASURE( 1.00000000000000 ), #136 );
#74 = DIMENSIONAL_EXPONENTS( 1.00000000000000, 0.000000000000000, 0.000000000000000, 0.000000000000000, 0.000000000000000, 0.000000000000000, 0.000000000000000 );
#76 = DIMENSIONAL_EXPONENTS( 0.000000000000000, 0.000000000000000, 0.000000000000000, 0.000000000000000, 0.000000000000000, 0.000000000000000, 0.000000000000000 );
#82 = SURFACE_STYLE_USAGE( .BOTH., #137 );
#83 = FACE_OUTER_BOUND( '', #138, .T. );
#84 = PLANE( '', #139 );
#85 = SURFACE_STYLE_USAGE( .BOTH., #140 );
#86 = FACE_OUTER_BOUND( '', #141, .T. );
#87 = FACE_OUTER_BOUND( '', #142, .T. );
#88 = CYLINDRICAL_SURFACE( '', #143, 1.25000000000000 );
#89 = SURFACE_STYLE_USAGE( .BOTH., #144 );
#90 = FACE_OUTER_BOUND( '', #145, .T. );
#91 = FACE_OUTER_BOUND( '', #146, .T. );
#92 = CYLINDRICAL_SURFACE( '', #147, 1.25000000000000 );
#93 = SURFACE_STYLE_USAGE( .BOTH., #148 );
#94 = FACE_OUTER_BOUND( '', #149, .T. );
#95 = PLANE( '', #150 );
#96 = SURFACE_STYLE_USAGE( .BOTH., #151 );
#97 = FACE_OUTER_BOUND( '', #152, .T. );
#98 = PLANE( '', #153 );
#99 = SURFACE_STYLE_USAGE( .BOTH., #154 );
#100 = FACE_OUTER_BOUND( '', #155, .T. );
#101 = PLANE( '', #156 );
#102 = SURFACE_STYLE_USAGE( .BOTH., #157 );
#103 = FACE_OUTER_BOUND( '', #158, .T. );
#104 = CONICAL_SURFACE( '', #159, 14.0000000000000, 0.785398163400000 );
#105 = SURFACE_STYLE_USAGE( .BOTH., #160 );
#106 = FACE_OUTER_BOUND( '', #161, .T. );
#107 = CONICAL_SURFACE( '', #162, 13.5000000000000, 0.785398163400000 );
#108 = SURFACE_STYLE_USAGE( .BOTH., #163 );
#109 = FACE_BOUND( '', #164, .T. );
#110 = FACE_OUTER_BOUND( '', #165, .T. );
#111 = CONICAL_SURFACE( '', #166, 1.25000000000000, 0.261799387800000 );
#112 = SURFACE_STYLE_USAGE( .BOTH., #167 );
#113 = FACE_BOUND( '', #168, .T. );
#114 = FACE_OUTER_BOUND( '', #169, .T. );
#115 = CONICAL_SURFACE( '', #170, 1.25000000000000, 0.261799387800000 );
#116 = SURFACE_STYLE_USAGE( .BOTH., #171 );
#117 = FACE_OUTER_BOUND( '', #172, .T. );
#118 = CYLINDRICAL_SURFACE( '', #173, 14.0000000000000 );
#119 = SURFACE_STYLE_USAGE( .BOTH., #174 );
#120 = FACE_OUTER_BOUND( '', #175, .T. );
#121 = PLANE( '', #176 );
#122 = SURFACE_STYLE_USAGE( .BOTH., #177 );
#123 = FACE_OUTER_BOUND( '', #178, .T. );
#124 = CYLINDRICAL_SURFACE( '', #179, 5.00000000000000 );
#125 = SURFACE_STYLE_USAGE( .BOTH., #180 );
#126 = FACE_OUTER_BOUND( '', #181, .T. );
#127 = FACE_BOUND( '', #182, .T. );
#128 = FACE_BOUND( '', #183, .T. );
#129 = PLANE( '', #184 );
#130 = PRODUCT_CONTEXT( '', #24, 'mechanical' );
#131 = PRODUCT_DEFINITION_FORMATION_WITH_SPECIFIED_SOURCE( ' ', 'NONE', #65, .NOT_KNOWN. );
#132 = CLOSED_SHELL( '', ( #38, #52, #64, #40, #44, #56, #46, #42, #54, #60, #62, #48, #58, #50 ) );
#133 = CARTESIAN_POINT( '', ( 0.000000000000000, 0.000000000000000, 0.000000000000000 ) );
#134 = DIRECTION( '', ( 0.000000000000000, 0.000000000000000, 1.00000000000000 ) );
#135 = DIRECTION( '', ( 1.00000000000000, 0.000000000000000, 0.000000000000000 ) );
#136 =  ( LENGTH_UNIT(  )NAMED_UNIT( #74 )SI_UNIT( .MILLI., .METRE. ) );
#137 = SURFACE_SIDE_STYLE( '', ( #186 ) );
#138 = EDGE_LOOP( '', ( #187, #188, #189, #190, #191, #192 ) );
#139 = AXIS2_PLACEMENT_3D( '', #193, #194, #195 );
#140 = SURFACE_SIDE_STYLE( '', ( #196 ) );
#141 = EDGE_LOOP( '', ( #197 ) );
#142 = EDGE_LOOP( '', ( #198 ) );
#143 = AXIS2_PLACEMENT_3D( '', #199, #200, #201 );
#144 = SURFACE_SIDE_STYLE( '', ( #202 ) );
#145 = EDGE_LOOP( '', ( #203 ) );
#146 = EDGE_LOOP( '', ( #204 ) );
#147 = AXIS2_PLACEMENT_3D( '', #205, #206, #207 );
#148 = SURFACE_SIDE_STYLE( '', ( #208 ) );
#149 = EDGE_LOOP( '', ( #209, #210, #211, #212 ) );
#150 = AXIS2_PLACEMENT_3D( '', #213, #214, #215 );
#151 = SURFACE_SIDE_STYLE( '', ( #216 ) );
#152 = EDGE_LOOP( '', ( #217 ) );
#153 = AXIS2_PLACEMENT_3D( '', #218, #219, #220 );
#154 = SURFACE_SIDE_STYLE( '', ( #221 ) );
#155 = EDGE_LOOP( '', ( #222, #223, #224, #225, #226, #227 ) );
#156 = AXIS2_PLACEMENT_3D( '', #228, #229, #230 );
#157 = SURFACE_SIDE_STYLE( '', ( #231 ) );
#158 = EDGE_LOOP( '', ( #232, #233, #234, #235 ) );
#159 = AXIS2_PLACEMENT_3D( '', #236, #237, #238 );
#160 = SURFACE_SIDE_STYLE( '', ( #239 ) );
#161 = EDGE_LOOP( '', ( #240, #241, #242, #243 ) );
#162 = AXIS2_PLACEMENT_3D( '', #244, #245, #246 );
#163 = SURFACE_SIDE_STYLE( '', ( #247 ) );
#164 = EDGE_LOOP( '', ( #248 ) );
#165 = EDGE_LOOP( '', ( #249 ) );
#166 = AXIS2_PLACEMENT_3D( '', #250, #251, #252 );
#167 = SURFACE_SIDE_STYLE( '', ( #253 ) );
#168 = EDGE_LOOP( '', ( #254 ) );
#169 = EDGE_LOOP( '', ( #255 ) );
#170 = AXIS2_PLACEMENT_3D( '', #256, #257, #258 );
#171 = SURFACE_SIDE_STYLE( '', ( #259 ) );
#172 = EDGE_LOOP( '', ( #260, #261, #262, #263 ) );
#173 = AXIS2_PLACEMENT_3D( '', #264, #265, #266 );
#174 = SURFACE_SIDE_STYLE( '', ( #267 ) );
#175 = EDGE_LOOP( '', ( #268 ) );
#176 = AXIS2_PLACEMENT_3D( '', #269, #270, #271 );
#177 = SURFACE_SIDE_STYLE( '', ( #272 ) );
#178 = EDGE_LOOP( '', ( #273, #274, #275, #276 ) );
#179 = AXIS2_PLACEMENT_3D( '', #277, #278, #279 );
#180 = SURFACE_SIDE_STYLE( '', ( #280 ) );
#181 = EDGE_LOOP( '', ( #281, #282, #283, #284 ) );
#182 = EDGE_LOOP( '', ( #285 ) );
#183 = EDGE_LOOP( '', ( #286 ) );
#184 = AXIS2_PLACEMENT_3D( '', #287, #288, #289 );
#186 = SURFACE_STYLE_FILL_AREA( #290 );
#187 = ORIENTED_EDGE( '', *, *, #291, .T. );
#188 = ORIENTED_EDGE( '', *, *, #292, .T. );
#189 = ORIENTED_EDGE( '', *, *, #293, .T. );
#190 = ORIENTED_EDGE( '', *, *, #294, .T. );
#191 = ORIENTED_EDGE( '', *, *, #295, .T. );
#192 = ORIENTED_EDGE( '', *, *, #296, .T. );
#193 = CARTESIAN_POINT( '', ( 5.00000000000000, 5.00000000000000, 15.0000000000000 ) );
#194 = DIRECTION( '', ( -1.00000000000000, 0.000000000000000, 0.000000000000000 ) );
#195 = DIRECTION( '', ( 0.000000000000000, 0.000000000000000, 1.00000000000000 ) );
#196 = SURFACE_STYLE_FILL_AREA( #297 );
#197 = ORIENTED_EDGE( '', *, *, #298, .F. );
#198 = ORIENTED_EDGE( '', *, *, #299, .T. );
#199 = CARTESIAN_POINT( '', ( 7.75000000000000, -5.00000000000000, 0.000000000000000 ) );
#200 = DIRECTION( '', ( -0.000000000000000, 1.00000000000000, 0.000000000000000 ) );
#201 = DIRECTION( '', ( 0.000000000000000, 0.000000000000000, -1.00000000000000 ) );
#202 = SURFACE_STYLE_FILL_AREA( #300 );
#203 = ORIENTED_EDGE( '', *, *, #301, .F. );
#204 = ORIENTED_EDGE( '', *, *, #302, .T. );
#205 = CARTESIAN_POINT( '', ( -7.75000000000000, -5.00000000000000, 0.000000000000000 ) );
#206 = DIRECTION( '', ( -0.000000000000000, 1.00000000000000, 0.000000000000000 ) );
#207 = DIRECTION( '', ( 0.000000000000000, 0.000000000000000, -1.00000000000000 ) );
#208 = SURFACE_STYLE_FILL_AREA( #303 );
#209 = ORIENTED_EDGE( '', *, *, #292, .F. );
#210 = ORIENTED_EDGE( '', *, *, #304, .F. );
#211 = ORIENTED_EDGE( '', *, *, #305, .F. );
#212 = ORIENTED_EDGE( '', *, *, #306, .F. );
#213 = CARTESIAN_POINT( '', ( 0.000000000000000, 5.00000000000000, 0.000000000000000 ) );
#214 = DIRECTION( '', ( 0.000000000000000, -1.00000000000000, -0.000000000000000 ) );
#215 = DIRECTION( '', ( 0.000000000000000, 0.000000000000000, -1.00000000000000 ) );
#216 = SURFACE_STYLE_FILL_AREA( #307 );
#217 = ORIENTED_EDGE( '', *, *, #308, .T. );
#218 = CARTESIAN_POINT( '', ( 8.77670900630740, -5.00000000000000, 0.000000000000000 ) );
#219 = DIRECTION( '', ( 0.000000000000000, 1.00000000000000, 0.000000000000000 ) );
#220 = DIRECTION( '', ( 0.000000000000000, -0.000000000000000, 1.00000000000000 ) );
#221 = SURFACE_STYLE_FILL_AREA( #309 );
#222 = ORIENTED_EDGE( '', *, *, #310, .T. );
#223 = ORIENTED_EDGE( '', *, *, #311, .T. );
#224 = ORIENTED_EDGE( '', *, *, #312, .T. );
#225 = ORIENTED_EDGE( '', *, *, #313, .F. );
#226 = ORIENTED_EDGE( '', *, *, #314, .F. );
#227 = ORIENTED_EDGE( '', *, *, #305, .T. );
#228 = CARTESIAN_POINT( '', ( -5.00000000000000, 5.00000000000000, 0.000000000000000 ) );
#229 = DIRECTION( '', ( 1.00000000000000, 0.000000000000000, 0.000000000000000 ) );
#230 = DIRECTION( '', ( 0.000000000000000, 0.000000000000000, -1.00000000000000 ) );
#231 = SURFACE_STYLE_FILL_AREA( #315 );
#232 = ORIENTED_EDGE( '', *, *, #295, .F. );
#233 = ORIENTED_EDGE( '', *, *, #316, .F. );
#234 = ORIENTED_EDGE( '', *, *, #312, .F. );
#235 = ORIENTED_EDGE( '', *, *, #317, .T. );
#236 = CARTESIAN_POINT( '', ( 0.000000000000000, 0.500000000000000, 0.000000000000000 ) );
#237 = DIRECTION( '', ( -0.000000000000000, 1.00000000000000, 0.000000000000000 ) );
#238 = DIRECTION( '', ( 0.000000000000000, -0.000000000000000, 1.00000000000000 ) );
#239 = SURFACE_STYLE_FILL_AREA( #318 );
#240 = ORIENTED_EDGE( '', *, *, #291, .F. );
#241 = ORIENTED_EDGE( '', *, *, #319, .F. );
#242 = ORIENTED_EDGE( '', *, *, #310, .F. );
#243 = ORIENTED_EDGE( '', *, *, #304, .T. );
#244 = CARTESIAN_POINT( '', ( 0.000000000000000, 5.00000000000000, 0.000000000000000 ) );
#245 = DIRECTION( '', ( -0.000000000000000, -1.00000000000000, -0.000000000000000 ) );
#246 = DIRECTION( '', ( 0.000000000000000, 0.000000000000000, -1.00000000000000 ) );
#247 = SURFACE_STYLE_FILL_AREA( #320 );
#248 = ORIENTED_EDGE( '', *, *, #321, .F. );
#249 = ORIENTED_EDGE( '', *, *, #301, .T. );
#250 = CARTESIAN_POINT( '', ( -7.75000000000000, -4.16666666666667, 0.000000000000000 ) );
#251 = DIRECTION( '', ( -0.000000000000000, 1.00000000000000, 0.000000000000000 ) );
#252 = DIRECTION( '', ( 0.000000000000000, -0.000000000000000, 1.00000000000000 ) );
#253 = SURFACE_STYLE_FILL_AREA( #322 );
#254 = ORIENTED_EDGE( '', *, *, #308, .F. );
#255 = ORIENTED_EDGE( '', *, *, #298, .T. );
#256 = CARTESIAN_POINT( '', ( 7.75000000000000, -4.16666666666667, 0.000000000000000 ) );
#257 = DIRECTION( '', ( -0.000000000000000, 1.00000000000000, 0.000000000000000 ) );
#258 = DIRECTION( '', ( 0.000000000000000, -0.000000000000000, 1.00000000000000 ) );
#259 = SURFACE_STYLE_FILL_AREA( #323 );
#260 = ORIENTED_EDGE( '', *, *, #296, .F. );
#261 = ORIENTED_EDGE( '', *, *, #317, .F. );
#262 = ORIENTED_EDGE( '', *, *, #311, .F. );
#263 = ORIENTED_EDGE( '', *, *, #319, .T. );
#264 = CARTESIAN_POINT( '', ( 0.000000000000000, 0.000000000000000, 0.000000000000000 ) );
#265 = DIRECTION( '', ( -0.000000000000000, 1.00000000000000, 0.000000000000000 ) );
#266 = DIRECTION( '', ( 0.000000000000000, 0.000000000000000, -1.00000000000000 ) );
#267 = SURFACE_STYLE_FILL_AREA( #324 );
#268 = ORIENTED_EDGE( '', *, *, #321, .T. );
#269 = CARTESIAN_POINT( '', ( -6.72329099369260, -5.00000000000000, 0.000000000000000 ) );
#270 = DIRECTION( '', ( 0.000000000000000, 1.00000000000000, 0.000000000000000 ) );
#271 = DIRECTION( '', ( 0.000000000000000, -0.000000000000000, 1.00000000000000 ) );
#272 = SURFACE_STYLE_FILL_AREA( #325 );
#273 = ORIENTED_EDGE( '', *, *, #326, .F. );
#274 = ORIENTED_EDGE( '', *, *, #293, .F. );
#275 = ORIENTED_EDGE( '', *, *, #306, .T. );
#276 = ORIENTED_EDGE( '', *, *, #314, .T. );
#277 = CARTESIAN_POINT( '', ( 8.67361737988404E-16, 5.00000000000000, 8.67361737988404E-16 ) );
#278 = DIRECTION( '', ( -0.000000000000000, 1.00000000000000, 0.000000000000000 ) );
#279 = DIRECTION( '', ( 0.000000000000000, 0.000000000000000, -1.00000000000000 ) );
#280 = SURFACE_STYLE_FILL_AREA( #327 );
#281 = ORIENTED_EDGE( '', *, *, #294, .F. );
#282 = ORIENTED_EDGE( '', *, *, #326, .T. );
#283 = ORIENTED_EDGE( '', *, *, #313, .T. );
#284 = ORIENTED_EDGE( '', *, *, #316, .T. );
#285 = ORIENTED_EDGE( '', *, *, #299, .F. );
#286 = ORIENTED_EDGE( '', *, *, #302, .F. );
#287 = CARTESIAN_POINT( '', ( 13.5000000000000, 0.000000000000000, 0.000000000000000 ) );
#288 = DIRECTION( '', ( 0.000000000000000, 1.00000000000000, 0.000000000000000 ) );
#289 = DIRECTION( '', ( 0.000000000000000, -0.000000000000000, 1.00000000000000 ) );
#290 = FILL_AREA_STYLE( '', ( #328 ) );
#291 = EDGE_CURVE( '', #329, #330, #331, .T. );
#292 = EDGE_CURVE( '', #330, #332, #333, .T. );
#293 = EDGE_CURVE( '', #332, #334, #335, .T. );
#294 = EDGE_CURVE( '', #334, #336, #337, .T. );
#295 = EDGE_CURVE( '', #336, #338, #339, .T. );
#296 = EDGE_CURVE( '', #338, #329, #340, .F. );
#297 = FILL_AREA_STYLE( '', ( #341 ) );
#298 = EDGE_CURVE( '', #342, #342, #343, .T. );
#299 = EDGE_CURVE( '', #344, #344, #345, .F. );
#300 = FILL_AREA_STYLE( '', ( #346 ) );
#301 = EDGE_CURVE( '', #347, #347, #348, .T. );
#302 = EDGE_CURVE( '', #349, #349, #350, .F. );
#303 = FILL_AREA_STYLE( '', ( #351 ) );
#304 = EDGE_CURVE( '', #352, #330, #353, .T. );
#305 = EDGE_CURVE( '', #354, #352, #355, .T. );
#306 = EDGE_CURVE( '', #332, #354, #356, .T. );
#307 = FILL_AREA_STYLE( '', ( #357 ) );
#308 = EDGE_CURVE( '', #358, #358, #359, .T. );
#309 = FILL_AREA_STYLE( '', ( #360 ) );
#310 = EDGE_CURVE( '', #352, #361, #362, .T. );
#311 = EDGE_CURVE( '', #361, #363, #364, .T. );
#312 = EDGE_CURVE( '', #363, #365, #366, .T. );
#313 = EDGE_CURVE( '', #367, #365, #368, .T. );
#314 = EDGE_CURVE( '', #354, #367, #369, .T. );
#315 = FILL_AREA_STYLE( '', ( #370 ) );
#316 = EDGE_CURVE( '', #365, #336, #371, .T. );
#317 = EDGE_CURVE( '', #363, #338, #372, .T. );
#318 = FILL_AREA_STYLE( '', ( #373 ) );
#319 = EDGE_CURVE( '', #361, #329, #374, .T. );
#320 = FILL_AREA_STYLE( '', ( #375 ) );
#321 = EDGE_CURVE( '', #376, #376, #377, .T. );
#322 = FILL_AREA_STYLE( '', ( #378 ) );
#323 = FILL_AREA_STYLE( '', ( #379 ) );
#324 = FILL_AREA_STYLE( '', ( #380 ) );
#325 = FILL_AREA_STYLE( '', ( #381 ) );
#326 = EDGE_CURVE( '', #334, #367, #382, .T. );
#327 = FILL_AREA_STYLE( '', ( #383 ) );
#328 = FILL_AREA_STYLE_COLOUR( '', #384 );
#329 = VERTEX_POINT( '', #385 );
#330 = VERTEX_POINT( '', #386 );
#331 = B_SPLINE_CURVE_WITH_KNOTS( '', 3, ( #387, #388, #389, #390 ), .UNSPECIFIED., .F., .F., ( 4, 4 ), ( 0.0150079617770530, 0.0157414345844442 ), .UNSPECIFIED. );
#332 = VERTEX_POINT( '', #391 );
#333 = LINE( '', #392, #393 );
#334 = VERTEX_POINT( '', #394 );
#335 = LINE( '', #395, #396 );
#336 = VERTEX_POINT( '', #397 );
#337 = LINE( '', #398, #399 );
#338 = VERTEX_POINT( '', #400 );
#339 = B_SPLINE_CURVE_WITH_KNOTS( '', 3, ( #401, #402, #403, #404 ), .UNSPECIFIED., .F., .F., ( 4, 4 ), ( 0.00625749963081643, 0.00699094937000128 ), .UNSPECIFIED. );
#340 = LINE( '', #405, #406 );
#341 = FILL_AREA_STYLE_COLOUR( '', #407 );
#342 = VERTEX_POINT( '', #408 );
#343 = CIRCLE( '', #409, 1.25000000000000 );
#344 = VERTEX_POINT( '', #410 );
#345 = CIRCLE( '', #411, 1.25000000000000 );
#346 = FILL_AREA_STYLE_COLOUR( '', #412 );
#347 = VERTEX_POINT( '', #413 );
#348 = CIRCLE( '', #414, 1.25000000000000 );
#349 = VERTEX_POINT( '', #415 );
#350 = CIRCLE( '', #416, 1.25000000000000 );
#351 = FILL_AREA_STYLE_COLOUR( '', #417 );
#352 = VERTEX_POINT( '', #418 );
#353 = CIRCLE( '', #419, 13.5000000000000 );
#354 = VERTEX_POINT( '', #420 );
#355 = LINE( '', #421, #422 );
#356 = CIRCLE( '', #423, 5.00000000000000 );
#357 = FILL_AREA_STYLE_COLOUR( '', #424 );
#358 = VERTEX_POINT( '', #425 );
#359 = CIRCLE( '', #426, 1.02670900630000 );
#360 = FILL_AREA_STYLE_COLOUR( '', #427 );
#361 = VERTEX_POINT( '', #428 );
#362 = B_SPLINE_CURVE_WITH_KNOTS( '', 3, ( #429, #430, #431, #432 ), .UNSPECIFIED., .F., .F., ( 4, 4 ), ( 0.00625749963081644, 0.00699094937000128 ), .UNSPECIFIED. );
#363 = VERTEX_POINT( '', #433 );
#364 = LINE( '', #434, #435 );
#365 = VERTEX_POINT( '', #436 );
#366 = B_SPLINE_CURVE_WITH_KNOTS( '', 3, ( #437, #438, #439, #440 ), .UNSPECIFIED., .F., .F., ( 4, 4 ), ( 0.0150079617770530, 0.0157414345844442 ), .UNSPECIFIED. );
#367 = VERTEX_POINT( '', #441 );
#368 = LINE( '', #442, #443 );
#369 = LINE( '', #444, #445 );
#370 = FILL_AREA_STYLE_COLOUR( '', #446 );
#371 = CIRCLE( '', #447, 13.5000000000000 );
#372 = CIRCLE( '', #448, 14.0000000000000 );
#373 = FILL_AREA_STYLE_COLOUR( '', #449 );
#374 = CIRCLE( '', #450, 14.0000000000000 );
#375 = FILL_AREA_STYLE_COLOUR( '', #451 );
#376 = VERTEX_POINT( '', #452 );
#377 = CIRCLE( '', #453, 1.02670900630000 );
#378 = FILL_AREA_STYLE_COLOUR( '', #454 );
#379 = FILL_AREA_STYLE_COLOUR( '', #455 );
#380 = FILL_AREA_STYLE_COLOUR( '', #456 );
#381 = FILL_AREA_STYLE_COLOUR( '', #457 );
#382 = CIRCLE( '', #458, 5.00000000000000 );
#383 = FILL_AREA_STYLE_COLOUR( '', #459 );
#384 = COLOUR_RGB( '', 0.689999997600000, 0.689999997600000, 0.689999997600000 );
#385 = CARTESIAN_POINT( '', ( 5.00000000000000, 4.50000000000000, 13.0766968306220 ) );
#386 = CARTESIAN_POINT( '', ( 5.00000000000000, 5.00000000000000, 12.5399362039845 ) );
#387 = CARTESIAN_POINT( '', ( 5.00000000000000, 4.50000000000000, 13.0766968306220 ) );
#388 = CARTESIAN_POINT( '', ( 5.00000000000000, 4.66690577106848, 12.8980063841564 ) );
#389 = CARTESIAN_POINT( '', ( 5.00000000000000, 4.83358194378990, 12.7190953099233 ) );
#390 = CARTESIAN_POINT( '', ( 5.00000000000000, 5.00000000000000, 12.5399362039845 ) );
#391 = CARTESIAN_POINT( '', ( 5.00000000000000, 5.00000000000000, 0.000000000000000 ) );
#392 = CARTESIAN_POINT( '', ( 5.00000000000000, 5.00000000000000, 15.0000000000000 ) );
#393 = VECTOR( '', #460, 1000.00000000000 );
#394 = CARTESIAN_POINT( '', ( 5.00000000000000, 0.000000000000000, 0.000000000000000 ) );
#395 = CARTESIAN_POINT( '', ( 5.00000000000000, 5.00000000000000, 0.000000000000000 ) );
#396 = VECTOR( '', #461, 1000.00000000000 );
#397 = CARTESIAN_POINT( '', ( 5.00000000000000, 0.000000000000000, 12.5399362039845 ) );
#398 = CARTESIAN_POINT( '', ( 5.00000000000000, 0.000000000000000, 0.000000000000000 ) );
#399 = VECTOR( '', #462, 1000.00000000000 );
#400 = CARTESIAN_POINT( '', ( 5.00000000000000, 0.500000000000000, 13.0766968306220 ) );
#401 = CARTESIAN_POINT( '', ( 5.00000000000000, 5.37483329074879E-16, 12.5399362039845 ) );
#402 = CARTESIAN_POINT( '', ( 5.00000000000000, 0.166418056210101, 12.7190953099233 ) );
#403 = CARTESIAN_POINT( '', ( 5.00000000000000, 0.333094228931517, 12.8980063841564 ) );
#404 = CARTESIAN_POINT( '', ( 5.00000000000000, 0.500000000000000, 13.0766968306220 ) );
#405 = CARTESIAN_POINT( '', ( 5.00000000000000, 0.000000000000000, 13.0766968306220 ) );
#406 = VECTOR( '', #463, 1000.00000000000 );
#407 = COLOUR_RGB( '', 0.689999997600000, 0.689999997600000, 0.689999997600000 );
#408 = CARTESIAN_POINT( '', ( 7.75000000000000, -4.16666666666667, -1.25000000000000 ) );
#409 = AXIS2_PLACEMENT_3D( '', #464, #465, #466 );
#410 = CARTESIAN_POINT( '', ( 7.75000000000000, 0.000000000000000, 1.25000000000000 ) );
#411 = AXIS2_PLACEMENT_3D( '', #467, #468, #469 );
#412 = COLOUR_RGB( '', 0.689999997600000, 0.689999997600000, 0.689999997600000 );
#413 = CARTESIAN_POINT( '', ( -7.75000000000000, -4.16666666666667, -1.25000000000000 ) );
#414 = AXIS2_PLACEMENT_3D( '', #470, #471, #472 );
#415 = CARTESIAN_POINT( '', ( -7.75000000000000, 0.000000000000000, 1.25000000000000 ) );
#416 = AXIS2_PLACEMENT_3D( '', #473, #474, #475 );
#417 = COLOUR_RGB( '', 0.689999997600000, 0.689999997600000, 0.689999997600000 );
#418 = CARTESIAN_POINT( '', ( -5.00000000000000, 5.00000000000000, 12.5399362039845 ) );
#419 = AXIS2_PLACEMENT_3D( '', #476, #477, #478 );
#420 = CARTESIAN_POINT( '', ( -5.00000000000000, 5.00000000000000, 0.000000000000000 ) );
#421 = CARTESIAN_POINT( '', ( -5.00000000000000, 5.00000000000000, 0.000000000000000 ) );
#422 = VECTOR( '', #479, 1000.00000000000 );
#423 = AXIS2_PLACEMENT_3D( '', #480, #481, #482 );
#424 = COLOUR_RGB( '', 0.689999997600000, 0.689999997600000, 0.689999997600000 );
#425 = CARTESIAN_POINT( '', ( 7.75000000000000, -5.00000000000000, -1.02670900630740 ) );
#426 = AXIS2_PLACEMENT_3D( '', #483, #484, #485 );
#427 = COLOUR_RGB( '', 0.689999997600000, 0.689999997600000, 0.689999997600000 );
#428 = CARTESIAN_POINT( '', ( -5.00000000000000, 4.50000000000000, 13.0766968306220 ) );
#429 = CARTESIAN_POINT( '', ( -5.00000000000000, 5.00000000000000, 12.5399362039845 ) );
#430 = CARTESIAN_POINT( '', ( -5.00000000000000, 4.83358194378990, 12.7190953099233 ) );
#431 = CARTESIAN_POINT( '', ( -5.00000000000000, 4.66690577106848, 12.8980063841565 ) );
#432 = CARTESIAN_POINT( '', ( -5.00000000000000, 4.50000000000000, 13.0766968306220 ) );
#433 = CARTESIAN_POINT( '', ( -5.00000000000000, 0.500000000000000, 13.0766968306220 ) );
#434 = CARTESIAN_POINT( '', ( -5.00000000000000, 0.000000000000000, 13.0766968306220 ) );
#435 = VECTOR( '', #486, 1000.00000000000 );
#436 = CARTESIAN_POINT( '', ( -5.00000000000000, 0.000000000000000, 12.5399362039845 ) );
#437 = CARTESIAN_POINT( '', ( -5.00000000000000, 0.500000000000004, 13.0766968306220 ) );
#438 = CARTESIAN_POINT( '', ( -5.00000000000000, 0.333094228931520, 12.8980063841565 ) );
#439 = CARTESIAN_POINT( '', ( -5.00000000000000, 0.166418056210104, 12.7190953099233 ) );
#440 = CARTESIAN_POINT( '', ( -5.00000000000000, 2.16078989529277E-15, 12.5399362039845 ) );
#441 = CARTESIAN_POINT( '', ( -5.00000000000000, 0.000000000000000, 0.000000000000000 ) );
#442 = CARTESIAN_POINT( '', ( -5.00000000000000, 0.000000000000000, 0.000000000000000 ) );
#443 = VECTOR( '', #487, 1000.00000000000 );
#444 = CARTESIAN_POINT( '', ( -5.00000000000000, 5.00000000000000, 0.000000000000000 ) );
#445 = VECTOR( '', #488, 1000.00000000000 );
#446 = COLOUR_RGB( '', 0.689999997600000, 0.689999997600000, 0.689999997600000 );
#447 = AXIS2_PLACEMENT_3D( '', #489, #490, #491 );
#448 = AXIS2_PLACEMENT_3D( '', #492, #493, #494 );
#449 = COLOUR_RGB( '', 0.689999997600000, 0.689999997600000, 0.689999997600000 );
#450 = AXIS2_PLACEMENT_3D( '', #495, #496, #497 );
#451 = COLOUR_RGB( '', 0.689999997600000, 0.689999997600000, 0.689999997600000 );
#452 = CARTESIAN_POINT( '', ( -7.75000000000000, -5.00000000000000, -1.02670900630740 ) );
#453 = AXIS2_PLACEMENT_3D( '', #498, #499, #500 );
#454 = COLOUR_RGB( '', 0.689999997600000, 0.689999997600000, 0.689999997600000 );
#455 = COLOUR_RGB( '', 0.689999997600000, 0.689999997600000, 0.689999997600000 );
#456 = COLOUR_RGB( '', 0.689999997600000, 0.689999997600000, 0.689999997600000 );
#457 = COLOUR_RGB( '', 0.689999997600000, 0.689999997600000, 0.689999997600000 );
#458 = AXIS2_PLACEMENT_3D( '', #501, #502, #503 );
#459 = COLOUR_RGB( '', 0.689999997600000, 0.689999997600000, 0.689999997600000 );
#460 = DIRECTION( '', ( 0.000000000000000, 0.000000000000000, -1.00000000000000 ) );
#461 = DIRECTION( '', ( -0.000000000000000, -1.00000000000000, -0.000000000000000 ) );
#462 = DIRECTION( '', ( 0.000000000000000, -0.000000000000000, 1.00000000000000 ) );
#463 = DIRECTION( '', ( -0.000000000000000, -1.00000000000000, -0.000000000000000 ) );
#464 = CARTESIAN_POINT( '', ( 7.75000000000000, -4.16666666666667, 0.000000000000000 ) );
#465 = DIRECTION( '', ( 0.000000000000000, -1.00000000000000, -0.000000000000000 ) );
#466 = DIRECTION( '', ( 0.000000000000000, 0.000000000000000, -1.00000000000000 ) );
#467 = CARTESIAN_POINT( '', ( 7.75000000000000, 0.000000000000000, 0.000000000000000 ) );
#468 = DIRECTION( '', ( 0.000000000000000, 1.00000000000000, 0.000000000000000 ) );
#469 = DIRECTION( '', ( 0.000000000000000, -0.000000000000000, 1.00000000000000 ) );
#470 = CARTESIAN_POINT( '', ( -7.75000000000000, -4.16666666666667, 0.000000000000000 ) );
#471 = DIRECTION( '', ( 0.000000000000000, -1.00000000000000, -0.000000000000000 ) );
#472 = DIRECTION( '', ( 0.000000000000000, 0.000000000000000, -1.00000000000000 ) );
#473 = CARTESIAN_POINT( '', ( -7.75000000000000, 0.000000000000000, 0.000000000000000 ) );
#474 = DIRECTION( '', ( 0.000000000000000, 1.00000000000000, 0.000000000000000 ) );
#475 = DIRECTION( '', ( 0.000000000000000, -0.000000000000000, 1.00000000000000 ) );
#476 = CARTESIAN_POINT( '', ( 0.000000000000000, 5.00000000000000, 0.000000000000000 ) );
#477 = DIRECTION( '', ( 0.000000000000000, -1.00000000000000, -0.000000000000000 ) );
#478 = DIRECTION( '', ( 0.000000000000000, 0.000000000000000, -1.00000000000000 ) );
#479 = DIRECTION( '', ( 0.000000000000000, 0.000000000000000, 1.00000000000000 ) );
#480 = CARTESIAN_POINT( '', ( 0.000000000000000, 5.00000000000000, 4.33680868994202E-16 ) );
#481 = DIRECTION( '', ( -0.000000000000000, 1.00000000000000, 0.000000000000000 ) );
#482 = DIRECTION( '', ( 1.00000000000000, 0.000000000000000, 0.000000000000000 ) );
#483 = CARTESIAN_POINT( '', ( 7.75000000000000, -5.00000000000000, 0.000000000000000 ) );
#484 = DIRECTION( '', ( 0.000000000000000, -1.00000000000000, -0.000000000000000 ) );
#485 = DIRECTION( '', ( 0.000000000000000, 0.000000000000000, -1.00000000000000 ) );
#486 = DIRECTION( '', ( -0.000000000000000, -1.00000000000000, -0.000000000000000 ) );
#487 = DIRECTION( '', ( 0.000000000000000, 0.000000000000000, 1.00000000000000 ) );
#488 = DIRECTION( '', ( -0.000000000000000, -1.00000000000000, -0.000000000000000 ) );
#489 = CARTESIAN_POINT( '', ( 0.000000000000000, 0.000000000000000, 0.000000000000000 ) );
#490 = DIRECTION( '', ( 0.000000000000000, -1.00000000000000, -0.000000000000000 ) );
#491 = DIRECTION( '', ( 0.000000000000000, 0.000000000000000, -1.00000000000000 ) );
#492 = CARTESIAN_POINT( '', ( 0.000000000000000, 0.500000000000000, 0.000000000000000 ) );
#493 = DIRECTION( '', ( 0.000000000000000, -1.00000000000000, -0.000000000000000 ) );
#494 = DIRECTION( '', ( 0.000000000000000, 0.000000000000000, -1.00000000000000 ) );
#495 = CARTESIAN_POINT( '', ( 0.000000000000000, 4.50000000000000, 0.000000000000000 ) );
#496 = DIRECTION( '', ( 0.000000000000000, -1.00000000000000, -0.000000000000000 ) );
#497 = DIRECTION( '', ( 0.000000000000000, 0.000000000000000, -1.00000000000000 ) );
#498 = CARTESIAN_POINT( '', ( -7.75000000000000, -5.00000000000000, 0.000000000000000 ) );
#499 = DIRECTION( '', ( 0.000000000000000, -1.00000000000000, -0.000000000000000 ) );
#500 = DIRECTION( '', ( 0.000000000000000, 0.000000000000000, -1.00000000000000 ) );
#501 = CARTESIAN_POINT( '', ( 8.67361737988404E-16, 0.000000000000000, 8.67361737988404E-16 ) );
#502 = DIRECTION( '', ( -0.000000000000000, 1.00000000000000, 0.000000000000000 ) );
#503 = DIRECTION( '', ( 1.00000000000000, 0.000000000000000, 0.000000000000000 ) );
ENDSEC;
END-ISO-10303-21;
