ISO-10303-21;
HEADER;
FILE_DESCRIPTION( ( 'STEP AP214' ), '1' );
FILE_NAME( '//goodhand-server/Shared Folders/GoodHand Data/Kipp CAD/K0713/K0713.0805.stp', '2020-12-09T12:39:06', ( '' ), ( '' ), ' ', 'PARTsolutions', ' ' );
FILE_SCHEMA( ( 'AUTOMOTIVE_DESIGN { 1 0 10303 214 1 1 1 1 }' ) );
ENDSEC;
DATA;
#1 = MECHANICAL_DESIGN_GEOMETRIC_PRESENTATION_REPRESENTATION( ' ', ( #10, #11, #12, #13, #14, #15, #16, #17, #18, #19, #20 ), #6 );
#2 = PRODUCT_DEFINITION_CONTEXT( '', #21, 'design' );
#3 = APPLICATION_PROTOCOL_DEFINITION( 'international standard', 'automotive_design', 2001, #21 );
#4 = PRODUCT_CATEGORY_RELATIONSHIP( 'NONE', 'NONE', #22, #23 );
#5 = SHAPE_DEFINITION_REPRESENTATION( #24, #25 );
#6 =  ( GEOMETRIC_REPRESENTATION_CONTEXT( 3 )GLOBAL_UNCERTAINTY_ASSIGNED_CONTEXT( ( #28 ) )GLOBAL_UNIT_ASSIGNED_CONTEXT( ( #30, #31, #32 ) )REPRESENTATION_CONTEXT( 'NONE', 'WORKSPACE' ) );
#10 = STYLED_ITEM( '', ( #34 ), #35 );
#11 = STYLED_ITEM( '', ( #36 ), #37 );
#12 = STYLED_ITEM( '', ( #38 ), #39 );
#13 = STYLED_ITEM( '', ( #40 ), #41 );
#14 = STYLED_ITEM( '', ( #42 ), #43 );
#15 = STYLED_ITEM( '', ( #44 ), #45 );
#16 = STYLED_ITEM( '', ( #46 ), #47 );
#17 = STYLED_ITEM( '', ( #48 ), #49 );
#18 = STYLED_ITEM( '', ( #50 ), #51 );
#19 = STYLED_ITEM( '', ( #52 ), #53 );
#20 = STYLED_ITEM( '', ( #54 ), #55 );
#21 = APPLICATION_CONTEXT( 'core data for automotive mechanical design processes' );
#22 = PRODUCT_CATEGORY( 'part', 'NONE' );
#23 = PRODUCT_RELATED_PRODUCT_CATEGORY( 'detail', ' ', ( #56 ) );
#24 = PRODUCT_DEFINITION_SHAPE( 'NONE', 'NONE', #57 );
#25 = ADVANCED_BREP_SHAPE_REPRESENTATION( '_K0713.0805', ( #58, #59 ), #6 );
#28 = UNCERTAINTY_MEASURE_WITH_UNIT( LENGTH_MEASURE( 0.00100000000000000 ), #30, '', '' );
#30 =  ( CONVERSION_BASED_UNIT( 'MILLIMETRE', #62 )LENGTH_UNIT(  )NAMED_UNIT( #65 ) );
#31 =  ( NAMED_UNIT( #67 )PLANE_ANGLE_UNIT(  )SI_UNIT( $, .RADIAN. ) );
#32 =  ( NAMED_UNIT( #67 )SI_UNIT( $, .STERADIAN. )SOLID_ANGLE_UNIT(  ) );
#34 = PRESENTATION_STYLE_ASSIGNMENT( ( #73 ) );
#35 = ADVANCED_FACE( '', ( #74 ), #75, .T. );
#36 = PRESENTATION_STYLE_ASSIGNMENT( ( #76 ) );
#37 = ADVANCED_FACE( '', ( #77 ), #78, .T. );
#38 = PRESENTATION_STYLE_ASSIGNMENT( ( #79 ) );
#39 = ADVANCED_FACE( '', ( #80 ), #81, .F. );
#40 = PRESENTATION_STYLE_ASSIGNMENT( ( #82 ) );
#41 = ADVANCED_FACE( '', ( #83, #84 ), #85, .T. );
#42 = PRESENTATION_STYLE_ASSIGNMENT( ( #86 ) );
#43 = ADVANCED_FACE( '', ( #87, #88 ), #89, .T. );
#44 = PRESENTATION_STYLE_ASSIGNMENT( ( #90 ) );
#45 = ADVANCED_FACE( '', ( #91, #92 ), #93, .T. );
#46 = PRESENTATION_STYLE_ASSIGNMENT( ( #94 ) );
#47 = ADVANCED_FACE( '', ( #95, #96 ), #97, .T. );
#48 = PRESENTATION_STYLE_ASSIGNMENT( ( #98 ) );
#49 = ADVANCED_FACE( '', ( #99, #100 ), #101, .F. );
#50 = PRESENTATION_STYLE_ASSIGNMENT( ( #102 ) );
#51 = ADVANCED_FACE( '', ( #103, #104 ), #105, .F. );
#52 = PRESENTATION_STYLE_ASSIGNMENT( ( #106 ) );
#53 = ADVANCED_FACE( '', ( #107 ), #108, .T. );
#54 = PRESENTATION_STYLE_ASSIGNMENT( ( #109 ) );
#55 = ADVANCED_FACE( '', ( #110 ), #111, .T. );
#56 = PRODUCT( '_K0713.0805', '_K0713.0805', 'PART-_K0713.0805-DESC', ( #112 ) );
#57 = PRODUCT_DEFINITION( 'NONE', 'NONE', #113, #2 );
#58 = MANIFOLD_SOLID_BREP( '_K0713.0805', #114 );
#59 = AXIS2_PLACEMENT_3D( '', #115, #116, #117 );
#62 = LENGTH_MEASURE_WITH_UNIT( LENGTH_MEASURE( 1.00000000000000 ), #118 );
#65 = DIMENSIONAL_EXPONENTS( 1.00000000000000, 0.000000000000000, 0.000000000000000, 0.000000000000000, 0.000000000000000, 0.000000000000000, 0.000000000000000 );
#67 = DIMENSIONAL_EXPONENTS( 0.000000000000000, 0.000000000000000, 0.000000000000000, 0.000000000000000, 0.000000000000000, 0.000000000000000, 0.000000000000000 );
#73 = SURFACE_STYLE_USAGE( .BOTH., #119 );
#74 = FACE_OUTER_BOUND( '', #120, .T. );
#75 = CYLINDRICAL_SURFACE( '', #121, 4.00000000000000 );
#76 = SURFACE_STYLE_USAGE( .BOTH., #122 );
#77 = FACE_OUTER_BOUND( '', #123, .T. );
#78 = PLANE( '', #124 );
#79 = SURFACE_STYLE_USAGE( .BOTH., #125 );
#80 = FACE_OUTER_BOUND( '', #126, .T. );
#81 = PLANE( '', #127 );
#82 = SURFACE_STYLE_USAGE( .BOTH., #128 );
#83 = FACE_BOUND( '', #129, .T. );
#84 = FACE_OUTER_BOUND( '', #130, .T. );
#85 = SPHERICAL_SURFACE( '', #131, 3.57372549020000 );
#86 = SURFACE_STYLE_USAGE( .BOTH., #132 );
#87 = FACE_OUTER_BOUND( '', #133, .T. );
#88 = FACE_OUTER_BOUND( '', #134, .T. );
#89 = CYLINDRICAL_SURFACE( '', #135, 2.50000000000000 );
#90 = SURFACE_STYLE_USAGE( .BOTH., #136 );
#91 = FACE_OUTER_BOUND( '', #137, .T. );
#92 = FACE_BOUND( '', #138, .T. );
#93 = CONICAL_SURFACE( '', #139, 1.74355957740000, 0.207109363600000 );
#94 = SURFACE_STYLE_USAGE( .BOTH., #140 );
#95 = FACE_OUTER_BOUND( '', #141, .T. );
#96 = FACE_OUTER_BOUND( '', #142, .T. );
#97 = SPHERICAL_SURFACE( '', #143, 4.00000000000000 );
#98 = SURFACE_STYLE_USAGE( .BOTH., #144 );
#99 = FACE_BOUND( '', #145, .T. );
#100 = FACE_OUTER_BOUND( '', #146, .T. );
#101 = PLANE( '', #147 );
#102 = SURFACE_STYLE_USAGE( .BOTH., #148 );
#103 = FACE_OUTER_BOUND( '', #149, .T. );
#104 = FACE_BOUND( '', #150, .T. );
#105 = PLANE( '', #151 );
#106 = SURFACE_STYLE_USAGE( .BOTH., #152 );
#107 = FACE_OUTER_BOUND( '', #153, .T. );
#108 = CYLINDRICAL_SURFACE( '', #154, 4.00000000000000 );
#109 = SURFACE_STYLE_USAGE( .BOTH., #155 );
#110 = FACE_OUTER_BOUND( '', #156, .T. );
#111 = PLANE( '', #157 );
#112 = PRODUCT_CONTEXT( '', #21, 'mechanical' );
#113 = PRODUCT_DEFINITION_FORMATION_WITH_SPECIFIED_SOURCE( ' ', 'NONE', #56, .NOT_KNOWN. );
#114 = CLOSED_SHELL( '', ( #43, #49, #53, #35, #51, #45, #47, #39, #41, #55, #37 ) );
#115 = CARTESIAN_POINT( '', ( 0.000000000000000, 0.000000000000000, 0.000000000000000 ) );
#116 = DIRECTION( '', ( 0.000000000000000, 0.000000000000000, 1.00000000000000 ) );
#117 = DIRECTION( '', ( 1.00000000000000, 0.000000000000000, 0.000000000000000 ) );
#118 =  ( LENGTH_UNIT(  )NAMED_UNIT( #65 )SI_UNIT( .MILLI., .METRE. ) );
#119 = SURFACE_SIDE_STYLE( '', ( #159 ) );
#120 = EDGE_LOOP( '', ( #160, #161, #162, #163 ) );
#121 = AXIS2_PLACEMENT_3D( '', #164, #165, #166 );
#122 = SURFACE_SIDE_STYLE( '', ( #167 ) );
#123 = EDGE_LOOP( '', ( #168, #169, #170, #171 ) );
#124 = AXIS2_PLACEMENT_3D( '', #172, #173, #174 );
#125 = SURFACE_SIDE_STYLE( '', ( #175 ) );
#126 = EDGE_LOOP( '', ( #176 ) );
#127 = AXIS2_PLACEMENT_3D( '', #177, #178, #179 );
#128 = SURFACE_SIDE_STYLE( '', ( #180 ) );
#129 = VERTEX_LOOP( '', #181 );
#130 = EDGE_LOOP( '', ( #182 ) );
#131 = AXIS2_PLACEMENT_3D( '', #183, #184, #185 );
#132 = SURFACE_SIDE_STYLE( '', ( #186 ) );
#133 = EDGE_LOOP( '', ( #187 ) );
#134 = EDGE_LOOP( '', ( #188 ) );
#135 = AXIS2_PLACEMENT_3D( '', #189, #190, #191 );
#136 = SURFACE_SIDE_STYLE( '', ( #192 ) );
#137 = EDGE_LOOP( '', ( #193 ) );
#138 = EDGE_LOOP( '', ( #194 ) );
#139 = AXIS2_PLACEMENT_3D( '', #195, #196, #197 );
#140 = SURFACE_SIDE_STYLE( '', ( #198 ) );
#141 = EDGE_LOOP( '', ( #199 ) );
#142 = EDGE_LOOP( '', ( #200 ) );
#143 = AXIS2_PLACEMENT_3D( '', #201, #202, #203 );
#144 = SURFACE_SIDE_STYLE( '', ( #204 ) );
#145 = EDGE_LOOP( '', ( #205 ) );
#146 = EDGE_LOOP( '', ( #206, #207, #208, #209 ) );
#147 = AXIS2_PLACEMENT_3D( '', #210, #211, #212 );
#148 = SURFACE_SIDE_STYLE( '', ( #213 ) );
#149 = EDGE_LOOP( '', ( #214, #215, #216, #217 ) );
#150 = EDGE_LOOP( '', ( #218 ) );
#151 = AXIS2_PLACEMENT_3D( '', #219, #220, #221 );
#152 = SURFACE_SIDE_STYLE( '', ( #222 ) );
#153 = EDGE_LOOP( '', ( #223, #224, #225, #226 ) );
#154 = AXIS2_PLACEMENT_3D( '', #227, #228, #229 );
#155 = SURFACE_SIDE_STYLE( '', ( #230 ) );
#156 = EDGE_LOOP( '', ( #231, #232, #233, #234 ) );
#157 = AXIS2_PLACEMENT_3D( '', #235, #236, #237 );
#159 = SURFACE_STYLE_FILL_AREA( #238 );
#160 = ORIENTED_EDGE( '', *, *, #239, .F. );
#161 = ORIENTED_EDGE( '', *, *, #240, .F. );
#162 = ORIENTED_EDGE( '', *, *, #241, .F. );
#163 = ORIENTED_EDGE( '', *, *, #242, .T. );
#164 = CARTESIAN_POINT( '', ( 19.2000000000000, 0.000000000000000, 0.000000000000000 ) );
#165 = DIRECTION( '', ( -1.00000000000000, -0.000000000000000, 0.000000000000000 ) );
#166 = DIRECTION( '', ( -0.000000000000000, 0.000000000000000, -1.00000000000000 ) );
#167 = SURFACE_STYLE_FILL_AREA( #243 );
#168 = ORIENTED_EDGE( '', *, *, #244, .T. );
#169 = ORIENTED_EDGE( '', *, *, #245, .T. );
#170 = ORIENTED_EDGE( '', *, *, #246, .T. );
#171 = ORIENTED_EDGE( '', *, *, #239, .T. );
#172 = CARTESIAN_POINT( '', ( 3.20000000000000, -3.50000000000000, -3.50000000000000 ) );
#173 = DIRECTION( '', ( 0.000000000000000, 0.000000000000000, -1.00000000000000 ) );
#174 = DIRECTION( '', ( -1.00000000000000, 0.000000000000000, 0.000000000000000 ) );
#175 = SURFACE_STYLE_FILL_AREA( #247 );
#176 = ORIENTED_EDGE( '', *, *, #248, .F. );
#177 = CARTESIAN_POINT( '', ( -3.20000000000000, 0.000000000000000, 0.000000000000000 ) );
#178 = DIRECTION( '', ( 1.00000000000000, 0.000000000000000, -0.000000000000000 ) );
#179 = DIRECTION( '', ( -0.000000000000000, 0.000000000000000, -1.00000000000000 ) );
#180 = SURFACE_STYLE_FILL_AREA( #249 );
#181 = VERTEX_POINT( '', #250 );
#182 = ORIENTED_EDGE( '', *, *, #251, .T. );
#183 = CARTESIAN_POINT( '', ( 15.6262745098039, -9.75781955236954E-15, 0.000000000000000 ) );
#184 = DIRECTION( '', ( 1.00000000000000, 0.000000000000000, 0.000000000000000 ) );
#185 = DIRECTION( '', ( 0.000000000000000, 1.00000000000000, 0.000000000000000 ) );
#186 = SURFACE_STYLE_FILL_AREA( #252 );
#187 = ORIENTED_EDGE( '', *, *, #251, .F. );
#188 = ORIENTED_EDGE( '', *, *, #253, .T. );
#189 = CARTESIAN_POINT( '', ( 19.2000000000000, 0.000000000000000, 0.000000000000000 ) );
#190 = DIRECTION( '', ( -1.00000000000000, -0.000000000000000, 0.000000000000000 ) );
#191 = DIRECTION( '', ( -0.000000000000000, 0.000000000000000, -1.00000000000000 ) );
#192 = SURFACE_STYLE_FILL_AREA( #254 );
#193 = ORIENTED_EDGE( '', *, *, #255, .F. );
#194 = ORIENTED_EDGE( '', *, *, #256, .T. );
#195 = CARTESIAN_POINT( '', ( 3.60000000000000, 0.000000000000000, 0.000000000000000 ) );
#196 = DIRECTION( '', ( 1.00000000000000, -0.000000000000000, -0.000000000000000 ) );
#197 = DIRECTION( '', ( -0.000000000000000, 0.000000000000000, -1.00000000000000 ) );
#198 = SURFACE_STYLE_FILL_AREA( #257 );
#199 = ORIENTED_EDGE( '', *, *, #248, .T. );
#200 = ORIENTED_EDGE( '', *, *, #256, .F. );
#201 = CARTESIAN_POINT( '', ( 0.000000000000000, -8.67361737988404E-16, 0.000000000000000 ) );
#202 = DIRECTION( '', ( 1.00000000000000, 0.000000000000000, 0.000000000000000 ) );
#203 = DIRECTION( '', ( 0.000000000000000, 1.00000000000000, 0.000000000000000 ) );
#204 = SURFACE_STYLE_FILL_AREA( #258 );
#205 = ORIENTED_EDGE( '', *, *, #253, .F. );
#206 = ORIENTED_EDGE( '', *, *, #246, .F. );
#207 = ORIENTED_EDGE( '', *, *, #259, .T. );
#208 = ORIENTED_EDGE( '', *, *, #260, .F. );
#209 = ORIENTED_EDGE( '', *, *, #240, .T. );
#210 = CARTESIAN_POINT( '', ( 9.00000000000000, 4.00000000000000, 0.000000000000000 ) );
#211 = DIRECTION( '', ( -1.00000000000000, 0.000000000000000, 0.000000000000000 ) );
#212 = DIRECTION( '', ( 0.000000000000000, 0.000000000000000, 1.00000000000000 ) );
#213 = SURFACE_STYLE_FILL_AREA( #261 );
#214 = ORIENTED_EDGE( '', *, *, #262, .F. );
#215 = ORIENTED_EDGE( '', *, *, #244, .F. );
#216 = ORIENTED_EDGE( '', *, *, #242, .F. );
#217 = ORIENTED_EDGE( '', *, *, #263, .F. );
#218 = ORIENTED_EDGE( '', *, *, #255, .T. );
#219 = CARTESIAN_POINT( '', ( 7.20000000000000, 2.50000000000000, 0.000000000000000 ) );
#220 = DIRECTION( '', ( 1.00000000000000, 0.000000000000000, -0.000000000000000 ) );
#221 = DIRECTION( '', ( -0.000000000000000, 0.000000000000000, -1.00000000000000 ) );
#222 = SURFACE_STYLE_FILL_AREA( #264 );
#223 = ORIENTED_EDGE( '', *, *, #265, .F. );
#224 = ORIENTED_EDGE( '', *, *, #259, .F. );
#225 = ORIENTED_EDGE( '', *, *, #245, .F. );
#226 = ORIENTED_EDGE( '', *, *, #262, .T. );
#227 = CARTESIAN_POINT( '', ( 19.2000000000000, 0.000000000000000, 0.000000000000000 ) );
#228 = DIRECTION( '', ( -1.00000000000000, -0.000000000000000, 0.000000000000000 ) );
#229 = DIRECTION( '', ( -0.000000000000000, 0.000000000000000, -1.00000000000000 ) );
#230 = SURFACE_STYLE_FILL_AREA( #266 );
#231 = ORIENTED_EDGE( '', *, *, #263, .T. );
#232 = ORIENTED_EDGE( '', *, *, #241, .T. );
#233 = ORIENTED_EDGE( '', *, *, #260, .T. );
#234 = ORIENTED_EDGE( '', *, *, #265, .T. );
#235 = CARTESIAN_POINT( '', ( 3.20000000000000, 3.50000000000000, 3.50000000000000 ) );
#236 = DIRECTION( '', ( 0.000000000000000, 0.000000000000000, 1.00000000000000 ) );
#237 = DIRECTION( '', ( 1.00000000000000, 0.000000000000000, -0.000000000000000 ) );
#238 = FILL_AREA_STYLE( '', ( #267 ) );
#239 = EDGE_CURVE( '', #268, #269, #270, .F. );
#240 = EDGE_CURVE( '', #271, #268, #272, .T. );
#241 = EDGE_CURVE( '', #273, #271, #274, .T. );
#242 = EDGE_CURVE( '', #273, #269, #275, .T. );
#243 = FILL_AREA_STYLE( '', ( #276 ) );
#244 = EDGE_CURVE( '', #269, #277, #278, .T. );
#245 = EDGE_CURVE( '', #277, #279, #280, .T. );
#246 = EDGE_CURVE( '', #279, #268, #281, .T. );
#247 = FILL_AREA_STYLE( '', ( #282 ) );
#248 = EDGE_CURVE( '', #283, #283, #284, .T. );
#249 = FILL_AREA_STYLE( '', ( #285 ) );
#250 = CARTESIAN_POINT( '', ( 19.2000000000000, -9.53899197823954E-15, 0.000000000000000 ) );
#251 = EDGE_CURVE( '', #286, #286, #287, .T. );
#252 = FILL_AREA_STYLE( '', ( #288 ) );
#253 = EDGE_CURVE( '', #289, #289, #290, .T. );
#254 = FILL_AREA_STYLE( '', ( #291 ) );
#255 = EDGE_CURVE( '', #292, #292, #293, .T. );
#256 = EDGE_CURVE( '', #294, #294, #295, .T. );
#257 = FILL_AREA_STYLE( '', ( #296 ) );
#258 = FILL_AREA_STYLE( '', ( #297 ) );
#259 = EDGE_CURVE( '', #279, #298, #299, .T. );
#260 = EDGE_CURVE( '', #271, #298, #300, .T. );
#261 = FILL_AREA_STYLE( '', ( #301 ) );
#262 = EDGE_CURVE( '', #277, #302, #303, .T. );
#263 = EDGE_CURVE( '', #302, #273, #304, .T. );
#264 = FILL_AREA_STYLE( '', ( #305 ) );
#265 = EDGE_CURVE( '', #298, #302, #306, .F. );
#266 = FILL_AREA_STYLE( '', ( #307 ) );
#267 = FILL_AREA_STYLE_COLOUR( '', #308 );
#268 = VERTEX_POINT( '', #309 );
#269 = VERTEX_POINT( '', #310 );
#270 = LINE( '', #311, #312 );
#271 = VERTEX_POINT( '', #313 );
#272 = CIRCLE( '', #314, 4.00000000000000 );
#273 = VERTEX_POINT( '', #315 );
#274 = LINE( '', #316, #317 );
#275 = CIRCLE( '', #318, 4.00000000000000 );
#276 = FILL_AREA_STYLE_COLOUR( '', #319 );
#277 = VERTEX_POINT( '', #320 );
#278 = LINE( '', #321, #322 );
#279 = VERTEX_POINT( '', #323 );
#280 = LINE( '', #324, #325 );
#281 = LINE( '', #326, #327 );
#282 = FILL_AREA_STYLE_COLOUR( '', #328 );
#283 = VERTEX_POINT( '', #329 );
#284 = CIRCLE( '', #330, 2.40000000000000 );
#285 = FILL_AREA_STYLE_COLOUR( '', #331 );
#286 = VERTEX_POINT( '', #332 );
#287 = CIRCLE( '', #333, 2.50000000000000 );
#288 = FILL_AREA_STYLE_COLOUR( '', #334 );
#289 = VERTEX_POINT( '', #335 );
#290 = CIRCLE( '', #336, 2.50000000000000 );
#291 = FILL_AREA_STYLE_COLOUR( '', #337 );
#292 = VERTEX_POINT( '', #338 );
#293 = CIRCLE( '', #339, 2.50000000000000 );
#294 = VERTEX_POINT( '', #340 );
#295 = CIRCLE( '', #341, 1.74355957740000 );
#296 = FILL_AREA_STYLE_COLOUR( '', #342 );
#297 = FILL_AREA_STYLE_COLOUR( '', #343 );
#298 = VERTEX_POINT( '', #344 );
#299 = CIRCLE( '', #345, 4.00000000000000 );
#300 = LINE( '', #346, #347 );
#301 = FILL_AREA_STYLE_COLOUR( '', #348 );
#302 = VERTEX_POINT( '', #349 );
#303 = CIRCLE( '', #350, 4.00000000000000 );
#304 = LINE( '', #351, #352 );
#305 = FILL_AREA_STYLE_COLOUR( '', #353 );
#306 = LINE( '', #354, #355 );
#307 = FILL_AREA_STYLE_COLOUR( '', #356 );
#308 = COLOUR_RGB( '', 0.689999997600000, 0.689999997600000, 0.689999997600000 );
#309 = CARTESIAN_POINT( '', ( 9.00000000000000, -1.93649167310371, -3.50000000000000 ) );
#310 = CARTESIAN_POINT( '', ( 7.20000000000000, -1.93649167310371, -3.50000000000000 ) );
#311 = CARTESIAN_POINT( '', ( 19.2000000000000, -1.93649167310371, -3.50000000000000 ) );
#312 = VECTOR( '', #357, 1000.00000000000 );
#313 = CARTESIAN_POINT( '', ( 9.00000000000000, -1.93649167310371, 3.50000000000000 ) );
#314 = AXIS2_PLACEMENT_3D( '', #358, #359, #360 );
#315 = CARTESIAN_POINT( '', ( 7.20000000000000, -1.93649167310371, 3.50000000000000 ) );
#316 = CARTESIAN_POINT( '', ( 19.2000000000000, -1.93649167310371, 3.50000000000000 ) );
#317 = VECTOR( '', #361, 1000.00000000000 );
#318 = AXIS2_PLACEMENT_3D( '', #362, #363, #364 );
#319 = COLOUR_RGB( '', 0.689999997600000, 0.689999997600000, 0.689999997600000 );
#320 = CARTESIAN_POINT( '', ( 7.20000000000000, 1.93649167310371, -3.50000000000000 ) );
#321 = CARTESIAN_POINT( '', ( 7.20000000000000, 2.50000000000000, -3.50000000000000 ) );
#322 = VECTOR( '', #365, 1000.00000000000 );
#323 = CARTESIAN_POINT( '', ( 9.00000000000000, 1.93649167310371, -3.50000000000000 ) );
#324 = CARTESIAN_POINT( '', ( 19.2000000000000, 1.93649167310371, -3.50000000000000 ) );
#325 = VECTOR( '', #366, 1000.00000000000 );
#326 = CARTESIAN_POINT( '', ( 9.00000000000000, 4.00000000000000, -3.50000000000000 ) );
#327 = VECTOR( '', #367, 1000.00000000000 );
#328 = COLOUR_RGB( '', 0.689999997600000, 0.689999997600000, 0.689999997600000 );
#329 = CARTESIAN_POINT( '', ( -3.20000000000000, 0.000000000000000, -2.40000000000000 ) );
#330 = AXIS2_PLACEMENT_3D( '', #368, #369, #370 );
#331 = COLOUR_RGB( '', 0.689999997600000, 0.689999997600000, 0.689999997600000 );
#332 = CARTESIAN_POINT( '', ( 18.1800000000000, 0.000000000000000, -2.50000000000000 ) );
#333 = AXIS2_PLACEMENT_3D( '', #371, #372, #373 );
#334 = COLOUR_RGB( '', 0.689999997600000, 0.689999997600000, 0.689999997600000 );
#335 = CARTESIAN_POINT( '', ( 9.00000000000000, 0.000000000000000, -2.50000000000000 ) );
#336 = AXIS2_PLACEMENT_3D( '', #374, #375, #376 );
#337 = COLOUR_RGB( '', 0.689999997600000, 0.689999997600000, 0.689999997600000 );
#338 = CARTESIAN_POINT( '', ( 7.20000000000000, 0.000000000000000, -2.50000000000000 ) );
#339 = AXIS2_PLACEMENT_3D( '', #377, #378, #379 );
#340 = CARTESIAN_POINT( '', ( 3.60000000000000, 0.000000000000000, -1.74355957741627 ) );
#341 = AXIS2_PLACEMENT_3D( '', #380, #381, #382 );
#342 = COLOUR_RGB( '', 0.689999997600000, 0.689999997600000, 0.689999997600000 );
#343 = COLOUR_RGB( '', 0.689999997600000, 0.689999997600000, 0.689999997600000 );
#344 = CARTESIAN_POINT( '', ( 9.00000000000000, 1.93649167310371, 3.50000000000000 ) );
#345 = AXIS2_PLACEMENT_3D( '', #383, #384, #385 );
#346 = CARTESIAN_POINT( '', ( 9.00000000000000, 4.00000000000000, 3.50000000000000 ) );
#347 = VECTOR( '', #386, 1000.00000000000 );
#348 = COLOUR_RGB( '', 0.689999997600000, 0.689999997600000, 0.689999997600000 );
#349 = CARTESIAN_POINT( '', ( 7.20000000000000, 1.93649167310371, 3.50000000000000 ) );
#350 = AXIS2_PLACEMENT_3D( '', #387, #388, #389 );
#351 = CARTESIAN_POINT( '', ( 7.20000000000000, 2.50000000000000, 3.50000000000000 ) );
#352 = VECTOR( '', #390, 1000.00000000000 );
#353 = COLOUR_RGB( '', 0.689999997600000, 0.689999997600000, 0.689999997600000 );
#354 = CARTESIAN_POINT( '', ( 19.2000000000000, 1.93649167310371, 3.50000000000000 ) );
#355 = VECTOR( '', #391, 1000.00000000000 );
#356 = COLOUR_RGB( '', 0.689999997600000, 0.689999997600000, 0.689999997600000 );
#357 = DIRECTION( '', ( 1.00000000000000, -0.000000000000000, -0.000000000000000 ) );
#358 = CARTESIAN_POINT( '', ( 9.00000000000000, 0.000000000000000, 0.000000000000000 ) );
#359 = DIRECTION( '', ( 1.00000000000000, 0.000000000000000, -0.000000000000000 ) );
#360 = DIRECTION( '', ( -0.000000000000000, 0.000000000000000, -1.00000000000000 ) );
#361 = DIRECTION( '', ( 1.00000000000000, -0.000000000000000, -0.000000000000000 ) );
#362 = CARTESIAN_POINT( '', ( 7.20000000000000, 0.000000000000000, 0.000000000000000 ) );
#363 = DIRECTION( '', ( 1.00000000000000, 0.000000000000000, -0.000000000000000 ) );
#364 = DIRECTION( '', ( -0.000000000000000, 0.000000000000000, -1.00000000000000 ) );
#365 = DIRECTION( '', ( 0.000000000000000, 1.00000000000000, 0.000000000000000 ) );
#366 = DIRECTION( '', ( 1.00000000000000, -0.000000000000000, -0.000000000000000 ) );
#367 = DIRECTION( '', ( 0.000000000000000, -1.00000000000000, 0.000000000000000 ) );
#368 = CARTESIAN_POINT( '', ( -3.20000000000000, 0.000000000000000, 0.000000000000000 ) );
#369 = DIRECTION( '', ( 1.00000000000000, 0.000000000000000, -0.000000000000000 ) );
#370 = DIRECTION( '', ( -0.000000000000000, 0.000000000000000, -1.00000000000000 ) );
#371 = CARTESIAN_POINT( '', ( 18.1800000000000, 0.000000000000000, 0.000000000000000 ) );
#372 = DIRECTION( '', ( 1.00000000000000, 0.000000000000000, -0.000000000000000 ) );
#373 = DIRECTION( '', ( -0.000000000000000, 0.000000000000000, -1.00000000000000 ) );
#374 = CARTESIAN_POINT( '', ( 9.00000000000000, 0.000000000000000, 0.000000000000000 ) );
#375 = DIRECTION( '', ( 1.00000000000000, 0.000000000000000, -0.000000000000000 ) );
#376 = DIRECTION( '', ( -0.000000000000000, 0.000000000000000, -1.00000000000000 ) );
#377 = CARTESIAN_POINT( '', ( 7.20000000000000, 0.000000000000000, 0.000000000000000 ) );
#378 = DIRECTION( '', ( 1.00000000000000, 0.000000000000000, -0.000000000000000 ) );
#379 = DIRECTION( '', ( -0.000000000000000, 0.000000000000000, -1.00000000000000 ) );
#380 = CARTESIAN_POINT( '', ( 3.60000000000000, 0.000000000000000, 0.000000000000000 ) );
#381 = DIRECTION( '', ( 1.00000000000000, 0.000000000000000, -0.000000000000000 ) );
#382 = DIRECTION( '', ( -0.000000000000000, 0.000000000000000, -1.00000000000000 ) );
#383 = CARTESIAN_POINT( '', ( 9.00000000000000, 0.000000000000000, 0.000000000000000 ) );
#384 = DIRECTION( '', ( 1.00000000000000, 0.000000000000000, -0.000000000000000 ) );
#385 = DIRECTION( '', ( -0.000000000000000, 0.000000000000000, -1.00000000000000 ) );
#386 = DIRECTION( '', ( 0.000000000000000, 1.00000000000000, -0.000000000000000 ) );
#387 = CARTESIAN_POINT( '', ( 7.20000000000000, 0.000000000000000, 0.000000000000000 ) );
#388 = DIRECTION( '', ( 1.00000000000000, 0.000000000000000, -0.000000000000000 ) );
#389 = DIRECTION( '', ( -0.000000000000000, 0.000000000000000, -1.00000000000000 ) );
#390 = DIRECTION( '', ( 0.000000000000000, -1.00000000000000, 0.000000000000000 ) );
#391 = DIRECTION( '', ( 1.00000000000000, -0.000000000000000, -0.000000000000000 ) );
ENDSEC;
END-ISO-10303-21;
