ISO-10303-21;
HEADER;
FILE_DESCRIPTION( ( 'STEP AP214' ), '1' );
FILE_NAME( '//goodhand-server/Shared Folders/GoodHand Data/Kipp CAD/K0020/K0020.02_0.stp', '2020-11-24T14:50:25', ( '' ), ( '' ), ' ', 'PARTsolutions', ' ' );
FILE_SCHEMA( ( 'AUTOMOTIVE_DESIGN { 1 0 10303 214 1 1 1 1 }' ) );
ENDSEC;
DATA;
#1 = MECHANICAL_DESIGN_GEOMETRIC_PRESENTATION_REPRESENTATION( ' ', ( #10, #11, #12, #13, #14, #15, #16 ), #6 );
#2 = PRODUCT_DEFINITION_CONTEXT( '', #17, 'design' );
#3 = APPLICATION_PROTOCOL_DEFINITION( 'international standard', 'automotive_design', 2001, #17 );
#4 = PRODUCT_CATEGORY_RELATIONSHIP( 'NONE', 'NONE', #18, #19 );
#5 = SHAPE_DEFINITION_REPRESENTATION( #20, #21 );
#6 =  ( GEOMETRIC_REPRESENTATION_CONTEXT( 3 )GLOBAL_UNCERTAINTY_ASSIGNED_CONTEXT( ( #24 ) )GLOBAL_UNIT_ASSIGNED_CONTEXT( ( #26, #27, #28 ) )REPRESENTATION_CONTEXT( 'NONE', 'WORKSPACE' ) );
#10 = STYLED_ITEM( '', ( #30 ), #31 );
#11 = STYLED_ITEM( '', ( #32 ), #33 );
#12 = STYLED_ITEM( '', ( #34 ), #35 );
#13 = STYLED_ITEM( '', ( #36 ), #37 );
#14 = STYLED_ITEM( '', ( #38 ), #39 );
#15 = STYLED_ITEM( '', ( #40 ), #41 );
#16 = STYLED_ITEM( '', ( #42 ), #43 );
#17 = APPLICATION_CONTEXT( 'core data for automotive mechanical design processes' );
#18 = PRODUCT_CATEGORY( 'part', 'NONE' );
#19 = PRODUCT_RELATED_PRODUCT_CATEGORY( 'detail', ' ', ( #44 ) );
#20 = PRODUCT_DEFINITION_SHAPE( 'NONE', 'NONE', #45 );
#21 = ADVANCED_BREP_SHAPE_REPRESENTATION( '_K0020.02_0', ( #46, #47 ), #6 );
#24 = UNCERTAINTY_MEASURE_WITH_UNIT( LENGTH_MEASURE( 0.00100000000000000 ), #26, '', '' );
#26 =  ( CONVERSION_BASED_UNIT( 'MILLIMETRE', #50 )LENGTH_UNIT(  )NAMED_UNIT( #53 ) );
#27 =  ( NAMED_UNIT( #55 )PLANE_ANGLE_UNIT(  )SI_UNIT( $, .RADIAN. ) );
#28 =  ( NAMED_UNIT( #55 )SI_UNIT( $, .STERADIAN. )SOLID_ANGLE_UNIT(  ) );
#30 = PRESENTATION_STYLE_ASSIGNMENT( ( #61 ) );
#31 = ADVANCED_FACE( '', ( #62, #63 ), #64, .T. );
#32 = PRESENTATION_STYLE_ASSIGNMENT( ( #65 ) );
#33 = ADVANCED_FACE( '', ( #66, #67 ), #68, .T. );
#34 = PRESENTATION_STYLE_ASSIGNMENT( ( #69 ) );
#35 = ADVANCED_FACE( '', ( #70, #71 ), #72, .T. );
#36 = PRESENTATION_STYLE_ASSIGNMENT( ( #73 ) );
#37 = ADVANCED_FACE( '', ( #74 ), #75, .F. );
#38 = PRESENTATION_STYLE_ASSIGNMENT( ( #76 ) );
#39 = ADVANCED_FACE( '', ( #77 ), #78, .F. );
#40 = PRESENTATION_STYLE_ASSIGNMENT( ( #79 ) );
#41 = ADVANCED_FACE( '', ( #80, #81 ), #82, .T. );
#42 = PRESENTATION_STYLE_ASSIGNMENT( ( #83 ) );
#43 = ADVANCED_FACE( '', ( #84, #85 ), #86, .F. );
#44 = PRODUCT( '_K0020.02_0', '_K0020.02_0', 'PART-_K0020.02_0-DESC', ( #87 ) );
#45 = PRODUCT_DEFINITION( 'NONE', 'NONE', #88, #2 );
#46 = MANIFOLD_SOLID_BREP( '_K0020.02_0', #89 );
#47 = AXIS2_PLACEMENT_3D( '', #90, #91, #92 );
#50 = LENGTH_MEASURE_WITH_UNIT( LENGTH_MEASURE( 1.00000000000000 ), #93 );
#53 = DIMENSIONAL_EXPONENTS( 1.00000000000000, 0.000000000000000, 0.000000000000000, 0.000000000000000, 0.000000000000000, 0.000000000000000, 0.000000000000000 );
#55 = DIMENSIONAL_EXPONENTS( 0.000000000000000, 0.000000000000000, 0.000000000000000, 0.000000000000000, 0.000000000000000, 0.000000000000000, 0.000000000000000 );
#61 = SURFACE_STYLE_USAGE( .BOTH., #94 );
#62 = FACE_OUTER_BOUND( '', #95, .T. );
#63 = FACE_OUTER_BOUND( '', #96, .T. );
#64 = CYLINDRICAL_SURFACE( '', #97, 7.00000000000000 );
#65 = SURFACE_STYLE_USAGE( .BOTH., #98 );
#66 = FACE_OUTER_BOUND( '', #99, .T. );
#67 = FACE_OUTER_BOUND( '', #100, .T. );
#68 = CYLINDRICAL_SURFACE( '', #101, 25.0000000000000 );
#69 = SURFACE_STYLE_USAGE( .BOTH., #102 );
#70 = FACE_OUTER_BOUND( '', #103, .T. );
#71 = FACE_BOUND( '', #104, .T. );
#72 = CONICAL_SURFACE( '', #105, 6.00000000000000, 0.785398163400000 );
#73 = SURFACE_STYLE_USAGE( .BOTH., #106 );
#74 = FACE_OUTER_BOUND( '', #107, .T. );
#75 = PLANE( '', #108 );
#76 = SURFACE_STYLE_USAGE( .BOTH., #109 );
#77 = FACE_OUTER_BOUND( '', #110, .T. );
#78 = PLANE( '', #111 );
#79 = SURFACE_STYLE_USAGE( .BOTH., #112 );
#80 = FACE_BOUND( '', #113, .T. );
#81 = FACE_OUTER_BOUND( '', #114, .T. );
#82 = CONICAL_SURFACE( '', #115, 25.0000000000000, 0.785398163400000 );
#83 = SURFACE_STYLE_USAGE( .BOTH., #116 );
#84 = FACE_OUTER_BOUND( '', #117, .T. );
#85 = FACE_BOUND( '', #118, .T. );
#86 = PLANE( '', #119 );
#87 = PRODUCT_CONTEXT( '', #17, 'mechanical' );
#88 = PRODUCT_DEFINITION_FORMATION_WITH_SPECIFIED_SOURCE( ' ', 'NONE', #44, .NOT_KNOWN. );
#89 = CLOSED_SHELL( '', ( #41, #33, #43, #31, #35, #39, #37 ) );
#90 = CARTESIAN_POINT( '', ( 0.000000000000000, 0.000000000000000, 0.000000000000000 ) );
#91 = DIRECTION( '', ( 0.000000000000000, 0.000000000000000, 1.00000000000000 ) );
#92 = DIRECTION( '', ( 1.00000000000000, 0.000000000000000, 0.000000000000000 ) );
#93 =  ( LENGTH_UNIT(  )NAMED_UNIT( #53 )SI_UNIT( .MILLI., .METRE. ) );
#94 = SURFACE_SIDE_STYLE( '', ( #121 ) );
#95 = EDGE_LOOP( '', ( #122 ) );
#96 = EDGE_LOOP( '', ( #123 ) );
#97 = AXIS2_PLACEMENT_3D( '', #124, #125, #126 );
#98 = SURFACE_SIDE_STYLE( '', ( #127 ) );
#99 = EDGE_LOOP( '', ( #128 ) );
#100 = EDGE_LOOP( '', ( #129 ) );
#101 = AXIS2_PLACEMENT_3D( '', #130, #131, #132 );
#102 = SURFACE_SIDE_STYLE( '', ( #133 ) );
#103 = EDGE_LOOP( '', ( #134 ) );
#104 = EDGE_LOOP( '', ( #135 ) );
#105 = AXIS2_PLACEMENT_3D( '', #136, #137, #138 );
#106 = SURFACE_SIDE_STYLE( '', ( #139 ) );
#107 = EDGE_LOOP( '', ( #140 ) );
#108 = AXIS2_PLACEMENT_3D( '', #141, #142, #143 );
#109 = SURFACE_SIDE_STYLE( '', ( #144 ) );
#110 = EDGE_LOOP( '', ( #145 ) );
#111 = AXIS2_PLACEMENT_3D( '', #146, #147, #148 );
#112 = SURFACE_SIDE_STYLE( '', ( #149 ) );
#113 = EDGE_LOOP( '', ( #150 ) );
#114 = EDGE_LOOP( '', ( #151 ) );
#115 = AXIS2_PLACEMENT_3D( '', #152, #153, #154 );
#116 = SURFACE_SIDE_STYLE( '', ( #155 ) );
#117 = EDGE_LOOP( '', ( #156 ) );
#118 = EDGE_LOOP( '', ( #157 ) );
#119 = AXIS2_PLACEMENT_3D( '', #158, #159, #160 );
#121 = SURFACE_STYLE_FILL_AREA( #161 );
#122 = ORIENTED_EDGE( '', *, *, #162, .F. );
#123 = ORIENTED_EDGE( '', *, *, #163, .T. );
#124 = CARTESIAN_POINT( '', ( -16.0000000000000, 9.79717439317883E-16, 0.000000000000000 ) );
#125 = DIRECTION( '', ( 1.00000000000000, -6.12323399573677E-17, -0.000000000000000 ) );
#126 = DIRECTION( '', ( -6.12323399573677E-17, -1.00000000000000, 0.000000000000000 ) );
#127 = SURFACE_STYLE_FILL_AREA( #164 );
#128 = ORIENTED_EDGE( '', *, *, #165, .F. );
#129 = ORIENTED_EDGE( '', *, *, #166, .T. );
#130 = CARTESIAN_POINT( '', ( -16.0000000000000, 9.79717439317883E-16, 0.000000000000000 ) );
#131 = DIRECTION( '', ( 1.00000000000000, -6.12323399573677E-17, -0.000000000000000 ) );
#132 = DIRECTION( '', ( -6.12323399573677E-17, -1.00000000000000, 0.000000000000000 ) );
#133 = SURFACE_STYLE_FILL_AREA( #167 );
#134 = ORIENTED_EDGE( '', *, *, #163, .F. );
#135 = ORIENTED_EDGE( '', *, *, #168, .T. );
#136 = CARTESIAN_POINT( '', ( 24.0000000000000, -1.46957615897682E-15, 0.000000000000000 ) );
#137 = DIRECTION( '', ( -1.00000000000000, 6.12323399573677E-17, -0.000000000000000 ) );
#138 = DIRECTION( '', ( -6.12323399573677E-17, -1.00000000000000, 0.000000000000000 ) );
#139 = SURFACE_STYLE_FILL_AREA( #169 );
#140 = ORIENTED_EDGE( '', *, *, #170, .T. );
#141 = CARTESIAN_POINT( '', ( -16.0000000000000, -24.0000000000000, 0.000000000000000 ) );
#142 = DIRECTION( '', ( 1.00000000000000, -6.12323399573677E-17, 0.000000000000000 ) );
#143 = DIRECTION( '', ( 6.12323399573677E-17, 1.00000000000000, 0.000000000000000 ) );
#144 = SURFACE_STYLE_FILL_AREA( #171 );
#145 = ORIENTED_EDGE( '', *, *, #168, .F. );
#146 = CARTESIAN_POINT( '', ( 24.0000000000000, -1.46957615897682E-15, 0.000000000000000 ) );
#147 = DIRECTION( '', ( -1.00000000000000, 6.12323399573677E-17, 0.000000000000000 ) );
#148 = DIRECTION( '', ( -6.12323399573677E-17, -1.00000000000000, 0.000000000000000 ) );
#149 = SURFACE_STYLE_FILL_AREA( #172 );
#150 = ORIENTED_EDGE( '', *, *, #170, .F. );
#151 = ORIENTED_EDGE( '', *, *, #165, .T. );
#152 = CARTESIAN_POINT( '', ( -15.0000000000000, 9.18485099360515E-16, 0.000000000000000 ) );
#153 = DIRECTION( '', ( 1.00000000000000, -6.12323399573677E-17, 0.000000000000000 ) );
#154 = DIRECTION( '', ( 6.12323399573677E-17, 1.00000000000000, 0.000000000000000 ) );
#155 = SURFACE_STYLE_FILL_AREA( #173 );
#156 = ORIENTED_EDGE( '', *, *, #166, .F. );
#157 = ORIENTED_EDGE( '', *, *, #162, .T. );
#158 = CARTESIAN_POINT( '', ( -2.14313189850787E-16, -7.00000000000000, 0.000000000000000 ) );
#159 = DIRECTION( '', ( -1.00000000000000, 6.12323399573677E-17, 0.000000000000000 ) );
#160 = DIRECTION( '', ( -6.12323399573677E-17, -1.00000000000000, 0.000000000000000 ) );
#161 = FILL_AREA_STYLE( '', ( #174 ) );
#162 = EDGE_CURVE( '', #175, #175, #176, .T. );
#163 = EDGE_CURVE( '', #177, #177, #178, .T. );
#164 = FILL_AREA_STYLE( '', ( #179 ) );
#165 = EDGE_CURVE( '', #180, #180, #181, .T. );
#166 = EDGE_CURVE( '', #182, #182, #183, .T. );
#167 = FILL_AREA_STYLE( '', ( #184 ) );
#168 = EDGE_CURVE( '', #185, #185, #186, .T. );
#169 = FILL_AREA_STYLE( '', ( #187 ) );
#170 = EDGE_CURVE( '', #188, #188, #189, .T. );
#171 = FILL_AREA_STYLE( '', ( #190 ) );
#172 = FILL_AREA_STYLE( '', ( #191 ) );
#173 = FILL_AREA_STYLE( '', ( #192 ) );
#174 = FILL_AREA_STYLE_COLOUR( '', #193 );
#175 = VERTEX_POINT( '', #194 );
#176 = CIRCLE( '', #195, 7.00000000000000 );
#177 = VERTEX_POINT( '', #196 );
#178 = CIRCLE( '', #197, 7.00000000000000 );
#179 = FILL_AREA_STYLE_COLOUR( '', #198 );
#180 = VERTEX_POINT( '', #199 );
#181 = CIRCLE( '', #200, 25.0000000000000 );
#182 = VERTEX_POINT( '', #201 );
#183 = CIRCLE( '', #202, 25.0000000000000 );
#184 = FILL_AREA_STYLE_COLOUR( '', #203 );
#185 = VERTEX_POINT( '', #204 );
#186 = CIRCLE( '', #205, 6.00000000000000 );
#187 = FILL_AREA_STYLE_COLOUR( '', #206 );
#188 = VERTEX_POINT( '', #207 );
#189 = CIRCLE( '', #208, 24.0000000000000 );
#190 = FILL_AREA_STYLE_COLOUR( '', #209 );
#191 = FILL_AREA_STYLE_COLOUR( '', #210 );
#192 = FILL_AREA_STYLE_COLOUR( '', #211 );
#193 = COLOUR_RGB( '', 0.689999997600000, 0.689999997600000, 0.689999997600000 );
#194 = CARTESIAN_POINT( '', ( -4.28626379701574E-16, -7.00000000000000, 0.000000000000000 ) );
#195 = AXIS2_PLACEMENT_3D( '', #212, #213, #214 );
#196 = CARTESIAN_POINT( '', ( 23.0000000000000, -7.00000000000000, 0.000000000000000 ) );
#197 = AXIS2_PLACEMENT_3D( '', #215, #216, #217 );
#198 = COLOUR_RGB( '', 0.689999997600000, 0.689999997600000, 0.689999997600000 );
#199 = CARTESIAN_POINT( '', ( -15.0000000000000, -25.0000000000000, 0.000000000000000 ) );
#200 = AXIS2_PLACEMENT_3D( '', #218, #219, #220 );
#201 = CARTESIAN_POINT( '', ( -1.53080849893419E-15, -25.0000000000000, 0.000000000000000 ) );
#202 = AXIS2_PLACEMENT_3D( '', #221, #222, #223 );
#203 = COLOUR_RGB( '', 0.689999997600000, 0.689999997600000, 0.689999997600000 );
#204 = CARTESIAN_POINT( '', ( 24.0000000000000, -6.00000000000000, 0.000000000000000 ) );
#205 = AXIS2_PLACEMENT_3D( '', #224, #225, #226 );
#206 = COLOUR_RGB( '', 0.689999997600000, 0.689999997600000, 0.689999997600000 );
#207 = CARTESIAN_POINT( '', ( -16.0000000000000, -24.0000000000000, 0.000000000000000 ) );
#208 = AXIS2_PLACEMENT_3D( '', #227, #228, #229 );
#209 = COLOUR_RGB( '', 0.689999997600000, 0.689999997600000, 0.689999997600000 );
#210 = COLOUR_RGB( '', 0.689999997600000, 0.689999997600000, 0.689999997600000 );
#211 = COLOUR_RGB( '', 0.689999997600000, 0.689999997600000, 0.689999997600000 );
#212 = CARTESIAN_POINT( '', ( 0.000000000000000, 0.000000000000000, 0.000000000000000 ) );
#213 = DIRECTION( '', ( -1.00000000000000, 6.12323399573677E-17, 0.000000000000000 ) );
#214 = DIRECTION( '', ( -6.12323399573677E-17, -1.00000000000000, 0.000000000000000 ) );
#215 = CARTESIAN_POINT( '', ( 23.0000000000000, -1.40834381901946E-15, 0.000000000000000 ) );
#216 = DIRECTION( '', ( -1.00000000000000, 6.12323399573677E-17, 0.000000000000000 ) );
#217 = DIRECTION( '', ( -6.12323399573677E-17, -1.00000000000000, 0.000000000000000 ) );
#218 = CARTESIAN_POINT( '', ( -15.0000000000000, 9.18485099360515E-16, 0.000000000000000 ) );
#219 = DIRECTION( '', ( -1.00000000000000, 6.12323399573677E-17, 0.000000000000000 ) );
#220 = DIRECTION( '', ( -6.12323399573677E-17, -1.00000000000000, 0.000000000000000 ) );
#221 = CARTESIAN_POINT( '', ( 0.000000000000000, 0.000000000000000, 0.000000000000000 ) );
#222 = DIRECTION( '', ( -1.00000000000000, 6.12323399573677E-17, 0.000000000000000 ) );
#223 = DIRECTION( '', ( -6.12323399573677E-17, -1.00000000000000, 0.000000000000000 ) );
#224 = CARTESIAN_POINT( '', ( 24.0000000000000, -1.46957615897682E-15, 0.000000000000000 ) );
#225 = DIRECTION( '', ( -1.00000000000000, 6.12323399573677E-17, 0.000000000000000 ) );
#226 = DIRECTION( '', ( -6.12323399573677E-17, -1.00000000000000, 0.000000000000000 ) );
#227 = CARTESIAN_POINT( '', ( -16.0000000000000, 9.79717439317883E-16, 0.000000000000000 ) );
#228 = DIRECTION( '', ( -1.00000000000000, 6.12323399573677E-17, 0.000000000000000 ) );
#229 = DIRECTION( '', ( -6.12323399573677E-17, -1.00000000000000, 0.000000000000000 ) );
ENDSEC;
END-ISO-10303-21;
