ISO-10303-21;
HEADER;
FILE_DESCRIPTION( ( 'STEP AP214' ), '1' );
FILE_NAME( '//goodhand-server/Shared Folders/GoodHand Data/Kipp CAD/K1154/K1154.2141030.stp', '2020-12-10T10:26:56', ( '' ), ( '' ), ' ', 'PARTsolutions', ' ' );
FILE_SCHEMA( ( 'AUTOMOTIVE_DESIGN { 1 0 10303 214 1 1 1 1 }' ) );
ENDSEC;
DATA;
#1 = MECHANICAL_DESIGN_GEOMETRIC_PRESENTATION_REPRESENTATION( ' ', ( #10, #11, #12, #13, #14, #15, #16, #17, #18, #19, #20, #21, #22, #23 ), #6 );
#2 = PRODUCT_DEFINITION_CONTEXT( '', #24, 'design' );
#3 = APPLICATION_PROTOCOL_DEFINITION( 'international standard', 'automotive_design', 2001, #24 );
#4 = PRODUCT_CATEGORY_RELATIONSHIP( 'NONE', 'NONE', #25, #26 );
#5 = SHAPE_DEFINITION_REPRESENTATION( #27, #28 );
#6 =  ( GEOMETRIC_REPRESENTATION_CONTEXT( 3 )GLOBAL_UNCERTAINTY_ASSIGNED_CONTEXT( ( #31 ) )GLOBAL_UNIT_ASSIGNED_CONTEXT( ( #33, #34, #35 ) )REPRESENTATION_CONTEXT( 'NONE', 'WORKSPACE' ) );
#10 = STYLED_ITEM( '', ( #37 ), #38 );
#11 = STYLED_ITEM( '', ( #39 ), #40 );
#12 = STYLED_ITEM( '', ( #41 ), #42 );
#13 = STYLED_ITEM( '', ( #43 ), #44 );
#14 = STYLED_ITEM( '', ( #45 ), #46 );
#15 = STYLED_ITEM( '', ( #47 ), #48 );
#16 = STYLED_ITEM( '', ( #49 ), #50 );
#17 = STYLED_ITEM( '', ( #51 ), #52 );
#18 = STYLED_ITEM( '', ( #53 ), #54 );
#19 = STYLED_ITEM( '', ( #55 ), #56 );
#20 = STYLED_ITEM( '', ( #57 ), #58 );
#21 = STYLED_ITEM( '', ( #59 ), #60 );
#22 = STYLED_ITEM( '', ( #61 ), #62 );
#23 = STYLED_ITEM( '', ( #63 ), #64 );
#24 = APPLICATION_CONTEXT( 'core data for automotive mechanical design processes' );
#25 = PRODUCT_CATEGORY( 'part', 'NONE' );
#26 = PRODUCT_RELATED_PRODUCT_CATEGORY( 'detail', ' ', ( #65 ) );
#27 = PRODUCT_DEFINITION_SHAPE( 'NONE', 'NONE', #66 );
#28 = ADVANCED_BREP_SHAPE_REPRESENTATION( '_K1154.2141030', ( #67, #68 ), #6 );
#31 = UNCERTAINTY_MEASURE_WITH_UNIT( LENGTH_MEASURE( 0.00100000000000000 ), #33, '', '' );
#33 =  ( CONVERSION_BASED_UNIT( 'MILLIMETRE', #71 )LENGTH_UNIT(  )NAMED_UNIT( #74 ) );
#34 =  ( NAMED_UNIT( #76 )PLANE_ANGLE_UNIT(  )SI_UNIT( $, .RADIAN. ) );
#35 =  ( NAMED_UNIT( #76 )SI_UNIT( $, .STERADIAN. )SOLID_ANGLE_UNIT(  ) );
#37 = PRESENTATION_STYLE_ASSIGNMENT( ( #82 ) );
#38 = ADVANCED_FACE( '', ( #83, #84, #85, #86, #87 ), #88, .F. );
#39 = PRESENTATION_STYLE_ASSIGNMENT( ( #89 ) );
#40 = ADVANCED_FACE( '', ( #90, #91 ), #92, .F. );
#41 = PRESENTATION_STYLE_ASSIGNMENT( ( #93 ) );
#42 = ADVANCED_FACE( '', ( #94, #95 ), #96, .F. );
#43 = PRESENTATION_STYLE_ASSIGNMENT( ( #97 ) );
#44 = ADVANCED_FACE( '', ( #98, #99 ), #100, .T. );
#45 = PRESENTATION_STYLE_ASSIGNMENT( ( #101 ) );
#46 = ADVANCED_FACE( '', ( #102, #103, #104, #105, #106 ), #107, .F. );
#47 = PRESENTATION_STYLE_ASSIGNMENT( ( #108 ) );
#48 = ADVANCED_FACE( '', ( #109, #110 ), #111, .F. );
#49 = PRESENTATION_STYLE_ASSIGNMENT( ( #112 ) );
#50 = ADVANCED_FACE( '', ( #113, #114 ), #115, .F. );
#51 = PRESENTATION_STYLE_ASSIGNMENT( ( #116 ) );
#52 = ADVANCED_FACE( '', ( #117, #118 ), #119, .T. );
#53 = PRESENTATION_STYLE_ASSIGNMENT( ( #120 ) );
#54 = ADVANCED_FACE( '', ( #121 ), #122, .T. );
#55 = PRESENTATION_STYLE_ASSIGNMENT( ( #123 ) );
#56 = ADVANCED_FACE( '', ( #124 ), #125, .F. );
#57 = PRESENTATION_STYLE_ASSIGNMENT( ( #126 ) );
#58 = ADVANCED_FACE( '', ( #127, #128 ), #129, .F. );
#59 = PRESENTATION_STYLE_ASSIGNMENT( ( #130 ) );
#60 = ADVANCED_FACE( '', ( #131, #132 ), #133, .T. );
#61 = PRESENTATION_STYLE_ASSIGNMENT( ( #134 ) );
#62 = ADVANCED_FACE( '', ( #135, #136 ), #137, .F. );
#63 = PRESENTATION_STYLE_ASSIGNMENT( ( #138 ) );
#64 = ADVANCED_FACE( '', ( #139, #140 ), #141, .T. );
#65 = PRODUCT( '_K1154.2141030', '_K1154.2141030', 'PART-_K1154.2141030-DESC', ( #142 ) );
#66 = PRODUCT_DEFINITION( 'NONE', 'NONE', #143, #2 );
#67 = MANIFOLD_SOLID_BREP( '_K1154.2141030', #144 );
#68 = AXIS2_PLACEMENT_3D( '', #145, #146, #147 );
#71 = LENGTH_MEASURE_WITH_UNIT( LENGTH_MEASURE( 1.00000000000000 ), #148 );
#74 = DIMENSIONAL_EXPONENTS( 1.00000000000000, 0.000000000000000, 0.000000000000000, 0.000000000000000, 0.000000000000000, 0.000000000000000, 0.000000000000000 );
#76 = DIMENSIONAL_EXPONENTS( 0.000000000000000, 0.000000000000000, 0.000000000000000, 0.000000000000000, 0.000000000000000, 0.000000000000000, 0.000000000000000 );
#82 = SURFACE_STYLE_USAGE( .BOTH., #149 );
#83 = FACE_BOUND( '', #150, .T. );
#84 = FACE_OUTER_BOUND( '', #151, .T. );
#85 = FACE_BOUND( '', #152, .T. );
#86 = FACE_BOUND( '', #153, .T. );
#87 = FACE_BOUND( '', #154, .T. );
#88 = PLANE( '', #155 );
#89 = SURFACE_STYLE_USAGE( .BOTH., #156 );
#90 = FACE_OUTER_BOUND( '', #157, .T. );
#91 = FACE_OUTER_BOUND( '', #158, .T. );
#92 = CYLINDRICAL_SURFACE( '', #159, 5.00000000000000 );
#93 = SURFACE_STYLE_USAGE( .BOTH., #160 );
#94 = FACE_OUTER_BOUND( '', #161, .T. );
#95 = FACE_OUTER_BOUND( '', #162, .T. );
#96 = CYLINDRICAL_SURFACE( '', #163, 0.500000000000000 );
#97 = SURFACE_STYLE_USAGE( .BOTH., #164 );
#98 = FACE_OUTER_BOUND( '', #165, .T. );
#99 = FACE_BOUND( '', #166, .T. );
#100 = CONICAL_SURFACE( '', #167, 5.84913793100000, 1.14417964340000 );
#101 = SURFACE_STYLE_USAGE( .BOTH., #168 );
#102 = FACE_OUTER_BOUND( '', #169, .T. );
#103 = FACE_BOUND( '', #170, .T. );
#104 = FACE_BOUND( '', #171, .T. );
#105 = FACE_BOUND( '', #172, .T. );
#106 = FACE_BOUND( '', #173, .T. );
#107 = PLANE( '', #174 );
#108 = SURFACE_STYLE_USAGE( .BOTH., #175 );
#109 = FACE_OUTER_BOUND( '', #176, .T. );
#110 = FACE_OUTER_BOUND( '', #177, .T. );
#111 = CYLINDRICAL_SURFACE( '', #178, 0.500000000000000 );
#112 = SURFACE_STYLE_USAGE( .BOTH., #179 );
#113 = FACE_OUTER_BOUND( '', #180, .T. );
#114 = FACE_BOUND( '', #181, .T. );
#115 = CONICAL_SURFACE( '', #182, 6.45000000000000, 1.19028994970000 );
#116 = SURFACE_STYLE_USAGE( .BOTH., #183 );
#117 = FACE_OUTER_BOUND( '', #184, .T. );
#118 = FACE_OUTER_BOUND( '', #185, .T. );
#119 = CYLINDRICAL_SURFACE( '', #186, 7.00000000000000 );
#120 = SURFACE_STYLE_USAGE( .BOTH., #187 );
#121 = FACE_OUTER_BOUND( '', #188, .T. );
#122 = PLANE( '', #189 );
#123 = SURFACE_STYLE_USAGE( .BOTH., #190 );
#124 = FACE_OUTER_BOUND( '', #191, .T. );
#125 = PLANE( '', #192 );
#126 = SURFACE_STYLE_USAGE( .BOTH., #193 );
#127 = FACE_OUTER_BOUND( '', #194, .T. );
#128 = FACE_OUTER_BOUND( '', #195, .T. );
#129 = CYLINDRICAL_SURFACE( '', #196, 0.500000000000000 );
#130 = SURFACE_STYLE_USAGE( .BOTH., #197 );
#131 = FACE_OUTER_BOUND( '', #198, .T. );
#132 = FACE_OUTER_BOUND( '', #199, .T. );
#133 = TOROIDAL_SURFACE( '', #200, 5.72500000000000, 0.300000000000000 );
#134 = SURFACE_STYLE_USAGE( .BOTH., #201 );
#135 = FACE_OUTER_BOUND( '', #202, .T. );
#136 = FACE_BOUND( '', #203, .T. );
#137 = CONICAL_SURFACE( '', #204, 5.00000000000000, 1.14417964340000 );
#138 = SURFACE_STYLE_USAGE( .BOTH., #205 );
#139 = FACE_OUTER_BOUND( '', #206, .T. );
#140 = FACE_OUTER_BOUND( '', #207, .T. );
#141 = CYLINDRICAL_SURFACE( '', #208, 10.0000000000000 );
#142 = PRODUCT_CONTEXT( '', #24, 'mechanical' );
#143 = PRODUCT_DEFINITION_FORMATION_WITH_SPECIFIED_SOURCE( ' ', 'NONE', #65, .NOT_KNOWN. );
#144 = CLOSED_SHELL( '', ( #38, #48, #42, #56, #52, #46, #64, #58, #60, #54, #40, #62, #44, #50 ) );
#145 = CARTESIAN_POINT( '', ( 0.000000000000000, 0.000000000000000, 0.000000000000000 ) );
#146 = DIRECTION( '', ( 0.000000000000000, 0.000000000000000, 1.00000000000000 ) );
#147 = DIRECTION( '', ( 1.00000000000000, 0.000000000000000, 0.000000000000000 ) );
#148 =  ( LENGTH_UNIT(  )NAMED_UNIT( #74 )SI_UNIT( .MILLI., .METRE. ) );
#149 = SURFACE_SIDE_STYLE( '', ( #210 ) );
#150 = EDGE_LOOP( '', ( #211 ) );
#151 = EDGE_LOOP( '', ( #212 ) );
#152 = EDGE_LOOP( '', ( #213 ) );
#153 = EDGE_LOOP( '', ( #214 ) );
#154 = EDGE_LOOP( '', ( #215 ) );
#155 = AXIS2_PLACEMENT_3D( '', #216, #217, #218 );
#156 = SURFACE_SIDE_STYLE( '', ( #219 ) );
#157 = EDGE_LOOP( '', ( #220 ) );
#158 = EDGE_LOOP( '', ( #221 ) );
#159 = AXIS2_PLACEMENT_3D( '', #222, #223, #224 );
#160 = SURFACE_SIDE_STYLE( '', ( #225 ) );
#161 = EDGE_LOOP( '', ( #226 ) );
#162 = EDGE_LOOP( '', ( #227 ) );
#163 = AXIS2_PLACEMENT_3D( '', #228, #229, #230 );
#164 = SURFACE_SIDE_STYLE( '', ( #231 ) );
#165 = EDGE_LOOP( '', ( #232 ) );
#166 = EDGE_LOOP( '', ( #233 ) );
#167 = AXIS2_PLACEMENT_3D( '', #234, #235, #236 );
#168 = SURFACE_SIDE_STYLE( '', ( #237 ) );
#169 = EDGE_LOOP( '', ( #238 ) );
#170 = EDGE_LOOP( '', ( #239 ) );
#171 = EDGE_LOOP( '', ( #240 ) );
#172 = EDGE_LOOP( '', ( #241 ) );
#173 = EDGE_LOOP( '', ( #242 ) );
#174 = AXIS2_PLACEMENT_3D( '', #243, #244, #245 );
#175 = SURFACE_SIDE_STYLE( '', ( #246 ) );
#176 = EDGE_LOOP( '', ( #247 ) );
#177 = EDGE_LOOP( '', ( #248 ) );
#178 = AXIS2_PLACEMENT_3D( '', #249, #250, #251 );
#179 = SURFACE_SIDE_STYLE( '', ( #252 ) );
#180 = EDGE_LOOP( '', ( #253 ) );
#181 = EDGE_LOOP( '', ( #254 ) );
#182 = AXIS2_PLACEMENT_3D( '', #255, #256, #257 );
#183 = SURFACE_SIDE_STYLE( '', ( #258 ) );
#184 = EDGE_LOOP( '', ( #259 ) );
#185 = EDGE_LOOP( '', ( #260 ) );
#186 = AXIS2_PLACEMENT_3D( '', #261, #262, #263 );
#187 = SURFACE_SIDE_STYLE( '', ( #264 ) );
#188 = EDGE_LOOP( '', ( #265 ) );
#189 = AXIS2_PLACEMENT_3D( '', #266, #267, #268 );
#190 = SURFACE_SIDE_STYLE( '', ( #269 ) );
#191 = EDGE_LOOP( '', ( #270 ) );
#192 = AXIS2_PLACEMENT_3D( '', #271, #272, #273 );
#193 = SURFACE_SIDE_STYLE( '', ( #274 ) );
#194 = EDGE_LOOP( '', ( #275 ) );
#195 = EDGE_LOOP( '', ( #276 ) );
#196 = AXIS2_PLACEMENT_3D( '', #277, #278, #279 );
#197 = SURFACE_SIDE_STYLE( '', ( #280 ) );
#198 = EDGE_LOOP( '', ( #281 ) );
#199 = EDGE_LOOP( '', ( #282 ) );
#200 = AXIS2_PLACEMENT_3D( '', #283, #284, #285 );
#201 = SURFACE_SIDE_STYLE( '', ( #286 ) );
#202 = EDGE_LOOP( '', ( #287 ) );
#203 = EDGE_LOOP( '', ( #288 ) );
#204 = AXIS2_PLACEMENT_3D( '', #289, #290, #291 );
#205 = SURFACE_SIDE_STYLE( '', ( #292 ) );
#206 = EDGE_LOOP( '', ( #293 ) );
#207 = EDGE_LOOP( '', ( #294 ) );
#208 = AXIS2_PLACEMENT_3D( '', #295, #296, #297 );
#210 = SURFACE_STYLE_FILL_AREA( #298 );
#211 = ORIENTED_EDGE( '', *, *, #299, .F. );
#212 = ORIENTED_EDGE( '', *, *, #300, .T. );
#213 = ORIENTED_EDGE( '', *, *, #301, .T. );
#214 = ORIENTED_EDGE( '', *, *, #302, .T. );
#215 = ORIENTED_EDGE( '', *, *, #303, .T. );
#216 = CARTESIAN_POINT( '', ( 10.0000000000000, 0.000000000000000, 0.000000000000000 ) );
#217 = DIRECTION( '', ( 0.000000000000000, 1.00000000000000, 0.000000000000000 ) );
#218 = DIRECTION( '', ( 0.000000000000000, -0.000000000000000, 1.00000000000000 ) );
#219 = SURFACE_STYLE_FILL_AREA( #304 );
#220 = ORIENTED_EDGE( '', *, *, #305, .T. );
#221 = ORIENTED_EDGE( '', *, *, #306, .F. );
#222 = CARTESIAN_POINT( '', ( 0.000000000000000, -2.00000000000000, 0.000000000000000 ) );
#223 = DIRECTION( '', ( -0.000000000000000, 1.00000000000000, 0.000000000000000 ) );
#224 = DIRECTION( '', ( 0.000000000000000, 0.000000000000000, -1.00000000000000 ) );
#225 = SURFACE_STYLE_FILL_AREA( #307 );
#226 = ORIENTED_EDGE( '', *, *, #308, .T. );
#227 = ORIENTED_EDGE( '', *, *, #302, .F. );
#228 = CARTESIAN_POINT( '', ( 4.25000000000000, 1.00000000000000, 7.36121593216773 ) );
#229 = DIRECTION( '', ( -0.000000000000000, 1.00000000000000, -0.000000000000000 ) );
#230 = DIRECTION( '', ( -0.866025403784439, 0.000000000000000, 0.500000000000000 ) );
#231 = SURFACE_STYLE_FILL_AREA( #309 );
#232 = ORIENTED_EDGE( '', *, *, #310, .T. );
#233 = ORIENTED_EDGE( '', *, *, #311, .F. );
#234 = CARTESIAN_POINT( '', ( 0.000000000000000, 0.0268887148459854, 0.000000000000000 ) );
#235 = DIRECTION( '', ( -0.000000000000000, 1.00000000000000, 0.000000000000000 ) );
#236 = DIRECTION( '', ( 0.000000000000000, -0.000000000000000, 1.00000000000000 ) );
#237 = SURFACE_STYLE_FILL_AREA( #312 );
#238 = ORIENTED_EDGE( '', *, *, #313, .F. );
#239 = ORIENTED_EDGE( '', *, *, #314, .F. );
#240 = ORIENTED_EDGE( '', *, *, #308, .F. );
#241 = ORIENTED_EDGE( '', *, *, #315, .F. );
#242 = ORIENTED_EDGE( '', *, *, #316, .T. );
#243 = CARTESIAN_POINT( '', ( 7.00000000000000, 1.00000000000000, 0.000000000000000 ) );
#244 = DIRECTION( '', ( 0.000000000000000, -1.00000000000000, -0.000000000000000 ) );
#245 = DIRECTION( '', ( 0.000000000000000, 0.000000000000000, -1.00000000000000 ) );
#246 = SURFACE_STYLE_FILL_AREA( #317 );
#247 = ORIENTED_EDGE( '', *, *, #315, .T. );
#248 = ORIENTED_EDGE( '', *, *, #303, .F. );
#249 = CARTESIAN_POINT( '', ( -8.50000000000000, 1.00000000000000, 0.000000000000000 ) );
#250 = DIRECTION( '', ( -0.000000000000000, 1.00000000000000, 0.000000000000000 ) );
#251 = DIRECTION( '', ( 0.000000000000000, 0.000000000000000, -1.00000000000000 ) );
#252 = SURFACE_STYLE_FILL_AREA( #318 );
#253 = ORIENTED_EDGE( '', *, *, #299, .T. );
#254 = ORIENTED_EDGE( '', *, *, #310, .F. );
#255 = CARTESIAN_POINT( '', ( 0.000000000000000, 0.300000000000004, 0.000000000000000 ) );
#256 = DIRECTION( '', ( -0.000000000000000, -1.00000000000000, -0.000000000000000 ) );
#257 = DIRECTION( '', ( 0.000000000000000, 0.000000000000000, -1.00000000000000 ) );
#258 = SURFACE_STYLE_FILL_AREA( #319 );
#259 = ORIENTED_EDGE( '', *, *, #316, .F. );
#260 = ORIENTED_EDGE( '', *, *, #320, .T. );
#261 = CARTESIAN_POINT( '', ( 0.000000000000000, 0.000000000000000, 0.000000000000000 ) );
#262 = DIRECTION( '', ( -0.000000000000000, 1.00000000000000, 0.000000000000000 ) );
#263 = DIRECTION( '', ( 0.000000000000000, 0.000000000000000, -1.00000000000000 ) );
#264 = SURFACE_STYLE_FILL_AREA( #321 );
#265 = ORIENTED_EDGE( '', *, *, #306, .T. );
#266 = CARTESIAN_POINT( '', ( 0.000000000000000, 0.800000000000002, 0.000000000000000 ) );
#267 = DIRECTION( '', ( 0.000000000000000, -1.00000000000000, -0.000000000000000 ) );
#268 = DIRECTION( '', ( 0.000000000000000, 0.000000000000000, -1.00000000000000 ) );
#269 = SURFACE_STYLE_FILL_AREA( #322 );
#270 = ORIENTED_EDGE( '', *, *, #320, .F. );
#271 = CARTESIAN_POINT( '', ( 0.000000000000000, 10.0000000000000, 0.000000000000000 ) );
#272 = DIRECTION( '', ( 0.000000000000000, -1.00000000000000, -0.000000000000000 ) );
#273 = DIRECTION( '', ( 0.000000000000000, 0.000000000000000, -1.00000000000000 ) );
#274 = SURFACE_STYLE_FILL_AREA( #323 );
#275 = ORIENTED_EDGE( '', *, *, #314, .T. );
#276 = ORIENTED_EDGE( '', *, *, #301, .F. );
#277 = CARTESIAN_POINT( '', ( 4.25000000000000, 1.00000000000000, -7.36121593216773 ) );
#278 = DIRECTION( '', ( -0.000000000000000, 1.00000000000000, -0.000000000000000 ) );
#279 = DIRECTION( '', ( 0.866025403784439, 0.000000000000000, 0.500000000000000 ) );
#280 = SURFACE_STYLE_FILL_AREA( #324 );
#281 = ORIENTED_EDGE( '', *, *, #311, .T. );
#282 = ORIENTED_EDGE( '', *, *, #325, .F. );
#283 = CARTESIAN_POINT( '', ( 0.000000000000000, 0.300000000000003, 0.000000000000000 ) );
#284 = DIRECTION( '', ( 0.000000000000000, -1.00000000000000, -0.000000000000000 ) );
#285 = DIRECTION( '', ( 0.000000000000000, 0.000000000000000, -1.00000000000000 ) );
#286 = SURFACE_STYLE_FILL_AREA( #326 );
#287 = ORIENTED_EDGE( '', *, *, #325, .T. );
#288 = ORIENTED_EDGE( '', *, *, #305, .F. );
#289 = CARTESIAN_POINT( '', ( 0.000000000000000, 0.300000000000001, 0.000000000000000 ) );
#290 = DIRECTION( '', ( -0.000000000000000, -1.00000000000000, -0.000000000000000 ) );
#291 = DIRECTION( '', ( 0.000000000000000, 0.000000000000000, -1.00000000000000 ) );
#292 = SURFACE_STYLE_FILL_AREA( #327 );
#293 = ORIENTED_EDGE( '', *, *, #300, .F. );
#294 = ORIENTED_EDGE( '', *, *, #313, .T. );
#295 = CARTESIAN_POINT( '', ( 0.000000000000000, 0.000000000000000, 0.000000000000000 ) );
#296 = DIRECTION( '', ( -0.000000000000000, 1.00000000000000, 0.000000000000000 ) );
#297 = DIRECTION( '', ( 0.000000000000000, 0.000000000000000, -1.00000000000000 ) );
#298 = FILL_AREA_STYLE( '', ( #328 ) );
#299 = EDGE_CURVE( '', #329, #329, #330, .T. );
#300 = EDGE_CURVE( '', #331, #331, #332, .T. );
#301 = EDGE_CURVE( '', #333, #333, #334, .T. );
#302 = EDGE_CURVE( '', #335, #335, #336, .T. );
#303 = EDGE_CURVE( '', #337, #337, #338, .T. );
#304 = FILL_AREA_STYLE( '', ( #339 ) );
#305 = EDGE_CURVE( '', #340, #340, #341, .T. );
#306 = EDGE_CURVE( '', #342, #342, #343, .T. );
#307 = FILL_AREA_STYLE( '', ( #344 ) );
#308 = EDGE_CURVE( '', #345, #345, #346, .T. );
#309 = FILL_AREA_STYLE( '', ( #347 ) );
#310 = EDGE_CURVE( '', #348, #348, #349, .T. );
#311 = EDGE_CURVE( '', #350, #350, #351, .T. );
#312 = FILL_AREA_STYLE( '', ( #352 ) );
#313 = EDGE_CURVE( '', #353, #353, #354, .T. );
#314 = EDGE_CURVE( '', #355, #355, #356, .T. );
#315 = EDGE_CURVE( '', #357, #357, #358, .T. );
#316 = EDGE_CURVE( '', #359, #359, #360, .T. );
#317 = FILL_AREA_STYLE( '', ( #361 ) );
#318 = FILL_AREA_STYLE( '', ( #362 ) );
#319 = FILL_AREA_STYLE( '', ( #363 ) );
#320 = EDGE_CURVE( '', #364, #364, #365, .T. );
#321 = FILL_AREA_STYLE( '', ( #366 ) );
#322 = FILL_AREA_STYLE( '', ( #367 ) );
#323 = FILL_AREA_STYLE( '', ( #368 ) );
#324 = FILL_AREA_STYLE( '', ( #369 ) );
#325 = EDGE_CURVE( '', #370, #370, #371, .T. );
#326 = FILL_AREA_STYLE( '', ( #372 ) );
#327 = FILL_AREA_STYLE( '', ( #373 ) );
#328 = FILL_AREA_STYLE_COLOUR( '', #374 );
#329 = VERTEX_POINT( '', #375 );
#330 = CIRCLE( '', #376, 7.20000000000000 );
#331 = VERTEX_POINT( '', #377 );
#332 = CIRCLE( '', #378, 10.0000000000000 );
#333 = VERTEX_POINT( '', #379 );
#334 = CIRCLE( '', #380, 0.500000000000000 );
#335 = VERTEX_POINT( '', #381 );
#336 = CIRCLE( '', #382, 0.500000000000000 );
#337 = VERTEX_POINT( '', #383 );
#338 = CIRCLE( '', #384, 0.500000000000000 );
#339 = FILL_AREA_STYLE_COLOUR( '', #385 );
#340 = VERTEX_POINT( '', #386 );
#341 = CIRCLE( '', #387, 5.00000000000000 );
#342 = VERTEX_POINT( '', #388 );
#343 = CIRCLE( '', #389, 5.00000000000000 );
#344 = FILL_AREA_STYLE_COLOUR( '', #390 );
#345 = VERTEX_POINT( '', #391 );
#346 = CIRCLE( '', #392, 0.500000000000000 );
#347 = FILL_AREA_STYLE_COLOUR( '', #393 );
#348 = VERTEX_POINT( '', #394 );
#349 = CIRCLE( '', #395, 6.45000000000000 );
#350 = VERTEX_POINT( '', #396 );
#351 = CIRCLE( '', #397, 5.84913793100000 );
#352 = FILL_AREA_STYLE_COLOUR( '', #398 );
#353 = VERTEX_POINT( '', #399 );
#354 = CIRCLE( '', #400, 10.0000000000000 );
#355 = VERTEX_POINT( '', #401 );
#356 = CIRCLE( '', #402, 0.500000000000000 );
#357 = VERTEX_POINT( '', #403 );
#358 = CIRCLE( '', #404, 0.500000000000000 );
#359 = VERTEX_POINT( '', #405 );
#360 = CIRCLE( '', #406, 7.00000000000000 );
#361 = FILL_AREA_STYLE_COLOUR( '', #407 );
#362 = FILL_AREA_STYLE_COLOUR( '', #408 );
#363 = FILL_AREA_STYLE_COLOUR( '', #409 );
#364 = VERTEX_POINT( '', #410 );
#365 = CIRCLE( '', #411, 7.00000000000000 );
#366 = FILL_AREA_STYLE_COLOUR( '', #412 );
#367 = FILL_AREA_STYLE_COLOUR( '', #413 );
#368 = FILL_AREA_STYLE_COLOUR( '', #414 );
#369 = FILL_AREA_STYLE_COLOUR( '', #415 );
#370 = VERTEX_POINT( '', #416 );
#371 = CIRCLE( '', #417, 5.60086206900000 );
#372 = FILL_AREA_STYLE_COLOUR( '', #418 );
#373 = FILL_AREA_STYLE_COLOUR( '', #419 );
#374 = COLOUR_RGB( '', 0.689999997600000, 0.689999997600000, 0.689999997600000 );
#375 = CARTESIAN_POINT( '', ( 0.000000000000000, 2.16840434497101E-15, -7.20000000000000 ) );
#376 = AXIS2_PLACEMENT_3D( '', #420, #421, #422 );
#377 = CARTESIAN_POINT( '', ( 0.000000000000000, 0.000000000000000, -10.0000000000000 ) );
#378 = AXIS2_PLACEMENT_3D( '', #423, #424, #425 );
#379 = CARTESIAN_POINT( '', ( 4.00000000000000, 0.000000000000000, -6.92820323027551 ) );
#380 = AXIS2_PLACEMENT_3D( '', #426, #427, #428 );
#381 = CARTESIAN_POINT( '', ( 4.00000000000000, 0.000000000000000, 6.92820323027551 ) );
#382 = AXIS2_PLACEMENT_3D( '', #429, #430, #431 );
#383 = CARTESIAN_POINT( '', ( -8.00000000000000, 0.000000000000000, 0.000000000000000 ) );
#384 = AXIS2_PLACEMENT_3D( '', #432, #433, #434 );
#385 = COLOUR_RGB( '', 0.689999997600000, 0.689999997600000, 0.689999997600000 );
#386 = CARTESIAN_POINT( '', ( 0.000000000000000, 0.300000000000001, -5.00000000000000 ) );
#387 = AXIS2_PLACEMENT_3D( '', #435, #436, #437 );
#388 = CARTESIAN_POINT( '', ( 0.000000000000000, 0.800000000000004, -5.00000000000000 ) );
#389 = AXIS2_PLACEMENT_3D( '', #438, #439, #440 );
#390 = COLOUR_RGB( '', 0.689999997600000, 0.689999997600000, 0.689999997600000 );
#391 = CARTESIAN_POINT( '', ( 4.00000000000000, 1.00000000000000, 6.92820323027551 ) );
#392 = AXIS2_PLACEMENT_3D( '', #441, #442, #443 );
#393 = COLOUR_RGB( '', 0.689999997600000, 0.689999997600000, 0.689999997600000 );
#394 = CARTESIAN_POINT( '', ( 0.000000000000000, 0.300000000000004, -6.45000000000001 ) );
#395 = AXIS2_PLACEMENT_3D( '', #444, #445, #446 );
#396 = CARTESIAN_POINT( '', ( 0.000000000000000, 0.0268887148459854, -5.84913793103448 ) );
#397 = AXIS2_PLACEMENT_3D( '', #447, #448, #449 );
#398 = COLOUR_RGB( '', 0.689999997600000, 0.689999997600000, 0.689999997600000 );
#399 = CARTESIAN_POINT( '', ( 0.000000000000000, 1.00000000000000, -10.0000000000000 ) );
#400 = AXIS2_PLACEMENT_3D( '', #450, #451, #452 );
#401 = CARTESIAN_POINT( '', ( 4.00000000000000, 1.00000000000000, -6.92820323027551 ) );
#402 = AXIS2_PLACEMENT_3D( '', #453, #454, #455 );
#403 = CARTESIAN_POINT( '', ( -8.00000000000000, 1.00000000000000, 0.000000000000000 ) );
#404 = AXIS2_PLACEMENT_3D( '', #456, #457, #458 );
#405 = CARTESIAN_POINT( '', ( 0.000000000000000, 0.999999999999999, -7.00000000000000 ) );
#406 = AXIS2_PLACEMENT_3D( '', #459, #460, #461 );
#407 = COLOUR_RGB( '', 0.689999997600000, 0.689999997600000, 0.689999997600000 );
#408 = COLOUR_RGB( '', 0.689999997600000, 0.689999997600000, 0.689999997600000 );
#409 = COLOUR_RGB( '', 0.689999997600000, 0.689999997600000, 0.689999997600000 );
#410 = CARTESIAN_POINT( '', ( 0.000000000000000, 10.0000000000000, -7.00000000000000 ) );
#411 = AXIS2_PLACEMENT_3D( '', #462, #463, #464 );
#412 = COLOUR_RGB( '', 0.689999997600000, 0.689999997600000, 0.689999997600000 );
#413 = COLOUR_RGB( '', 0.689999997600000, 0.689999997600000, 0.689999997600000 );
#414 = COLOUR_RGB( '', 0.689999997600000, 0.689999997600000, 0.689999997600000 );
#415 = COLOUR_RGB( '', 0.689999997600000, 0.689999997600000, 0.689999997600000 );
#416 = CARTESIAN_POINT( '', ( 0.000000000000000, 0.0268887148459846, -5.60086206896552 ) );
#417 = AXIS2_PLACEMENT_3D( '', #465, #466, #467 );
#418 = COLOUR_RGB( '', 0.689999997600000, 0.689999997600000, 0.689999997600000 );
#419 = COLOUR_RGB( '', 0.689999997600000, 0.689999997600000, 0.689999997600000 );
#420 = CARTESIAN_POINT( '', ( 0.000000000000000, 2.16840434497101E-15, 0.000000000000000 ) );
#421 = DIRECTION( '', ( 0.000000000000000, -1.00000000000000, -0.000000000000000 ) );
#422 = DIRECTION( '', ( 0.000000000000000, 0.000000000000000, -1.00000000000000 ) );
#423 = CARTESIAN_POINT( '', ( 0.000000000000000, 0.000000000000000, 0.000000000000000 ) );
#424 = DIRECTION( '', ( 0.000000000000000, -1.00000000000000, -0.000000000000000 ) );
#425 = DIRECTION( '', ( 0.000000000000000, 0.000000000000000, -1.00000000000000 ) );
#426 = CARTESIAN_POINT( '', ( 4.25000000000000, 0.000000000000000, -7.36121593216773 ) );
#427 = DIRECTION( '', ( 0.000000000000000, 1.00000000000000, 0.000000000000000 ) );
#428 = DIRECTION( '', ( -0.500000000000000, 0.000000000000000, 0.866025403784439 ) );
#429 = CARTESIAN_POINT( '', ( 4.25000000000000, 0.000000000000000, 7.36121593216773 ) );
#430 = DIRECTION( '', ( 0.000000000000000, 1.00000000000000, 0.000000000000000 ) );
#431 = DIRECTION( '', ( -0.500000000000000, 0.000000000000000, -0.866025403784439 ) );
#432 = CARTESIAN_POINT( '', ( -8.50000000000000, 0.000000000000000, 0.000000000000000 ) );
#433 = DIRECTION( '', ( -0.000000000000000, 1.00000000000000, 0.000000000000000 ) );
#434 = DIRECTION( '', ( 1.00000000000000, 0.000000000000000, 0.000000000000000 ) );
#435 = CARTESIAN_POINT( '', ( 0.000000000000000, 0.300000000000001, 0.000000000000000 ) );
#436 = DIRECTION( '', ( 0.000000000000000, -1.00000000000000, -0.000000000000000 ) );
#437 = DIRECTION( '', ( 0.000000000000000, 0.000000000000000, -1.00000000000000 ) );
#438 = CARTESIAN_POINT( '', ( 0.000000000000000, 0.800000000000004, 0.000000000000000 ) );
#439 = DIRECTION( '', ( 0.000000000000000, -1.00000000000000, -0.000000000000000 ) );
#440 = DIRECTION( '', ( 0.000000000000000, 0.000000000000000, -1.00000000000000 ) );
#441 = CARTESIAN_POINT( '', ( 4.25000000000000, 1.00000000000000, 7.36121593216773 ) );
#442 = DIRECTION( '', ( 0.000000000000000, 1.00000000000000, 0.000000000000000 ) );
#443 = DIRECTION( '', ( -0.500000000000000, 0.000000000000000, -0.866025403784439 ) );
#444 = CARTESIAN_POINT( '', ( 0.000000000000000, 0.300000000000004, 0.000000000000000 ) );
#445 = DIRECTION( '', ( 0.000000000000000, -1.00000000000000, -0.000000000000000 ) );
#446 = DIRECTION( '', ( 0.000000000000000, 0.000000000000000, -1.00000000000000 ) );
#447 = CARTESIAN_POINT( '', ( 0.000000000000000, 0.0268887148459854, 0.000000000000000 ) );
#448 = DIRECTION( '', ( 0.000000000000000, -1.00000000000000, -0.000000000000000 ) );
#449 = DIRECTION( '', ( 0.000000000000000, 0.000000000000000, -1.00000000000000 ) );
#450 = CARTESIAN_POINT( '', ( 0.000000000000000, 1.00000000000000, 0.000000000000000 ) );
#451 = DIRECTION( '', ( 0.000000000000000, -1.00000000000000, -0.000000000000000 ) );
#452 = DIRECTION( '', ( 0.000000000000000, 0.000000000000000, -1.00000000000000 ) );
#453 = CARTESIAN_POINT( '', ( 4.25000000000000, 1.00000000000000, -7.36121593216773 ) );
#454 = DIRECTION( '', ( 0.000000000000000, 1.00000000000000, 0.000000000000000 ) );
#455 = DIRECTION( '', ( -0.500000000000000, 0.000000000000000, 0.866025403784439 ) );
#456 = CARTESIAN_POINT( '', ( -8.50000000000000, 1.00000000000000, 0.000000000000000 ) );
#457 = DIRECTION( '', ( -0.000000000000000, 1.00000000000000, 0.000000000000000 ) );
#458 = DIRECTION( '', ( 1.00000000000000, 0.000000000000000, 0.000000000000000 ) );
#459 = CARTESIAN_POINT( '', ( 0.000000000000000, 0.999999999999999, 0.000000000000000 ) );
#460 = DIRECTION( '', ( 0.000000000000000, -1.00000000000000, -0.000000000000000 ) );
#461 = DIRECTION( '', ( 0.000000000000000, 0.000000000000000, -1.00000000000000 ) );
#462 = CARTESIAN_POINT( '', ( 0.000000000000000, 10.0000000000000, 0.000000000000000 ) );
#463 = DIRECTION( '', ( 0.000000000000000, -1.00000000000000, -0.000000000000000 ) );
#464 = DIRECTION( '', ( 0.000000000000000, 0.000000000000000, -1.00000000000000 ) );
#465 = CARTESIAN_POINT( '', ( 0.000000000000000, 0.0268887148459846, 0.000000000000000 ) );
#466 = DIRECTION( '', ( 0.000000000000000, -1.00000000000000, -0.000000000000000 ) );
#467 = DIRECTION( '', ( 0.000000000000000, 0.000000000000000, -1.00000000000000 ) );
ENDSEC;
END-ISO-10303-21;
