ISO-10303-21;
HEADER;
FILE_DESCRIPTION( ( 'STEP AP214' ), '1' );
FILE_NAME( '//goodhand-server/Shared Folders/GoodHand Data/Kipp CAD/K0367/K0367.2200.stp', '2020-12-03T15:16:13', ( '' ), ( '' ), ' ', 'PARTsolutions', ' ' );
FILE_SCHEMA( ( 'AUTOMOTIVE_DESIGN { 1 0 10303 214 1 1 1 1 }' ) );
ENDSEC;
DATA;
#1 = MECHANICAL_DESIGN_GEOMETRIC_PRESENTATION_REPRESENTATION( ' ', ( #10, #11, #12, #13, #14, #15, #16, #17, #18, #19, #20, #21, #22 ), #6 );
#2 = PRODUCT_DEFINITION_CONTEXT( '', #23, 'design' );
#3 = APPLICATION_PROTOCOL_DEFINITION( 'international standard', 'automotive_design', 2001, #23 );
#4 = PRODUCT_CATEGORY_RELATIONSHIP( 'NONE', 'NONE', #24, #25 );
#5 = SHAPE_DEFINITION_REPRESENTATION( #26, #27 );
#6 =  ( GEOMETRIC_REPRESENTATION_CONTEXT( 3 )GLOBAL_UNCERTAINTY_ASSIGNED_CONTEXT( ( #30 ) )GLOBAL_UNIT_ASSIGNED_CONTEXT( ( #32, #33, #34 ) )REPRESENTATION_CONTEXT( 'NONE', 'WORKSPACE' ) );
#10 = STYLED_ITEM( '', ( #36 ), #37 );
#11 = STYLED_ITEM( '', ( #38 ), #39 );
#12 = STYLED_ITEM( '', ( #40 ), #41 );
#13 = STYLED_ITEM( '', ( #42 ), #43 );
#14 = STYLED_ITEM( '', ( #44 ), #45 );
#15 = STYLED_ITEM( '', ( #46 ), #47 );
#16 = STYLED_ITEM( '', ( #48 ), #49 );
#17 = STYLED_ITEM( '', ( #50 ), #51 );
#18 = STYLED_ITEM( '', ( #52 ), #53 );
#19 = STYLED_ITEM( '', ( #54 ), #55 );
#20 = STYLED_ITEM( '', ( #56 ), #57 );
#21 = STYLED_ITEM( '', ( #58 ), #59 );
#22 = STYLED_ITEM( '', ( #60 ), #61 );
#23 = APPLICATION_CONTEXT( 'core data for automotive mechanical design processes' );
#24 = PRODUCT_CATEGORY( 'part', 'NONE' );
#25 = PRODUCT_RELATED_PRODUCT_CATEGORY( 'detail', ' ', ( #62 ) );
#26 = PRODUCT_DEFINITION_SHAPE( 'NONE', 'NONE', #63 );
#27 = ADVANCED_BREP_SHAPE_REPRESENTATION( '_K0367.2200', ( #64, #65 ), #6 );
#30 = UNCERTAINTY_MEASURE_WITH_UNIT( LENGTH_MEASURE( 0.00100000000000000 ), #32, '', '' );
#32 =  ( CONVERSION_BASED_UNIT( 'MILLIMETRE', #68 )LENGTH_UNIT(  )NAMED_UNIT( #71 ) );
#33 =  ( NAMED_UNIT( #73 )PLANE_ANGLE_UNIT(  )SI_UNIT( $, .RADIAN. ) );
#34 =  ( NAMED_UNIT( #73 )SI_UNIT( $, .STERADIAN. )SOLID_ANGLE_UNIT(  ) );
#36 = PRESENTATION_STYLE_ASSIGNMENT( ( #79 ) );
#37 = ADVANCED_FACE( '', ( #80, #81 ), #82, .T. );
#38 = PRESENTATION_STYLE_ASSIGNMENT( ( #83 ) );
#39 = ADVANCED_FACE( '', ( #84, #85 ), #86, .T. );
#40 = PRESENTATION_STYLE_ASSIGNMENT( ( #87 ) );
#41 = ADVANCED_FACE( '', ( #88, #89 ), #90, .T. );
#42 = PRESENTATION_STYLE_ASSIGNMENT( ( #91 ) );
#43 = ADVANCED_FACE( '', ( #92, #93, #94 ), #95, .T. );
#44 = PRESENTATION_STYLE_ASSIGNMENT( ( #96 ) );
#45 = ADVANCED_FACE( '', ( #97, #98 ), #99, .T. );
#46 = PRESENTATION_STYLE_ASSIGNMENT( ( #100 ) );
#47 = ADVANCED_FACE( '', ( #101, #102 ), #103, .T. );
#48 = PRESENTATION_STYLE_ASSIGNMENT( ( #104 ) );
#49 = ADVANCED_FACE( '', ( #105, #106, #107 ), #108, .F. );
#50 = PRESENTATION_STYLE_ASSIGNMENT( ( #109 ) );
#51 = ADVANCED_FACE( '', ( #110, #111 ), #112, .T. );
#52 = PRESENTATION_STYLE_ASSIGNMENT( ( #113 ) );
#53 = ADVANCED_FACE( '', ( #114, #115, #116 ), #117, .T. );
#54 = PRESENTATION_STYLE_ASSIGNMENT( ( #118 ) );
#55 = ADVANCED_FACE( '', ( #119, #120, #121 ), #122, .T. );
#56 = PRESENTATION_STYLE_ASSIGNMENT( ( #123 ) );
#57 = ADVANCED_FACE( '', ( #124, #125 ), #126, .T. );
#58 = PRESENTATION_STYLE_ASSIGNMENT( ( #127 ) );
#59 = ADVANCED_FACE( '', ( #128, #129 ), #130, .F. );
#60 = PRESENTATION_STYLE_ASSIGNMENT( ( #131 ) );
#61 = ADVANCED_FACE( '', ( #132, #133 ), #134, .T. );
#62 = PRODUCT( '_K0367.2200', '_K0367.2200', 'PART-_K0367.2200-DESC', ( #135 ) );
#63 = PRODUCT_DEFINITION( 'NONE', 'NONE', #136, #2 );
#64 = MANIFOLD_SOLID_BREP( '_K0367.2200', #137 );
#65 = AXIS2_PLACEMENT_3D( '', #138, #139, #140 );
#68 = LENGTH_MEASURE_WITH_UNIT( LENGTH_MEASURE( 1.00000000000000 ), #141 );
#71 = DIMENSIONAL_EXPONENTS( 1.00000000000000, 0.000000000000000, 0.000000000000000, 0.000000000000000, 0.000000000000000, 0.000000000000000, 0.000000000000000 );
#73 = DIMENSIONAL_EXPONENTS( 0.000000000000000, 0.000000000000000, 0.000000000000000, 0.000000000000000, 0.000000000000000, 0.000000000000000, 0.000000000000000 );
#79 = SURFACE_STYLE_USAGE( .BOTH., #142 );
#80 = FACE_OUTER_BOUND( '', #143, .T. );
#81 = FACE_OUTER_BOUND( '', #144, .T. );
#82 = CYLINDRICAL_SURFACE( '', #145, 0.800000000000000 );
#83 = SURFACE_STYLE_USAGE( .BOTH., #146 );
#84 = FACE_OUTER_BOUND( '', #147, .T. );
#85 = FACE_OUTER_BOUND( '', #148, .T. );
#86 = CYLINDRICAL_SURFACE( '', #149, 0.800000000000000 );
#87 = SURFACE_STYLE_USAGE( .BOTH., #150 );
#88 = FACE_OUTER_BOUND( '', #151, .T. );
#89 = FACE_OUTER_BOUND( '', #152, .T. );
#90 = CYLINDRICAL_SURFACE( '', #153, 2.50000000000000 );
#91 = SURFACE_STYLE_USAGE( .BOTH., #154 );
#92 = FACE_BOUND( '', #155, .T. );
#93 = FACE_OUTER_BOUND( '', #156, .T. );
#94 = FACE_OUTER_BOUND( '', #157, .T. );
#95 = TOROIDAL_SURFACE( '', #158, 4.20000000000000, 0.800000000000000 );
#96 = SURFACE_STYLE_USAGE( .BOTH., #159 );
#97 = FACE_OUTER_BOUND( '', #160, .T. );
#98 = FACE_OUTER_BOUND( '', #161, .T. );
#99 = CYLINDRICAL_SURFACE( '', #162, 0.800000000000000 );
#100 = SURFACE_STYLE_USAGE( .BOTH., #163 );
#101 = FACE_OUTER_BOUND( '', #164, .T. );
#102 = FACE_OUTER_BOUND( '', #165, .T. );
#103 = CYLINDRICAL_SURFACE( '', #166, 2.50000000000000 );
#104 = SURFACE_STYLE_USAGE( .BOTH., #167 );
#105 = FACE_BOUND( '', #168, .T. );
#106 = FACE_BOUND( '', #169, .T. );
#107 = FACE_OUTER_BOUND( '', #170, .T. );
#108 = PLANE( '', #171 );
#109 = SURFACE_STYLE_USAGE( .BOTH., #172 );
#110 = FACE_OUTER_BOUND( '', #173, .T. );
#111 = FACE_OUTER_BOUND( '', #174, .T. );
#112 = CYLINDRICAL_SURFACE( '', #175, 0.800000000000000 );
#113 = SURFACE_STYLE_USAGE( .BOTH., #176 );
#114 = FACE_BOUND( '', #177, .T. );
#115 = FACE_BOUND( '', #178, .T. );
#116 = FACE_OUTER_BOUND( '', #179, .T. );
#117 = PLANE( '', #180 );
#118 = SURFACE_STYLE_USAGE( .BOTH., #181 );
#119 = FACE_BOUND( '', #182, .T. );
#120 = FACE_OUTER_BOUND( '', #183, .T. );
#121 = FACE_OUTER_BOUND( '', #184, .T. );
#122 = TOROIDAL_SURFACE( '', #185, 4.20000000000000, 0.800000000000000 );
#123 = SURFACE_STYLE_USAGE( .BOTH., #186 );
#124 = FACE_BOUND( '', #187, .T. );
#125 = FACE_OUTER_BOUND( '', #188, .T. );
#126 = PLANE( '', #189 );
#127 = SURFACE_STYLE_USAGE( .BOTH., #190 );
#128 = FACE_BOUND( '', #191, .T. );
#129 = FACE_OUTER_BOUND( '', #192, .T. );
#130 = PLANE( '', #193 );
#131 = SURFACE_STYLE_USAGE( .BOTH., #194 );
#132 = FACE_OUTER_BOUND( '', #195, .T. );
#133 = FACE_OUTER_BOUND( '', #196, .T. );
#134 = CYLINDRICAL_SURFACE( '', #197, 0.800000000000000 );
#135 = PRODUCT_CONTEXT( '', #23, 'mechanical' );
#136 = PRODUCT_DEFINITION_FORMATION_WITH_SPECIFIED_SOURCE( ' ', 'NONE', #62, .NOT_KNOWN. );
#137 = CLOSED_SHELL( '', ( #51, #55, #45, #47, #37, #41, #57, #39, #49, #43, #61, #59, #53 ) );
#138 = CARTESIAN_POINT( '', ( 0.000000000000000, 0.000000000000000, 0.000000000000000 ) );
#139 = DIRECTION( '', ( 0.000000000000000, 0.000000000000000, 1.00000000000000 ) );
#140 = DIRECTION( '', ( 1.00000000000000, 0.000000000000000, 0.000000000000000 ) );
#141 =  ( LENGTH_UNIT(  )NAMED_UNIT( #71 )SI_UNIT( .MILLI., .METRE. ) );
#142 = SURFACE_SIDE_STYLE( '', ( #199 ) );
#143 = EDGE_LOOP( '', ( #200 ) );
#144 = EDGE_LOOP( '', ( #201 ) );
#145 = AXIS2_PLACEMENT_3D( '', #202, #203, #204 );
#146 = SURFACE_SIDE_STYLE( '', ( #205 ) );
#147 = EDGE_LOOP( '', ( #206 ) );
#148 = EDGE_LOOP( '', ( #207 ) );
#149 = AXIS2_PLACEMENT_3D( '', #208, #209, #210 );
#150 = SURFACE_SIDE_STYLE( '', ( #211 ) );
#151 = EDGE_LOOP( '', ( #212 ) );
#152 = EDGE_LOOP( '', ( #213 ) );
#153 = AXIS2_PLACEMENT_3D( '', #214, #215, #216 );
#154 = SURFACE_SIDE_STYLE( '', ( #217 ) );
#155 = VERTEX_LOOP( '', #218 );
#156 = EDGE_LOOP( '', ( #219 ) );
#157 = EDGE_LOOP( '', ( #220 ) );
#158 = AXIS2_PLACEMENT_3D( '', #221, #222, #223 );
#159 = SURFACE_SIDE_STYLE( '', ( #224 ) );
#160 = EDGE_LOOP( '', ( #225 ) );
#161 = EDGE_LOOP( '', ( #226 ) );
#162 = AXIS2_PLACEMENT_3D( '', #227, #228, #229 );
#163 = SURFACE_SIDE_STYLE( '', ( #230 ) );
#164 = EDGE_LOOP( '', ( #231 ) );
#165 = EDGE_LOOP( '', ( #232 ) );
#166 = AXIS2_PLACEMENT_3D( '', #233, #234, #235 );
#167 = SURFACE_SIDE_STYLE( '', ( #236 ) );
#168 = EDGE_LOOP( '', ( #237 ) );
#169 = EDGE_LOOP( '', ( #238 ) );
#170 = EDGE_LOOP( '', ( #239 ) );
#171 = AXIS2_PLACEMENT_3D( '', #240, #241, #242 );
#172 = SURFACE_SIDE_STYLE( '', ( #243 ) );
#173 = EDGE_LOOP( '', ( #244 ) );
#174 = EDGE_LOOP( '', ( #245 ) );
#175 = AXIS2_PLACEMENT_3D( '', #246, #247, #248 );
#176 = SURFACE_SIDE_STYLE( '', ( #249 ) );
#177 = EDGE_LOOP( '', ( #250 ) );
#178 = EDGE_LOOP( '', ( #251 ) );
#179 = EDGE_LOOP( '', ( #252 ) );
#180 = AXIS2_PLACEMENT_3D( '', #253, #254, #255 );
#181 = SURFACE_SIDE_STYLE( '', ( #256 ) );
#182 = VERTEX_LOOP( '', #257 );
#183 = EDGE_LOOP( '', ( #258 ) );
#184 = EDGE_LOOP( '', ( #259 ) );
#185 = AXIS2_PLACEMENT_3D( '', #260, #261, #262 );
#186 = SURFACE_SIDE_STYLE( '', ( #263 ) );
#187 = EDGE_LOOP( '', ( #264 ) );
#188 = EDGE_LOOP( '', ( #265 ) );
#189 = AXIS2_PLACEMENT_3D( '', #266, #267, #268 );
#190 = SURFACE_SIDE_STYLE( '', ( #269 ) );
#191 = EDGE_LOOP( '', ( #270 ) );
#192 = EDGE_LOOP( '', ( #271 ) );
#193 = AXIS2_PLACEMENT_3D( '', #272, #273, #274 );
#194 = SURFACE_SIDE_STYLE( '', ( #275 ) );
#195 = EDGE_LOOP( '', ( #276 ) );
#196 = EDGE_LOOP( '', ( #277 ) );
#197 = AXIS2_PLACEMENT_3D( '', #278, #279, #280 );
#199 = SURFACE_STYLE_FILL_AREA( #281 );
#200 = ORIENTED_EDGE( '', *, *, #282, .F. );
#201 = ORIENTED_EDGE( '', *, *, #283, .T. );
#202 = CARTESIAN_POINT( '', ( 175.100000000000, 0.000000000000000, 0.000000000000000 ) );
#203 = DIRECTION( '', ( 1.00000000000000, -0.000000000000000, -0.000000000000000 ) );
#204 = DIRECTION( '', ( 0.000000000000000, 0.000000000000000, 1.00000000000000 ) );
#205 = SURFACE_STYLE_FILL_AREA( #284 );
#206 = ORIENTED_EDGE( '', *, *, #285, .F. );
#207 = ORIENTED_EDGE( '', *, *, #286, .T. );
#208 = CARTESIAN_POINT( '', ( 4.67304081931883, 0.000000000000000, -4.90489844914408 ) );
#209 = DIRECTION( '', ( -0.953716950748227, 0.000000000000000, -0.300705799504273 ) );
#210 = DIRECTION( '', ( 0.300705799504273, 0.000000000000000, -0.953716950748227 ) );
#211 = SURFACE_STYLE_FILL_AREA( #287 );
#212 = ORIENTED_EDGE( '', *, *, #288, .F. );
#213 = ORIENTED_EDGE( '', *, *, #289, .T. );
#214 = CARTESIAN_POINT( '', ( 185.600000000000, 0.000000000000000, -0.900000000000000 ) );
#215 = DIRECTION( '', ( 1.00000000000000, -0.000000000000000, -0.000000000000000 ) );
#216 = DIRECTION( '', ( 0.000000000000000, 0.000000000000000, 1.00000000000000 ) );
#217 = SURFACE_STYLE_FILL_AREA( #290 );
#218 = VERTEX_POINT( '', #291 );
#219 = ORIENTED_EDGE( '', *, *, #285, .T. );
#220 = ORIENTED_EDGE( '', *, *, #292, .F. );
#221 = CARTESIAN_POINT( '', ( 3.41007646140089, 0.000000000000000, -0.899287256001528 ) );
#222 = DIRECTION( '', ( -0.000000000000000, 1.00000000000000, 0.000000000000000 ) );
#223 = DIRECTION( '', ( 0.000000000000000, 0.000000000000000, 1.00000000000000 ) );
#224 = SURFACE_STYLE_FILL_AREA( #293 );
#225 = ORIENTED_EDGE( '', *, *, #294, .F. );
#226 = ORIENTED_EDGE( '', *, *, #295, .T. );
#227 = CARTESIAN_POINT( '', ( 183.882355771702, 0.000000000000000, -0.502145656910233 ) );
#228 = DIRECTION( '', ( -0.953716950748227, 0.000000000000000, -0.300705799504273 ) );
#229 = DIRECTION( '', ( 0.300705799504273, 0.000000000000000, -0.953716950748227 ) );
#230 = SURFACE_STYLE_FILL_AREA( #296 );
#231 = ORIENTED_EDGE( '', *, *, #297, .T. );
#232 = ORIENTED_EDGE( '', *, *, #298, .F. );
#233 = CARTESIAN_POINT( '', ( 14.4000000000000, 0.000000000000000, -0.900000000000000 ) );
#234 = DIRECTION( '', ( -1.00000000000000, -0.000000000000000, -0.000000000000000 ) );
#235 = DIRECTION( '', ( 0.000000000000000, 0.000000000000000, -1.00000000000000 ) );
#236 = SURFACE_STYLE_FILL_AREA( #299 );
#237 = ORIENTED_EDGE( '', *, *, #300, .F. );
#238 = ORIENTED_EDGE( '', *, *, #286, .F. );
#239 = ORIENTED_EDGE( '', *, *, #297, .F. );
#240 = CARTESIAN_POINT( '', ( 14.4000000000000, 0.000000000000000, -0.900000000000000 ) );
#241 = DIRECTION( '', ( 1.00000000000000, 0.000000000000000, 0.000000000000000 ) );
#242 = DIRECTION( '', ( 0.000000000000000, 0.000000000000000, -1.00000000000000 ) );
#243 = SURFACE_STYLE_FILL_AREA( #301 );
#244 = ORIENTED_EDGE( '', *, *, #302, .F. );
#245 = ORIENTED_EDGE( '', *, *, #303, .F. );
#246 = CARTESIAN_POINT( '', ( 195.326959180681, 0.000000000000000, -4.90489844914408 ) );
#247 = DIRECTION( '', ( 0.953716950748227, 0.000000000000000, -0.300705799504273 ) );
#248 = DIRECTION( '', ( 0.300705799504273, 0.000000000000000, 0.953716950748227 ) );
#249 = SURFACE_STYLE_FILL_AREA( #304 );
#250 = ORIENTED_EDGE( '', *, *, #294, .T. );
#251 = ORIENTED_EDGE( '', *, *, #302, .T. );
#252 = ORIENTED_EDGE( '', *, *, #288, .T. );
#253 = CARTESIAN_POINT( '', ( 185.600000000000, 0.000000000000000, -0.900000000000000 ) );
#254 = DIRECTION( '', ( 1.00000000000000, 0.000000000000000, 0.000000000000000 ) );
#255 = DIRECTION( '', ( 0.000000000000000, 0.000000000000000, -1.00000000000000 ) );
#256 = SURFACE_STYLE_FILL_AREA( #305 );
#257 = VERTEX_POINT( '', #306 );
#258 = ORIENTED_EDGE( '', *, *, #303, .T. );
#259 = ORIENTED_EDGE( '', *, *, #295, .F. );
#260 = CARTESIAN_POINT( '', ( 196.589923538599, 0.000000000000000, -0.899287256001520 ) );
#261 = DIRECTION( '', ( 0.000000000000000, -1.00000000000000, -0.000000000000000 ) );
#262 = DIRECTION( '', ( 0.000000000000000, 0.000000000000000, -1.00000000000000 ) );
#263 = SURFACE_STYLE_FILL_AREA( #307 );
#264 = ORIENTED_EDGE( '', *, *, #283, .F. );
#265 = ORIENTED_EDGE( '', *, *, #298, .T. );
#266 = CARTESIAN_POINT( '', ( 24.9000000000000, 0.000000000000000, -0.900000000000000 ) );
#267 = DIRECTION( '', ( 1.00000000000000, 0.000000000000000, 0.000000000000000 ) );
#268 = DIRECTION( '', ( 0.000000000000000, 0.000000000000000, -1.00000000000000 ) );
#269 = SURFACE_STYLE_FILL_AREA( #308 );
#270 = ORIENTED_EDGE( '', *, *, #282, .T. );
#271 = ORIENTED_EDGE( '', *, *, #289, .F. );
#272 = CARTESIAN_POINT( '', ( 175.100000000000, 0.000000000000000, -0.900000000000000 ) );
#273 = DIRECTION( '', ( 1.00000000000000, 0.000000000000000, 0.000000000000000 ) );
#274 = DIRECTION( '', ( 0.000000000000000, 0.000000000000000, -1.00000000000000 ) );
#275 = SURFACE_STYLE_FILL_AREA( #309 );
#276 = ORIENTED_EDGE( '', *, *, #292, .T. );
#277 = ORIENTED_EDGE( '', *, *, #300, .T. );
#278 = CARTESIAN_POINT( '', ( 16.1176442282976, 0.000000000000000, -0.502145656910247 ) );
#279 = DIRECTION( '', ( 0.953716950748227, 0.000000000000000, -0.300705799504273 ) );
#280 = DIRECTION( '', ( 0.300705799504273, 0.000000000000000, 0.953716950748227 ) );
#281 = FILL_AREA_STYLE( '', ( #310 ) );
#282 = EDGE_CURVE( '', #311, #311, #312, .T. );
#283 = EDGE_CURVE( '', #313, #313, #314, .T. );
#284 = FILL_AREA_STYLE( '', ( #315 ) );
#285 = EDGE_CURVE( '', #316, #316, #317, .T. );
#286 = EDGE_CURVE( '', #318, #318, #319, .F. );
#287 = FILL_AREA_STYLE( '', ( #320 ) );
#288 = EDGE_CURVE( '', #321, #321, #322, .T. );
#289 = EDGE_CURVE( '', #323, #323, #324, .T. );
#290 = FILL_AREA_STYLE( '', ( #325 ) );
#291 = CARTESIAN_POINT( '', ( 3.41007646140089, 0.000000000000000, 4.10071274399847 ) );
#292 = EDGE_CURVE( '', #326, #326, #327, .T. );
#293 = FILL_AREA_STYLE( '', ( #328 ) );
#294 = EDGE_CURVE( '', #329, #329, #330, .F. );
#295 = EDGE_CURVE( '', #331, #331, #332, .T. );
#296 = FILL_AREA_STYLE( '', ( #333 ) );
#297 = EDGE_CURVE( '', #334, #334, #335, .T. );
#298 = EDGE_CURVE( '', #336, #336, #337, .T. );
#299 = FILL_AREA_STYLE( '', ( #338 ) );
#300 = EDGE_CURVE( '', #339, #339, #340, .F. );
#301 = FILL_AREA_STYLE( '', ( #341 ) );
#302 = EDGE_CURVE( '', #342, #342, #343, .F. );
#303 = EDGE_CURVE( '', #344, #344, #345, .T. );
#304 = FILL_AREA_STYLE( '', ( #346 ) );
#305 = FILL_AREA_STYLE( '', ( #347 ) );
#306 = CARTESIAN_POINT( '', ( 196.589923538599, 0.000000000000000, -5.89928725600150 ) );
#307 = FILL_AREA_STYLE( '', ( #348 ) );
#308 = FILL_AREA_STYLE( '', ( #349 ) );
#309 = FILL_AREA_STYLE( '', ( #350 ) );
#310 = FILL_AREA_STYLE_COLOUR( '', #351 );
#311 = VERTEX_POINT( '', #352 );
#312 = CIRCLE( '', #353, 0.800000000000000 );
#313 = VERTEX_POINT( '', #354 );
#314 = CIRCLE( '', #355, 0.800000000000000 );
#315 = FILL_AREA_STYLE_COLOUR( '', #356 );
#316 = VERTEX_POINT( '', #357 );
#317 = CIRCLE( '', #358, 0.800000000000000 );
#318 = VERTEX_POINT( '', #359 );
#319 = ELLIPSE( '', #360, 0.838823300100000, 0.800000000000000 );
#320 = FILL_AREA_STYLE_COLOUR( '', #361 );
#321 = VERTEX_POINT( '', #362 );
#322 = CIRCLE( '', #363, 2.50000000000000 );
#323 = VERTEX_POINT( '', #364 );
#324 = CIRCLE( '', #365, 2.50000000000000 );
#325 = FILL_AREA_STYLE_COLOUR( '', #366 );
#326 = VERTEX_POINT( '', #367 );
#327 = CIRCLE( '', #368, 0.800000000000000 );
#328 = FILL_AREA_STYLE_COLOUR( '', #369 );
#329 = VERTEX_POINT( '', #370 );
#330 = ELLIPSE( '', #371, 0.838823300100000, 0.800000000000000 );
#331 = VERTEX_POINT( '', #372 );
#332 = CIRCLE( '', #373, 0.800000000000000 );
#333 = FILL_AREA_STYLE_COLOUR( '', #374 );
#334 = VERTEX_POINT( '', #375 );
#335 = CIRCLE( '', #376, 2.50000000000000 );
#336 = VERTEX_POINT( '', #377 );
#337 = CIRCLE( '', #378, 2.50000000000000 );
#338 = FILL_AREA_STYLE_COLOUR( '', #379 );
#339 = VERTEX_POINT( '', #380 );
#340 = ELLIPSE( '', #381, 0.838823300100000, 0.800000000000000 );
#341 = FILL_AREA_STYLE_COLOUR( '', #382 );
#342 = VERTEX_POINT( '', #383 );
#343 = ELLIPSE( '', #384, 0.838823300100000, 0.800000000000000 );
#344 = VERTEX_POINT( '', #385 );
#345 = CIRCLE( '', #386, 0.800000000000000 );
#346 = FILL_AREA_STYLE_COLOUR( '', #387 );
#347 = FILL_AREA_STYLE_COLOUR( '', #388 );
#348 = FILL_AREA_STYLE_COLOUR( '', #389 );
#349 = FILL_AREA_STYLE_COLOUR( '', #390 );
#350 = FILL_AREA_STYLE_COLOUR( '', #391 );
#351 = COLOUR_RGB( '', 0.689999997600000, 0.689999997600000, 0.689999997600000 );
#352 = CARTESIAN_POINT( '', ( 175.100000000000, 0.000000000000000, -0.800000000000000 ) );
#353 = AXIS2_PLACEMENT_3D( '', #392, #393, #394 );
#354 = CARTESIAN_POINT( '', ( 24.9000000000000, 0.000000000000000, -0.800000000000000 ) );
#355 = AXIS2_PLACEMENT_3D( '', #395, #396, #397 );
#356 = COLOUR_RGB( '', 0.689999997600000, 0.689999997600000, 0.689999997600000 );
#357 = CARTESIAN_POINT( '', ( 4.43247617971541, 0.000000000000000, -4.14192488854550 ) );
#358 = AXIS2_PLACEMENT_3D( '', #398, #399, #400 );
#359 = CARTESIAN_POINT( '', ( 14.4000000000000, 0.000000000000000, -0.999176699887351 ) );
#360 = AXIS2_PLACEMENT_3D( '', #401, #402, #403 );
#361 = COLOUR_RGB( '', 0.689999997600000, 0.689999997600000, 0.689999997600000 );
#362 = CARTESIAN_POINT( '', ( 185.600000000000, 0.000000000000000, -3.40000000000000 ) );
#363 = AXIS2_PLACEMENT_3D( '', #404, #405, #406 );
#364 = CARTESIAN_POINT( '', ( 175.100000000000, 0.000000000000000, -3.40000000000000 ) );
#365 = AXIS2_PLACEMENT_3D( '', #407, #408, #409 );
#366 = COLOUR_RGB( '', 0.689999997600000, 0.689999997600000, 0.689999997600000 );
#367 = CARTESIAN_POINT( '', ( 4.43247617971541, 0.000000000000000, 2.34335037654245 ) );
#368 = AXIS2_PLACEMENT_3D( '', #410, #411, #412 );
#369 = COLOUR_RGB( '', 0.689999997600000, 0.689999997600000, 0.689999997600000 );
#370 = CARTESIAN_POINT( '', ( 185.600000000000, 0.000000000000000, 0.878248788109605 ) );
#371 = AXIS2_PLACEMENT_3D( '', #413, #414, #415 );
#372 = CARTESIAN_POINT( '', ( 195.086394541078, 0.000000000000000, 3.86929749773961 ) );
#373 = AXIS2_PLACEMENT_3D( '', #416, #417, #418 );
#374 = COLOUR_RGB( '', 0.689999997600000, 0.689999997600000, 0.689999997600000 );
#375 = CARTESIAN_POINT( '', ( 14.4000000000000, 0.000000000000000, -3.40000000000000 ) );
#376 = AXIS2_PLACEMENT_3D( '', #419, #420, #421 );
#377 = CARTESIAN_POINT( '', ( 24.9000000000000, 0.000000000000000, -3.40000000000000 ) );
#378 = AXIS2_PLACEMENT_3D( '', #422, #423, #424 );
#379 = COLOUR_RGB( '', 0.689999997600000, 0.689999997600000, 0.689999997600000 );
#380 = CARTESIAN_POINT( '', ( 14.4000000000000, 0.000000000000000, 0.878248788109597 ) );
#381 = AXIS2_PLACEMENT_3D( '', #425, #426, #427 );
#382 = COLOUR_RGB( '', 0.689999997600000, 0.689999997600000, 0.689999997600000 );
#383 = CARTESIAN_POINT( '', ( 185.600000000000, 0.000000000000000, -0.999176699887344 ) );
#384 = AXIS2_PLACEMENT_3D( '', #428, #429, #430 );
#385 = CARTESIAN_POINT( '', ( 195.086394541078, 0.000000000000000, -5.66787200974266 ) );
#386 = AXIS2_PLACEMENT_3D( '', #431, #432, #433 );
#387 = COLOUR_RGB( '', 0.689999997600000, 0.689999997600000, 0.689999997600000 );
#388 = COLOUR_RGB( '', 0.689999997600000, 0.689999997600000, 0.689999997600000 );
#389 = COLOUR_RGB( '', 0.689999997600000, 0.689999997600000, 0.689999997600000 );
#390 = COLOUR_RGB( '', 0.689999997600000, 0.689999997600000, 0.689999997600000 );
#391 = COLOUR_RGB( '', 0.689999997600000, 0.689999997600000, 0.689999997600000 );
#392 = CARTESIAN_POINT( '', ( 175.100000000000, 0.000000000000000, 0.000000000000000 ) );
#393 = DIRECTION( '', ( 1.00000000000000, 0.000000000000000, 0.000000000000000 ) );
#394 = DIRECTION( '', ( 0.000000000000000, 0.000000000000000, -1.00000000000000 ) );
#395 = CARTESIAN_POINT( '', ( 24.9000000000000, 0.000000000000000, 0.000000000000000 ) );
#396 = DIRECTION( '', ( 1.00000000000000, 0.000000000000000, 0.000000000000000 ) );
#397 = DIRECTION( '', ( 0.000000000000000, 0.000000000000000, -1.00000000000000 ) );
#398 = CARTESIAN_POINT( '', ( 4.67304081931883, 0.000000000000000, -4.90489844914408 ) );
#399 = DIRECTION( '', ( -0.953716950748227, 0.000000000000000, -0.300705799504273 ) );
#400 = DIRECTION( '', ( -0.300705799504273, 0.000000000000000, 0.953716950748227 ) );
#401 = CARTESIAN_POINT( '', ( 14.4000000000000, 0.000000000000000, -1.83800000000000 ) );
#402 = DIRECTION( '', ( 1.00000000000000, 0.000000000000000, 0.000000000000000 ) );
#403 = DIRECTION( '', ( 0.000000000000000, -0.000000000000000, 1.00000000000000 ) );
#404 = CARTESIAN_POINT( '', ( 185.600000000000, 0.000000000000000, -0.900000000000000 ) );
#405 = DIRECTION( '', ( 1.00000000000000, 0.000000000000000, 0.000000000000000 ) );
#406 = DIRECTION( '', ( 0.000000000000000, 0.000000000000000, -1.00000000000000 ) );
#407 = CARTESIAN_POINT( '', ( 175.100000000000, 0.000000000000000, -0.900000000000000 ) );
#408 = DIRECTION( '', ( 1.00000000000000, 0.000000000000000, 0.000000000000000 ) );
#409 = DIRECTION( '', ( 0.000000000000000, 0.000000000000000, -1.00000000000000 ) );
#410 = CARTESIAN_POINT( '', ( 4.67304081931883, 0.000000000000000, 3.10632393714103 ) );
#411 = DIRECTION( '', ( 0.953716950748227, 0.000000000000000, -0.300705799504273 ) );
#412 = DIRECTION( '', ( -0.300705799504273, 0.000000000000000, -0.953716950748227 ) );
#413 = CARTESIAN_POINT( '', ( 185.600000000000, 0.000000000000000, 0.0394254879969569 ) );
#414 = DIRECTION( '', ( 1.00000000000000, 0.000000000000000, 0.000000000000000 ) );
#415 = DIRECTION( '', ( 0.000000000000000, -0.000000000000000, 1.00000000000000 ) );
#416 = CARTESIAN_POINT( '', ( 195.326959180681, 0.000000000000000, 3.10632393714103 ) );
#417 = DIRECTION( '', ( -0.953716950748227, 0.000000000000000, -0.300705799504273 ) );
#418 = DIRECTION( '', ( -0.300705799504273, 0.000000000000000, 0.953716950748227 ) );
#419 = CARTESIAN_POINT( '', ( 14.4000000000000, 0.000000000000000, -0.900000000000000 ) );
#420 = DIRECTION( '', ( 1.00000000000000, 0.000000000000000, 0.000000000000000 ) );
#421 = DIRECTION( '', ( 0.000000000000000, 0.000000000000000, -1.00000000000000 ) );
#422 = CARTESIAN_POINT( '', ( 24.9000000000000, 0.000000000000000, -0.900000000000000 ) );
#423 = DIRECTION( '', ( 1.00000000000000, 0.000000000000000, 0.000000000000000 ) );
#424 = DIRECTION( '', ( 0.000000000000000, 0.000000000000000, -1.00000000000000 ) );
#425 = CARTESIAN_POINT( '', ( 14.4000000000000, 0.000000000000000, 0.0394254879969485 ) );
#426 = DIRECTION( '', ( 1.00000000000000, 0.000000000000000, 0.000000000000000 ) );
#427 = DIRECTION( '', ( -0.000000000000000, 0.000000000000000, 1.00000000000000 ) );
#428 = CARTESIAN_POINT( '', ( 185.600000000000, 0.000000000000000, -1.83799999999999 ) );
#429 = DIRECTION( '', ( 1.00000000000000, 0.000000000000000, 0.000000000000000 ) );
#430 = DIRECTION( '', ( -0.000000000000000, 0.000000000000000, 1.00000000000000 ) );
#431 = CARTESIAN_POINT( '', ( 195.326959180681, 0.000000000000000, -4.90489844914408 ) );
#432 = DIRECTION( '', ( 0.953716950748227, 0.000000000000000, -0.300705799504273 ) );
#433 = DIRECTION( '', ( -0.300705799504273, 0.000000000000000, -0.953716950748227 ) );
ENDSEC;
END-ISO-10303-21;
