ISO-10303-21;
HEADER;
FILE_DESCRIPTION( ( 'STEP AP214' ), '1' );
FILE_NAME( '//goodhand-server/Shared Folders/GoodHand Data/Kipp CAD/K0676/K0676.3008X020.stp', '2020-12-09T11:10:02', ( '' ), ( '' ), ' ', 'PARTsolutions', ' ' );
FILE_SCHEMA( ( 'AUTOMOTIVE_DESIGN { 1 0 10303 214 1 1 1 1 }' ) );
ENDSEC;
DATA;
#1 = MECHANICAL_DESIGN_GEOMETRIC_PRESENTATION_REPRESENTATION( ' ', ( #10, #11, #12, #13, #14, #15, #16, #17, #18, #19, #20 ), #6 );
#2 = PRODUCT_DEFINITION_CONTEXT( '', #21, 'design' );
#3 = APPLICATION_PROTOCOL_DEFINITION( 'international standard', 'automotive_design', 2001, #21 );
#4 = PRODUCT_CATEGORY_RELATIONSHIP( 'NONE', 'NONE', #22, #23 );
#5 = SHAPE_DEFINITION_REPRESENTATION( #24, #25 );
#6 =  ( GEOMETRIC_REPRESENTATION_CONTEXT( 3 )GLOBAL_UNCERTAINTY_ASSIGNED_CONTEXT( ( #28 ) )GLOBAL_UNIT_ASSIGNED_CONTEXT( ( #30, #31, #32 ) )REPRESENTATION_CONTEXT( 'NONE', 'WORKSPACE' ) );
#10 = STYLED_ITEM( '', ( #34 ), #35 );
#11 = STYLED_ITEM( '', ( #36 ), #37 );
#12 = STYLED_ITEM( '', ( #38 ), #39 );
#13 = STYLED_ITEM( '', ( #40 ), #41 );
#14 = STYLED_ITEM( '', ( #42 ), #43 );
#15 = STYLED_ITEM( '', ( #44 ), #45 );
#16 = STYLED_ITEM( '', ( #46 ), #47 );
#17 = STYLED_ITEM( '', ( #48 ), #49 );
#18 = STYLED_ITEM( '', ( #50 ), #51 );
#19 = STYLED_ITEM( '', ( #52 ), #53 );
#20 = STYLED_ITEM( '', ( #54 ), #55 );
#21 = APPLICATION_CONTEXT( 'core data for automotive mechanical design processes' );
#22 = PRODUCT_CATEGORY( 'part', 'NONE' );
#23 = PRODUCT_RELATED_PRODUCT_CATEGORY( 'detail', ' ', ( #56 ) );
#24 = PRODUCT_DEFINITION_SHAPE( 'NONE', 'NONE', #57 );
#25 = ADVANCED_BREP_SHAPE_REPRESENTATION( '_K0676.3008X020', ( #58, #59 ), #6 );
#28 = UNCERTAINTY_MEASURE_WITH_UNIT( LENGTH_MEASURE( 0.00100000000000000 ), #30, '', '' );
#30 =  ( CONVERSION_BASED_UNIT( 'MILLIMETRE', #62 )LENGTH_UNIT(  )NAMED_UNIT( #65 ) );
#31 =  ( NAMED_UNIT( #67 )PLANE_ANGLE_UNIT(  )SI_UNIT( $, .RADIAN. ) );
#32 =  ( NAMED_UNIT( #67 )SI_UNIT( $, .STERADIAN. )SOLID_ANGLE_UNIT(  ) );
#34 = PRESENTATION_STYLE_ASSIGNMENT( ( #73 ) );
#35 = ADVANCED_FACE( '', ( #74 ), #75, .F. );
#36 = PRESENTATION_STYLE_ASSIGNMENT( ( #76 ) );
#37 = ADVANCED_FACE( '', ( #77 ), #78, .T. );
#38 = PRESENTATION_STYLE_ASSIGNMENT( ( #79 ) );
#39 = ADVANCED_FACE( '', ( #80, #81 ), #82, .T. );
#40 = PRESENTATION_STYLE_ASSIGNMENT( ( #83 ) );
#41 = ADVANCED_FACE( '', ( #84 ), #85, .F. );
#42 = PRESENTATION_STYLE_ASSIGNMENT( ( #86 ) );
#43 = ADVANCED_FACE( '', ( #87 ), #88, .T. );
#44 = PRESENTATION_STYLE_ASSIGNMENT( ( #89 ) );
#45 = ADVANCED_FACE( '', ( #90 ), #91, .T. );
#46 = PRESENTATION_STYLE_ASSIGNMENT( ( #92 ) );
#47 = ADVANCED_FACE( '', ( #93 ), #94, .T. );
#48 = PRESENTATION_STYLE_ASSIGNMENT( ( #95 ) );
#49 = ADVANCED_FACE( '', ( #96, #97 ), #98, .T. );
#50 = PRESENTATION_STYLE_ASSIGNMENT( ( #99 ) );
#51 = ADVANCED_FACE( '', ( #100 ), #101, .T. );
#52 = PRESENTATION_STYLE_ASSIGNMENT( ( #102 ) );
#53 = ADVANCED_FACE( '', ( #103, #104 ), #105, .T. );
#54 = PRESENTATION_STYLE_ASSIGNMENT( ( #106 ) );
#55 = ADVANCED_FACE( '', ( #107 ), #108, .T. );
#56 = PRODUCT( '_K0676.3008X020', '_K0676.3008X020', 'PART-_K0676.3008X020-DESC', ( #109 ) );
#57 = PRODUCT_DEFINITION( 'NONE', 'NONE', #110, #2 );
#58 = MANIFOLD_SOLID_BREP( '_K0676.3008X020', #111 );
#59 = AXIS2_PLACEMENT_3D( '', #112, #113, #114 );
#62 = LENGTH_MEASURE_WITH_UNIT( LENGTH_MEASURE( 1.00000000000000 ), #115 );
#65 = DIMENSIONAL_EXPONENTS( 1.00000000000000, 0.000000000000000, 0.000000000000000, 0.000000000000000, 0.000000000000000, 0.000000000000000, 0.000000000000000 );
#67 = DIMENSIONAL_EXPONENTS( 0.000000000000000, 0.000000000000000, 0.000000000000000, 0.000000000000000, 0.000000000000000, 0.000000000000000, 0.000000000000000 );
#73 = SURFACE_STYLE_USAGE( .BOTH., #116 );
#74 = FACE_OUTER_BOUND( '', #117, .T. );
#75 = PLANE( '', #118 );
#76 = SURFACE_STYLE_USAGE( .BOTH., #119 );
#77 = FACE_OUTER_BOUND( '', #120, .T. );
#78 = PLANE( '', #121 );
#79 = SURFACE_STYLE_USAGE( .BOTH., #122 );
#80 = FACE_OUTER_BOUND( '', #123, .T. );
#81 = FACE_BOUND( '', #124, .T. );
#82 = CONICAL_SURFACE( '', #125, 3.23300000000000, 0.785398163400000 );
#83 = SURFACE_STYLE_USAGE( .BOTH., #126 );
#84 = FACE_OUTER_BOUND( '', #127, .T. );
#85 = PLANE( '', #128 );
#86 = SURFACE_STYLE_USAGE( .BOTH., #129 );
#87 = FACE_OUTER_BOUND( '', #130, .T. );
#88 = PLANE( '', #131 );
#89 = SURFACE_STYLE_USAGE( .BOTH., #132 );
#90 = FACE_OUTER_BOUND( '', #133, .T. );
#91 = PLANE( '', #134 );
#92 = SURFACE_STYLE_USAGE( .BOTH., #135 );
#93 = FACE_OUTER_BOUND( '', #136, .T. );
#94 = PLANE( '', #137 );
#95 = SURFACE_STYLE_USAGE( .BOTH., #138 );
#96 = FACE_BOUND( '', #139, .T. );
#97 = FACE_OUTER_BOUND( '', #140, .T. );
#98 = PLANE( '', #141 );
#99 = SURFACE_STYLE_USAGE( .BOTH., #142 );
#100 = FACE_OUTER_BOUND( '', #143, .T. );
#101 = PLANE( '', #144 );
#102 = SURFACE_STYLE_USAGE( .BOTH., #145 );
#103 = FACE_OUTER_BOUND( '', #146, .T. );
#104 = FACE_OUTER_BOUND( '', #147, .T. );
#105 = CYLINDRICAL_SURFACE( '', #148, 4.00000000000000 );
#106 = SURFACE_STYLE_USAGE( .BOTH., #149 );
#107 = FACE_OUTER_BOUND( '', #150, .T. );
#108 = PLANE( '', #151 );
#109 = PRODUCT_CONTEXT( '', #21, 'mechanical' );
#110 = PRODUCT_DEFINITION_FORMATION_WITH_SPECIFIED_SOURCE( ' ', 'NONE', #56, .NOT_KNOWN. );
#111 = CLOSED_SHELL( '', ( #37, #41, #55, #43, #45, #47, #51, #49, #35, #39, #53 ) );
#112 = CARTESIAN_POINT( '', ( 0.000000000000000, 0.000000000000000, 0.000000000000000 ) );
#113 = DIRECTION( '', ( 0.000000000000000, 0.000000000000000, 1.00000000000000 ) );
#114 = DIRECTION( '', ( 1.00000000000000, 0.000000000000000, 0.000000000000000 ) );
#115 =  ( LENGTH_UNIT(  )NAMED_UNIT( #65 )SI_UNIT( .MILLI., .METRE. ) );
#116 = SURFACE_SIDE_STYLE( '', ( #153 ) );
#117 = EDGE_LOOP( '', ( #154 ) );
#118 = AXIS2_PLACEMENT_3D( '', #155, #156, #157 );
#119 = SURFACE_SIDE_STYLE( '', ( #158 ) );
#120 = EDGE_LOOP( '', ( #159, #160, #161, #162 ) );
#121 = AXIS2_PLACEMENT_3D( '', #163, #164, #165 );
#122 = SURFACE_SIDE_STYLE( '', ( #166 ) );
#123 = EDGE_LOOP( '', ( #167 ) );
#124 = EDGE_LOOP( '', ( #168 ) );
#125 = AXIS2_PLACEMENT_3D( '', #169, #170, #171 );
#126 = SURFACE_SIDE_STYLE( '', ( #172 ) );
#127 = EDGE_LOOP( '', ( #173, #174, #175, #176, #177, #178 ) );
#128 = AXIS2_PLACEMENT_3D( '', #179, #180, #181 );
#129 = SURFACE_SIDE_STYLE( '', ( #182 ) );
#130 = EDGE_LOOP( '', ( #183, #184, #185, #186 ) );
#131 = AXIS2_PLACEMENT_3D( '', #187, #188, #189 );
#132 = SURFACE_SIDE_STYLE( '', ( #190 ) );
#133 = EDGE_LOOP( '', ( #191, #192, #193, #194 ) );
#134 = AXIS2_PLACEMENT_3D( '', #195, #196, #197 );
#135 = SURFACE_SIDE_STYLE( '', ( #198 ) );
#136 = EDGE_LOOP( '', ( #199, #200, #201, #202 ) );
#137 = AXIS2_PLACEMENT_3D( '', #203, #204, #205 );
#138 = SURFACE_SIDE_STYLE( '', ( #206 ) );
#139 = EDGE_LOOP( '', ( #207 ) );
#140 = EDGE_LOOP( '', ( #208, #209, #210, #211, #212, #213 ) );
#141 = AXIS2_PLACEMENT_3D( '', #214, #215, #216 );
#142 = SURFACE_SIDE_STYLE( '', ( #217 ) );
#143 = EDGE_LOOP( '', ( #218, #219, #220, #221 ) );
#144 = AXIS2_PLACEMENT_3D( '', #222, #223, #224 );
#145 = SURFACE_SIDE_STYLE( '', ( #225 ) );
#146 = EDGE_LOOP( '', ( #226 ) );
#147 = EDGE_LOOP( '', ( #227 ) );
#148 = AXIS2_PLACEMENT_3D( '', #228, #229, #230 );
#149 = SURFACE_SIDE_STYLE( '', ( #231 ) );
#150 = EDGE_LOOP( '', ( #232, #233, #234, #235 ) );
#151 = AXIS2_PLACEMENT_3D( '', #236, #237, #238 );
#153 = SURFACE_STYLE_FILL_AREA( #239 );
#154 = ORIENTED_EDGE( '', *, *, #240, .F. );
#155 = CARTESIAN_POINT( '', ( 0.000000000000000, 28.0000000000000, 0.000000000000000 ) );
#156 = DIRECTION( '', ( 0.000000000000000, -1.00000000000000, -0.000000000000000 ) );
#157 = DIRECTION( '', ( 0.000000000000000, 0.000000000000000, -1.00000000000000 ) );
#158 = SURFACE_STYLE_FILL_AREA( #241 );
#159 = ORIENTED_EDGE( '', *, *, #242, .F. );
#160 = ORIENTED_EDGE( '', *, *, #243, .F. );
#161 = ORIENTED_EDGE( '', *, *, #244, .T. );
#162 = ORIENTED_EDGE( '', *, *, #245, .T. );
#163 = CARTESIAN_POINT( '', ( 0.000000000000000, 8.00000000000000, -17.3205080756888 ) );
#164 = DIRECTION( '', ( -0.499524110790929, -0.0436193873653360, -0.865201139495554 ) );
#165 = DIRECTION( '', ( -0.866025403784439, -2.42136240865198E-18, 0.500000000000000 ) );
#166 = SURFACE_STYLE_FILL_AREA( #246 );
#167 = ORIENTED_EDGE( '', *, *, #247, .F. );
#168 = ORIENTED_EDGE( '', *, *, #240, .T. );
#169 = CARTESIAN_POINT( '', ( 0.000000000000000, 28.0000000000000, 0.000000000000000 ) );
#170 = DIRECTION( '', ( -0.000000000000000, -1.00000000000000, -0.000000000000000 ) );
#171 = DIRECTION( '', ( 0.000000000000000, 0.000000000000000, -1.00000000000000 ) );
#172 = SURFACE_STYLE_FILL_AREA( #248 );
#173 = ORIENTED_EDGE( '', *, *, #249, .F. );
#174 = ORIENTED_EDGE( '', *, *, #244, .F. );
#175 = ORIENTED_EDGE( '', *, *, #250, .F. );
#176 = ORIENTED_EDGE( '', *, *, #251, .F. );
#177 = ORIENTED_EDGE( '', *, *, #252, .F. );
#178 = ORIENTED_EDGE( '', *, *, #253, .F. );
#179 = CARTESIAN_POINT( '', ( 0.000000000000000, 0.000000000000000, 0.000000000000000 ) );
#180 = DIRECTION( '', ( 0.000000000000000, 1.00000000000000, 0.000000000000000 ) );
#181 = DIRECTION( '', ( 0.000000000000000, -0.000000000000000, 1.00000000000000 ) );
#182 = SURFACE_STYLE_FILL_AREA( #254 );
#183 = ORIENTED_EDGE( '', *, *, #255, .F. );
#184 = ORIENTED_EDGE( '', *, *, #245, .F. );
#185 = ORIENTED_EDGE( '', *, *, #249, .T. );
#186 = ORIENTED_EDGE( '', *, *, #256, .T. );
#187 = CARTESIAN_POINT( '', ( -15.0000000000000, 8.00000000000000, -8.66025403784439 ) );
#188 = DIRECTION( '', ( -0.999048221581858, -0.0436193873653360, 0.000000000000000 ) );
#189 = DIRECTION( '', ( 0.0436193873653360, -0.999048221581858, 0.000000000000000 ) );
#190 = SURFACE_STYLE_FILL_AREA( #257 );
#191 = ORIENTED_EDGE( '', *, *, #258, .F. );
#192 = ORIENTED_EDGE( '', *, *, #256, .F. );
#193 = ORIENTED_EDGE( '', *, *, #253, .T. );
#194 = ORIENTED_EDGE( '', *, *, #259, .T. );
#195 = CARTESIAN_POINT( '', ( -15.0000000000000, 8.00000000000000, 8.66025403784439 ) );
#196 = DIRECTION( '', ( -0.499524110790929, -0.0436193873653360, 0.865201139495554 ) );
#197 = DIRECTION( '', ( 0.866025403784439, 2.42136240865198E-18, 0.500000000000000 ) );
#198 = SURFACE_STYLE_FILL_AREA( #260 );
#199 = ORIENTED_EDGE( '', *, *, #261, .F. );
#200 = ORIENTED_EDGE( '', *, *, #259, .F. );
#201 = ORIENTED_EDGE( '', *, *, #252, .T. );
#202 = ORIENTED_EDGE( '', *, *, #262, .T. );
#203 = CARTESIAN_POINT( '', ( 0.000000000000000, 8.00000000000000, 17.3205080756888 ) );
#204 = DIRECTION( '', ( 0.499524110790929, -0.0436193873653360, 0.865201139495554 ) );
#205 = DIRECTION( '', ( 0.866025403784439, -2.42136240865198E-18, -0.500000000000000 ) );
#206 = SURFACE_STYLE_FILL_AREA( #263 );
#207 = ORIENTED_EDGE( '', *, *, #264, .T. );
#208 = ORIENTED_EDGE( '', *, *, #255, .T. );
#209 = ORIENTED_EDGE( '', *, *, #258, .T. );
#210 = ORIENTED_EDGE( '', *, *, #261, .T. );
#211 = ORIENTED_EDGE( '', *, *, #265, .T. );
#212 = ORIENTED_EDGE( '', *, *, #266, .T. );
#213 = ORIENTED_EDGE( '', *, *, #242, .T. );
#214 = CARTESIAN_POINT( '', ( 0.000000000000000, 8.00000000000000, 0.000000000000000 ) );
#215 = DIRECTION( '', ( 0.000000000000000, 1.00000000000000, 0.000000000000000 ) );
#216 = DIRECTION( '', ( 0.000000000000000, -0.000000000000000, 1.00000000000000 ) );
#217 = SURFACE_STYLE_FILL_AREA( #267 );
#218 = ORIENTED_EDGE( '', *, *, #265, .F. );
#219 = ORIENTED_EDGE( '', *, *, #262, .F. );
#220 = ORIENTED_EDGE( '', *, *, #251, .T. );
#221 = ORIENTED_EDGE( '', *, *, #268, .T. );
#222 = CARTESIAN_POINT( '', ( 15.0000000000000, 8.00000000000000, 8.66025403784439 ) );
#223 = DIRECTION( '', ( 0.999048221581858, -0.0436193873653360, 0.000000000000000 ) );
#224 = DIRECTION( '', ( 0.0436193873653360, 0.999048221581858, 0.000000000000000 ) );
#225 = SURFACE_STYLE_FILL_AREA( #269 );
#226 = ORIENTED_EDGE( '', *, *, #264, .F. );
#227 = ORIENTED_EDGE( '', *, *, #247, .T. );
#228 = CARTESIAN_POINT( '', ( 0.000000000000000, 8.00000000000000, 0.000000000000000 ) );
#229 = DIRECTION( '', ( -0.000000000000000, 1.00000000000000, 0.000000000000000 ) );
#230 = DIRECTION( '', ( 0.000000000000000, 0.000000000000000, -1.00000000000000 ) );
#231 = SURFACE_STYLE_FILL_AREA( #270 );
#232 = ORIENTED_EDGE( '', *, *, #266, .F. );
#233 = ORIENTED_EDGE( '', *, *, #268, .F. );
#234 = ORIENTED_EDGE( '', *, *, #250, .T. );
#235 = ORIENTED_EDGE( '', *, *, #243, .T. );
#236 = CARTESIAN_POINT( '', ( 15.0000000000000, 8.00000000000000, -8.66025403784439 ) );
#237 = DIRECTION( '', ( 0.499524110790929, -0.0436193873653360, -0.865201139495554 ) );
#238 = DIRECTION( '', ( -0.866025403784439, 2.42136240865198E-18, -0.500000000000000 ) );
#239 = FILL_AREA_STYLE( '', ( #271 ) );
#240 = EDGE_CURVE( '', #272, #272, #273, .T. );
#241 = FILL_AREA_STYLE( '', ( #274 ) );
#242 = EDGE_CURVE( '', #275, #276, #277, .T. );
#243 = EDGE_CURVE( '', #278, #275, #279, .T. );
#244 = EDGE_CURVE( '', #278, #280, #281, .T. );
#245 = EDGE_CURVE( '', #280, #276, #282, .T. );
#246 = FILL_AREA_STYLE( '', ( #283 ) );
#247 = EDGE_CURVE( '', #284, #284, #285, .T. );
#248 = FILL_AREA_STYLE( '', ( #286 ) );
#249 = EDGE_CURVE( '', #280, #287, #288, .T. );
#250 = EDGE_CURVE( '', #289, #278, #290, .T. );
#251 = EDGE_CURVE( '', #291, #289, #292, .T. );
#252 = EDGE_CURVE( '', #293, #291, #294, .T. );
#253 = EDGE_CURVE( '', #287, #293, #295, .T. );
#254 = FILL_AREA_STYLE( '', ( #296 ) );
#255 = EDGE_CURVE( '', #276, #297, #298, .T. );
#256 = EDGE_CURVE( '', #287, #297, #299, .T. );
#257 = FILL_AREA_STYLE( '', ( #300 ) );
#258 = EDGE_CURVE( '', #297, #301, #302, .T. );
#259 = EDGE_CURVE( '', #293, #301, #303, .T. );
#260 = FILL_AREA_STYLE( '', ( #304 ) );
#261 = EDGE_CURVE( '', #301, #305, #306, .T. );
#262 = EDGE_CURVE( '', #291, #305, #307, .T. );
#263 = FILL_AREA_STYLE( '', ( #308 ) );
#264 = EDGE_CURVE( '', #309, #309, #310, .T. );
#265 = EDGE_CURVE( '', #305, #311, #312, .T. );
#266 = EDGE_CURVE( '', #311, #275, #313, .T. );
#267 = FILL_AREA_STYLE( '', ( #314 ) );
#268 = EDGE_CURVE( '', #289, #311, #315, .T. );
#269 = FILL_AREA_STYLE( '', ( #316 ) );
#270 = FILL_AREA_STYLE( '', ( #317 ) );
#271 = FILL_AREA_STYLE_COLOUR( '', #318 );
#272 = VERTEX_POINT( '', #319 );
#273 = CIRCLE( '', #320, 3.23300000000000 );
#274 = FILL_AREA_STYLE_COLOUR( '', #321 );
#275 = VERTEX_POINT( '', #322 );
#276 = VERTEX_POINT( '', #323 );
#277 = LINE( '', #324, #325 );
#278 = VERTEX_POINT( '', #326 );
#279 = LINE( '', #327, #328 );
#280 = VERTEX_POINT( '', #329 );
#281 = LINE( '', #330, #331 );
#282 = LINE( '', #332, #333 );
#283 = FILL_AREA_STYLE_COLOUR( '', #334 );
#284 = VERTEX_POINT( '', #335 );
#285 = CIRCLE( '', #336, 4.00000000000000 );
#286 = FILL_AREA_STYLE_COLOUR( '', #337 );
#287 = VERTEX_POINT( '', #338 );
#288 = LINE( '', #339, #340 );
#289 = VERTEX_POINT( '', #341 );
#290 = LINE( '', #342, #343 );
#291 = VERTEX_POINT( '', #344 );
#292 = LINE( '', #345, #346 );
#293 = VERTEX_POINT( '', #347 );
#294 = LINE( '', #348, #349 );
#295 = LINE( '', #350, #351 );
#296 = FILL_AREA_STYLE_COLOUR( '', #352 );
#297 = VERTEX_POINT( '', #353 );
#298 = LINE( '', #354, #355 );
#299 = LINE( '', #356, #357 );
#300 = FILL_AREA_STYLE_COLOUR( '', #358 );
#301 = VERTEX_POINT( '', #359 );
#302 = LINE( '', #360, #361 );
#303 = LINE( '', #362, #363 );
#304 = FILL_AREA_STYLE_COLOUR( '', #364 );
#305 = VERTEX_POINT( '', #365 );
#306 = LINE( '', #366, #367 );
#307 = LINE( '', #368, #369 );
#308 = FILL_AREA_STYLE_COLOUR( '', #370 );
#309 = VERTEX_POINT( '', #371 );
#310 = CIRCLE( '', #372, 4.00000000000000 );
#311 = VERTEX_POINT( '', #373 );
#312 = LINE( '', #374, #375 );
#313 = LINE( '', #376, #377 );
#314 = FILL_AREA_STYLE_COLOUR( '', #378 );
#315 = LINE( '', #379, #380 );
#316 = FILL_AREA_STYLE_COLOUR( '', #381 );
#317 = FILL_AREA_STYLE_COLOUR( '', #382 );
#318 = COLOUR_RGB( '', 0.689999997600000, 0.689999997600000, 0.689999997600000 );
#319 = CARTESIAN_POINT( '', ( 0.000000000000000, 28.0000000000000, -3.23300000000000 ) );
#320 = AXIS2_PLACEMENT_3D( '', #383, #384, #385 );
#321 = COLOUR_RGB( '', 0.689999997600000, 0.689999997600000, 0.689999997600000 );
#322 = CARTESIAN_POINT( '', ( 0.000000000000000, 8.00000000000000, -17.3205080756888 ) );
#323 = CARTESIAN_POINT( '', ( -15.0000000000000, 8.00000000000000, -8.66025403784439 ) );
#324 = CARTESIAN_POINT( '', ( 0.000000000000000, 8.00000000000000, -17.3205080756888 ) );
#325 = VECTOR( '', #386, 1000.00000000000 );
#326 = CARTESIAN_POINT( '', ( -4.39010374806836E-16, 0.000000000000000, -16.9171855614279 ) );
#327 = CARTESIAN_POINT( '', ( 0.000000000000000, 7.56449748935085, -17.2985520797435 ) );
#328 = VECTOR( '', #387, 1000.00000000000 );
#329 = CARTESIAN_POINT( '', ( -14.6507124567319, 0.000000000000000, -8.45859278071397 ) );
#330 = CARTESIAN_POINT( '', ( -7.32535622836595, 0.000000000000000, -12.6878891710710 ) );
#331 = VECTOR( '', #388, 1000.00000000000 );
#332 = CARTESIAN_POINT( '', ( -14.9809855497460, 7.56449748935085, -8.64927603987177 ) );
#333 = VECTOR( '', #389, 1000.00000000000 );
#334 = COLOUR_RGB( '', 0.689999997600000, 0.689999997600000, 0.689999997600000 );
#335 = CARTESIAN_POINT( '', ( 0.000000000000000, 27.2330000000000, -4.00000000000000 ) );
#336 = AXIS2_PLACEMENT_3D( '', #390, #391, #392 );
#337 = COLOUR_RGB( '', 0.689999997600000, 0.689999997600000, 0.689999997600000 );
#338 = CARTESIAN_POINT( '', ( -14.6507124567319, 0.000000000000000, 8.45859278071397 ) );
#339 = CARTESIAN_POINT( '', ( -14.6507124567319, 0.000000000000000, 0.000000000000000 ) );
#340 = VECTOR( '', #393, 1000.00000000000 );
#341 = CARTESIAN_POINT( '', ( 14.6507124567319, 0.000000000000000, -8.45859278071397 ) );
#342 = CARTESIAN_POINT( '', ( 7.32535622836595, 0.000000000000000, -12.6878891710710 ) );
#343 = VECTOR( '', #394, 1000.00000000000 );
#344 = CARTESIAN_POINT( '', ( 14.6507124567319, 0.000000000000000, 8.45859278071397 ) );
#345 = CARTESIAN_POINT( '', ( 14.6507124567319, 0.000000000000000, 0.000000000000000 ) );
#346 = VECTOR( '', #395, 1000.00000000000 );
#347 = CARTESIAN_POINT( '', ( 4.39010374806836E-16, 0.000000000000000, 16.9171855614279 ) );
#348 = CARTESIAN_POINT( '', ( 7.32535622836595, 0.000000000000000, 12.6878891710710 ) );
#349 = VECTOR( '', #396, 1000.00000000000 );
#350 = CARTESIAN_POINT( '', ( -7.32535622836595, 0.000000000000000, 12.6878891710710 ) );
#351 = VECTOR( '', #397, 1000.00000000000 );
#352 = COLOUR_RGB( '', 0.689999997600000, 0.689999997600000, 0.689999997600000 );
#353 = CARTESIAN_POINT( '', ( -15.0000000000000, 8.00000000000000, 8.66025403784439 ) );
#354 = CARTESIAN_POINT( '', ( -15.0000000000000, 8.00000000000000, -8.66025403784439 ) );
#355 = VECTOR( '', #398, 1000.00000000000 );
#356 = CARTESIAN_POINT( '', ( -14.9809855497460, 7.56449748935085, 8.64927603987177 ) );
#357 = VECTOR( '', #399, 1000.00000000000 );
#358 = COLOUR_RGB( '', 0.689999997600000, 0.689999997600000, 0.689999997600000 );
#359 = CARTESIAN_POINT( '', ( 0.000000000000000, 8.00000000000000, 17.3205080756888 ) );
#360 = CARTESIAN_POINT( '', ( -15.0000000000000, 8.00000000000000, 8.66025403784439 ) );
#361 = VECTOR( '', #400, 1000.00000000000 );
#362 = CARTESIAN_POINT( '', ( 0.000000000000000, 7.56449748935085, 17.2985520797435 ) );
#363 = VECTOR( '', #401, 1000.00000000000 );
#364 = COLOUR_RGB( '', 0.689999997600000, 0.689999997600000, 0.689999997600000 );
#365 = CARTESIAN_POINT( '', ( 15.0000000000000, 8.00000000000000, 8.66025403784439 ) );
#366 = CARTESIAN_POINT( '', ( 0.000000000000000, 8.00000000000000, 17.3205080756888 ) );
#367 = VECTOR( '', #402, 1000.00000000000 );
#368 = CARTESIAN_POINT( '', ( 14.9809855497460, 7.56449748935085, 8.64927603987177 ) );
#369 = VECTOR( '', #403, 1000.00000000000 );
#370 = COLOUR_RGB( '', 0.689999997600000, 0.689999997600000, 0.689999997600000 );
#371 = CARTESIAN_POINT( '', ( 0.000000000000000, 8.00000000000000, -4.00000000000000 ) );
#372 = AXIS2_PLACEMENT_3D( '', #404, #405, #406 );
#373 = CARTESIAN_POINT( '', ( 15.0000000000000, 8.00000000000000, -8.66025403784439 ) );
#374 = CARTESIAN_POINT( '', ( 15.0000000000000, 8.00000000000000, 8.66025403784439 ) );
#375 = VECTOR( '', #407, 1000.00000000000 );
#376 = CARTESIAN_POINT( '', ( 15.0000000000000, 8.00000000000000, -8.66025403784439 ) );
#377 = VECTOR( '', #408, 1000.00000000000 );
#378 = COLOUR_RGB( '', 0.689999997600000, 0.689999997600000, 0.689999997600000 );
#379 = CARTESIAN_POINT( '', ( 14.9809855497460, 7.56449748935085, -8.64927603987177 ) );
#380 = VECTOR( '', #409, 1000.00000000000 );
#381 = COLOUR_RGB( '', 0.689999997600000, 0.689999997600000, 0.689999997600000 );
#382 = COLOUR_RGB( '', 0.689999997600000, 0.689999997600000, 0.689999997600000 );
#383 = CARTESIAN_POINT( '', ( 0.000000000000000, 28.0000000000000, 0.000000000000000 ) );
#384 = DIRECTION( '', ( 0.000000000000000, -1.00000000000000, -0.000000000000000 ) );
#385 = DIRECTION( '', ( 0.000000000000000, 0.000000000000000, -1.00000000000000 ) );
#386 = DIRECTION( '', ( -0.866025403784439, 0.000000000000000, 0.500000000000000 ) );
#387 = DIRECTION( '', ( 0.000000000000000, 0.998731565520054, -0.0503513657596513 ) );
#388 = DIRECTION( '', ( -0.866025403784439, 0.000000000000000, 0.500000000000000 ) );
#389 = DIRECTION( '', ( -0.0436055618630999, 0.998731565520054, -0.0251756828798256 ) );
#390 = CARTESIAN_POINT( '', ( 0.000000000000000, 27.2330000000000, 0.000000000000000 ) );
#391 = DIRECTION( '', ( 0.000000000000000, -1.00000000000000, -0.000000000000000 ) );
#392 = DIRECTION( '', ( 0.000000000000000, 0.000000000000000, -1.00000000000000 ) );
#393 = DIRECTION( '', ( 0.000000000000000, 0.000000000000000, 1.00000000000000 ) );
#394 = DIRECTION( '', ( -0.866025403784439, 0.000000000000000, -0.500000000000000 ) );
#395 = DIRECTION( '', ( 0.000000000000000, 0.000000000000000, -1.00000000000000 ) );
#396 = DIRECTION( '', ( 0.866025403784439, 0.000000000000000, -0.500000000000000 ) );
#397 = DIRECTION( '', ( 0.866025403784439, 0.000000000000000, 0.500000000000000 ) );
#398 = DIRECTION( '', ( 0.000000000000000, 0.000000000000000, 1.00000000000000 ) );
#399 = DIRECTION( '', ( -0.0436055618630999, 0.998731565520054, 0.0251756828798256 ) );
#400 = DIRECTION( '', ( 0.866025403784439, 0.000000000000000, 0.500000000000000 ) );
#401 = DIRECTION( '', ( 0.000000000000000, 0.998731565520054, 0.0503513657596513 ) );
#402 = DIRECTION( '', ( 0.866025403784439, 0.000000000000000, -0.500000000000000 ) );
#403 = DIRECTION( '', ( 0.0436055618630999, 0.998731565520054, 0.0251756828798256 ) );
#404 = CARTESIAN_POINT( '', ( 0.000000000000000, 8.00000000000000, 0.000000000000000 ) );
#405 = DIRECTION( '', ( 0.000000000000000, -1.00000000000000, -0.000000000000000 ) );
#406 = DIRECTION( '', ( 0.000000000000000, 0.000000000000000, -1.00000000000000 ) );
#407 = DIRECTION( '', ( 0.000000000000000, 0.000000000000000, -1.00000000000000 ) );
#408 = DIRECTION( '', ( -0.866025403784439, 0.000000000000000, -0.500000000000000 ) );
#409 = DIRECTION( '', ( 0.0436055618630999, 0.998731565520054, -0.0251756828798256 ) );
ENDSEC;
END-ISO-10303-21;
